Oops, an error
Loading. Please wait.

Suffering Bass Tab

ver2
ver2

Whole song

Interactive

More versions @911Tabs.com
9,459 views 3 this week
2 commentsread comments
1 2 3 4 5
excellent!
x 2
add to favorites launch autoscroll
font size
0
reset
Autoscroll
+/-
esc
set tempo
stop
Contributor
Difficulty
advanced
WARNING: You are trying to view
                                    content from Ultimate-Guitar.com
                                    in an unauthorized application,
                                    which is prohibited.

                                    Please use an official Ultimate
                                    Guitar Tabs application for iPhone,
                                    iPad or Android to access legitimate
                                    chords, guitar, bass, and drum tabs
                                    from Ultimate-Guitar.com database.

                                    Type "ultimate guitar tabs" in Apple
                                    App Store's or Android Market's
                                    search to find the application.
THE SUFFERING (Bassline)
                        Words by Claudio Sanchez
Music by Coheed and Cambria

Gtr I (Eb Ab Db Gb) - 'bass'
Gtr II (Eb Ab Db Gb Bb Eb) - 'piano arr. for gtr.'
Gtr III (Eb Ab Db Gb Bb Eb) - 'dist. (overdub)'

 Intro
  Moderate Rock Q=150
 1/4   4/4
    Gtr I
  E E   +E   H..         H    E  E E E   +E   Q  E E Q.     H..       E
|-----|----------------|---------------|------------------|--------------|
|-----|----------------|---------------|------------------|--------------|
|-----|----------------|-------------7-|-(7)\----7--------|--------------|
|---8-|-(8)\-----------|--------10-----|-----------0------|-----------5--|


  +E  E E E E E E E   +E  E E E E E E E   +E  E E E E E E E   E E E E E E E E
|-------------------|-------------------|-------------------|-----------------||
|-------------------|-------------------|-------------------|-----------------||
|-------------------|-------------------|-----3-------3-----|---3-------0-----||
|-(5)-5-5-3-5-7-5-3-|-(3)-1-3-5-3-0---1-|-(1)-----0-1-----0-|-1-----0-1-----8-||


   Verse
    +E  E E  E E E  E  E    E  E E E E  E E E
||-----------------------|--------------------|
||o----------------------|--------------------|
||o---------10-7---------|----10---7--------7-|
||--(8)s3----------10-10-|-10----------10-----|


  +E   Q  E E Q  E   E Q  E E E E E
|------------------|-----------------|
|------------------|------2-2--------|
|-(7)\----7-7----7-|-7---------------|
|------------------|----------3-0-5--|


  +E  E E E E E E E   +E  E E E E E E E
|-------------------|-------------------|
|-------------------|-------------------|
|-------------------|-------------------|
|-(5)-5-5-3-5-7-5-3-|-(3)-1-3-5-3-0---1-|


  +E  E E E E  E E E   E  E E E E  E E E
|--------------------|--------------------||
|-------------10-----|---10--------------o||
|-----3---7-8------7-|-8------7-8-10-----o||
|-(1)----------------|-----------------8--||


  +E  E E  E E E  E  E    E  E E E E  E E E
|----------------------|--------------------|
|----------------------|--------------------|
|---------10-7---------|----10---7--------7-|
|-(8)s3----------10-10-|-10----------10-----|


  +E   Q  E E Q  E   E Q  E E E E E
|------------------|----------------|
|------------------|------2-2-------|
|-(7)\----7-7----7-|-7--------------|
|------------------|----------3-0-5-|


  +E  E E E E E E E   +E  E E E E E E E
|-------------------|-------------------|
|-------------------|-------------------|
|-------------------|-------------------|
|-(5)-5-5-3-5-7-5-3-|-(3)-1-3-5-3-0---1-|


  +E   E E E  E  E E E   E  E E E E  E E E
|----------------------|-------------------||
|-----10-----10-10-----|---10--------------||
|----------8---------7-|-8------7-8-10-7-5-||
|-(1)------------------|-------------------||


 Pre-Chorus
  +E  E E E E E E E   E   E E E E E E  E
|-------------------|--------------------|
|-------------------|--------------------|
|-(5)-5-5-5-5-5-5-5-|-----5-5-5-5-5-5--8-|
|-------------------|--------------------|
|
|                                     Gtr
|  W                  H..              E
|-------------------|-----------------22-|
|-------------------|-----------------20-|
|-------------------|--------------------|
|-------------------|--------------------|
|-------------------|--------------------|
|-------------------|--------------------|


  +E   E  E  E  E  E  E  E    E  E  E  E  E  E  E  E
|--------------------------|-------------------------|
|--------------------------|-------------------------|
|-(8)--8-------------------|-------------------------|
|------------1--1--1-----1-|--1--1-----1--1--3-----5-|
|
|II
|  E   E  E  E  E  E  E  E    E  E  E  E  E  E  E  E
|-22--22-22-22-22-22-22-22-|-22-22-22-22-22-22-22-22-|
|-20--20-20-20-20-20-20-20-|-20-20-20-20-20-20-20-20-|
|--------------------------|-------------------------|
|--------------------------|-------------------------|
|--------------------------|-------------------------|
|--------------------------|-------------------------|


  +E   E  E  E  E  E  E  E   +E   E  E  E  E  E  E  E
|--------------------------|--------------------------|
|--------------------------|--------------------------|
|--------------------------|------------------------3-|
|-(5)--5--5--3--5--7--5--3-|-(3)--3--3--3--3--5-------|
|
|  E   E  E  E  E  E  E  E    E   E  E  E  E  E  E  E
|-22--22-22-22-22-22-22-22-|-22--22-22-22-22-22-22-22-|
|-20--20-20-20-20-20-20-20-|-20--20-20-20-20-20-20-20-|
|--------------------------|--------------------------|
|--------------------------|--------------------------|
|--------------------------|--------------------------|
|--------------------------|--------------------------|


  +E   E  E  E  E  E  E E   E E E E E E E E
|-------------------------|-----------------|
|---------2--0------------|-----------------|
|-(3)--3--------3--0------|---------------5-|
|---------------------3-1-|---1---1---1-----|
|
|  E   E  E  E  E  E  E E   W
|-22--22-22-22-22-22-22---|-----------------|
|-20--20-20-20-20-20-20---|-----------------|
|-------------------------|-----------------|
|-------------------------|-----------------|
|-------------------------|-----------------|
|-------------------------|-----------------|


  +E  E E E E E E E   E   E E E E E E  E
|-------------------|--------------------|
|-------------------|--------------------|
|-(5)-5-5-5-5-5-5-5-|-----5-5-5-5-5-5--8-|
|-------------------|--------------------|
|
|  W                  H..              E
|-------------------|-----------------22-|
|-------------------|-----------------20-|
|-------------------|--------------------|
|-------------------|--------------------|
|-------------------|--------------------|
|-------------------|--------------------|


  +E   E  E  E  E  E  E  E    E  E  E  E  E  E  E  E
|--------------------------|-------------------------|
|--------------------------|-------------------------|
|-(8)--8-------------------|-------------------------|
|------------1--1--1-----1-|--1--1-----1--1--3-----5-|
|
|  E   E  E  E  E  E  E  E    E  E  E  E  E  E  E  E
|-22--22-22-22-22-22-22-22-|-22-22-22-22-22-22-22-22-|
|-20--20-20-20-20-20-20-20-|-20-20-20-20-20-20-20-20-|
|--------------------------|-------------------------|
|--------------------------|-------------------------|
|--------------------------|-------------------------|
|--------------------------|-------------------------|


  +E   E  E  E  E  E  E  E   +E   E  E  E  E  E  E  E
|--------------------------|--------------------------|
|--------------------------|--------------------------|
|--------------------------|---------5--3--2--0-----3-|
|-(5)--5--5--5--5--8--7--3-|-(3)--3--------------3----|
|
|  E   E  E  E  E  E  E  E    E   E  E  E  E  E  E  E
|-22--22-22-22-22-22-22-22-|-22--22-22-22-22-22-22-22-|
|-20--20-20-20-20-20-20-20-|-20--20-20-20-20-20-20-20-|
|--------------------------|--------------------------|
|--------------------------|--------------------------|
|--------------------------|--------------------------|
|--------------------------|--------------------------|


  +E   E  E  E  E  E  E E   E E E E E E E E
|-------------------------|-----------------||
|---------2--0------------|-----------------||
|-(3)--3--------3--0------|-----------------||
|---------------------3-1-|---1---1---1-1-8-||
|
|  E   E  E  E  E  E  E E   W
|-22--22-22-22-22-22-22---|-----------------||
|-20--20-20-20-20-20-20---|-----------------||
|-------------------------|-----------------||
|-------------------------|-----------------||
|-------------------------|-----------------||
|-------------------------|-----------------||


 Verse
  W          H    E  E E E   +E   Q  E E Q  E   E H..
|----------|---------------|------------------|----------|
|----------|---------------|------------------|----------|
|----------|-------------7-|-(7)\----7--------|----------|
|----------|--------10-----|-----------0----0-|-0--------|


  E E E E E E E E   +E  E E E E E E E   +E  E E E E  E E E   E  E E E E  E E E
|-----------------|-------------------|--------------------|-------------------|
|-----------------|-------------------|-------------10-----|---10--------------|
|-----------------|-------------------|-----3---7-8------7-|-8------7-8-10-----|
|-5-5-5-3-5-7-5-3-|-(3)-1-3-5-3-0---1-|-(1)----------------|-----------------8-|


  +E  E E  E E E  E  E    E  E E E E  E E E
|----------------------|--------------------|
|----------------------|--------------------|
|---------10-7---------|----10---7--------7-|
|-(8)s3----------10-10-|-10----------10-----|


  +E   Q  E E Q  E   E Q  E E E E E
|------------------|----------------|
|------------------|------2-2-------|
|-(7)\----7-7----7-|-7--------------|
|------------------|----------3-0-5-|


  +E  E E E E E E E   +E  E E E E E E E
|-------------------|-------------------|
|-------------------|-------------------|
|-------------------|-------------------|
|-(5)-5-5-3-5-7-5-3-|-(3)-1-3-5-3-0---1-|


  +E   E E E  E  E E E   E  E E E E  E E E
|----------------------|-------------------||
|-----10-----10-10-----|---10--------------||
|----------8---------7-|-8------7-8-10-7-5-||
|-(1)------------------|-------------------||


 Pre-Chorus
  +E  E E E E E E E   E   E E E E E E  E
|-------------------|--------------------|
|-------------------|--------------------|
|-(5)-5-5-5-5-5-5-5-|-----5-5-5-5-5-5--8-|
|-------------------|--------------------|
|
|                                     Gtr
|  W                  H..              E
|-------------------|-----------------22-|
|-------------------|-----------------20-|
|-------------------|--------------------|
|-------------------|--------------------|
|-------------------|--------------------|
|-------------------|--------------------|


  +E   E  E  E  E  E  E  E    E  E  E  E  E  E  E  E
|--------------------------|-------------------------|
|--------------------------|-------------------------|
|-(8)--8-------------------|-------------------------|
|------------1--1--1-----1-|--1--1-----1--1--3-----5-|
|
|II
|  E   E  E  E  E  E  E  E    E  E  E  E  E  E  E  E
|-22--22-22-22-22-22-22-22-|-22-22-22-22-22-22-22-22-|
|-20--20-20-20-20-20-20-20-|-20-20-20-20-20-20-20-20-|
|--------------------------|-------------------------|
|--------------------------|-------------------------|
|--------------------------|-------------------------|
|--------------------------|-------------------------|


   E  E  E  E  E  E  E  E   +E   E  E  E  E  E  E  E
|-------------------------|--------------------------|
|-------------------------|--------------------------|
|-------------------------|------------------------3-|
|--5--5--5--3--5--7--5--3-|-(3)--3--3--3--3--5-------|
|
|  E  E  E  E  E  E  E  E    E   E  E  E  E  E  E  E
|-22-22-22-22-22-22-22-22-|-22--22-22-22-22-22-22-22-|
|-20-20-20-20-20-20-20-20-|-20--20-20-20-20-20-20-20-|
|-------------------------|--------------------------|
|-------------------------|--------------------------|
|-------------------------|--------------------------|
|-------------------------|--------------------------|


  +E   E  E  E  E  E  E E   E E E E E E E E
|-------------------------|-----------------|
|---------2--0------------|-----------------|
|-(3)--3--------3--0------|-----------------|
|---------------------3-1-|---1---1---1-1-1-|
|
|  E   E  E  E  E  E  E E   W
|-22--22-22-22-22-22-22---|-----------------|
|-20--20-20-20-20-20-20---|-----------------|
|-------------------------|-----------------|
|-------------------------|-----------------|
|-------------------------|-----------------|
|-------------------------|-----------------|


  E E E E E E E E   Q  E E E E E E   E E E E E E E E
|-----------------|----------------|-----------------||
|-----------------|----------------|-----------------||
|-----------------|----------------|---------------3-||
|---1---1---1-1-1-|----1-1-1-1-1-1-|-1-1-1-1-1-3-----||


 Chorus
  E E E E E E E E   E E E E E E E E   E E E E E E E E   E E E E E E E E
|-----------------|-----------------|-----------------|-----------------|
|-----------------|-----------------|-----------------|-----------------|
|-3-3-3-3-3-3-3-3-|-3-3-3-3-3-2-0---|-----------------|-----------------|
|-----------------|---------------3-|-3-3-3-3-3-3-3-3-|-3-3-3-3-3-3-3-5-|


  E E E E E E E E   E E E E E E E E   E E E E E E E E   E E E E E E E E
|-----------------|-----------------|-----------------|-----------------|
|-----------------|-----------------|-----------------|-----------------|
|-----------------|---------3-2-0---|-----------0-2---|-----------0-2-3-|
|-5-5-5-5-5-5-5-5-|-5-5-5-5-------1-|-1-1-1-1-3-----3-|-3-3-3-3-3-------|


  E E E E E E E E   E E E E E E E E   E E E E E E E E   E E E E E E E E
|-----------------|-----------------|-----------------|-----------------|
|-----------------|-----------------|-----------------|-----------------|
|-3-3-3-3-3-3-3-3-|-3-3-3-3-3-2-0---|-----------------|-----------------|
|-----------------|---------------3-|-3-3-3-3-3-3-3-3-|-3-3-3-3-3-3-3-5-|


  E E E E E E E E   E E E E E E E E   E E E E E E E E   E E E E E E E E
|-----------------|-----------------|-----------------|-----------------||
|-----------------|-----------------|-----------------|-----------------||
|-----------------|---------3-2-0---|-----------0-2---|-----------2-3-5-||
|-5-5-5-5-5-5-5-5-|-5-5-5-5-------1-|-1-1-1-1-3-----3-|-3-3-3-3-3-------||


 Pre-Chorus
  +E  E E E E E E E   E   E E E E E E  E
|-------------------|--------------------|
|-------------------|--------------------|
|-(5)-5-5-5-5-5-5-5-|-----5-5-5-5---5--8-|
|-------------------|--------------------|
|
|                                     Gtr
|  W                  H..              E
|-------------------|-----------------22-|
|-------------------|-----------------20-|
|-------------------|--------------------|
|-------------------|--------------------|
|-------------------|--------------------|
|-------------------|--------------------|


  +E   E  E  E  E  E  E  E    E  E  E  E  E  E  E  E
|--------------------------|-------------------------|
|--------------------------|-----3--3--3--3--3--2----|
|-(8)--8--------------3----|-------------------------|
|------------1--1--1-----1-|--1--------------------5-|
|
|II
|  E   E  E  E  E  E  E  E    E  E  E  E  E  E  E  E
|-22--22-22-22-22-22-22-22-|-22-22-22-22-22-22-22-22-|
|-20--20-20-20-20-20-20-20-|-20-20-20-20-20-20-20-20-|
|--------------------------|-------------------------|
|--------------------------|-------------------------|
|--------------------------|-------------------------|
|--------------------------|-------------------------|


  +E   E  E  E  E  E  E  E   +E   E  E  E  E  E  E  E
|--------------------------|--------------------------|
|--------------------------|--------------------------|
|--------------------------|------------------------3-|
|-(5)--5--5--5--5--7--5--3-|-(3)--3--3--3--3--5-------|
|
|  E   E  E  E  E  E  E  E    E   E  E  E  E  E  E  E
|-22--22-22-22-22-22-22-22-|-22--22-22-22-22-22-22-22-|
|-20--20-20-20-20-20-20-20-|-20--20-20-20-20-20-20-20-|
|--------------------------|--------------------------|
|--------------------------|--------------------------|
|--------------------------|--------------------------|
|--------------------------|--------------------------|


  +E   E  E  E  E  E  E E   E E E E E E E E
|-------------------------|-----------------|
|---------2--0------------|-----------------|
|-(3)--3--------3--0------|---------------5-|
|---------------------3-1-|---1---1---1-----|
|
|  E   E  E  E  E  E  E E   W
|-22--22-22-22-22-22-22---|-----------------|
|-20--20-20-20-20-20-20---|-----------------|
|-------------------------|-----------------|
|-------------------------|-----------------|
|-------------------------|-----------------|
|-------------------------|-----------------|


  +E  E E E E E E E   E   E E E E E E  E
|-------------------|--------------------|
|-------7-------7---|--------------------|
|-(5)-5---5-5-5---5-|-----5-5-5-5---5--8-|
|-------------------|--------------------|
|
|  W                  H..              E
|-------------------|-----------------22-|
|-------------------|-----------------20-|
|-------------------|--------------------|
|-------------------|--------------------|
|-------------------|--------------------|
|-------------------|--------------------|


  +E   E  E  E  E  E  E  E    E  E  E  E  E  E  E  E
|--------------------------|-------------------------|
|--------------------------|-------------------------|
|-(8)--8-----------3-------|-----3-------------------|
|------------1--1--------1-|--1--------1--1--3-----5-|
|
|  E   E  E  E  E  E  E  E    E  E  E  E  E  E  E  E
|-22--22-22-22-22-22-22-22-|-22-22-22-22-22-22-22-22-|
|-20--20-20-20-20-20-20-20-|-20-20-20-20-20-20-20-20-|
|--------------------------|-------------------------|
|--------------------------|-------------------------|
|--------------------------|-------------------------|
|--------------------------|-------------------------|


  +E   E  E  E  E  E  E  E
|--------------------------|
|--------------------------|
|--------------------------|
|-(5)--5--5--5--5--7--5--3-|
|
|  E   E  E  E  E  E  E  E
|-22--22-22-22-22-22-22-22-|
|-20--20-20-20-20-20-20-20-|
|--------------------------|
|--------------------------|
|--------------------------|
|--------------------------|


  +E   E  E  E  E  E  E  E   +E   E  E  E  E  E  E  E
|--------------------------|--------------------------|
|--------------------------|---------2--0-------------|
|---------5--3--2--0-----3-|-(3)--3--------3--0-------|
|-(3)--3--------------3----|---------------------3--1-|
|
|  E   E  E  E  E  E  E  E    E   E  E  E  E  E  E  E
|-22--22-22-22-22-22-22-22-|-22--22-22-22-22-22-22-22-|
|-20--20-20-20-20-20-20-20-|-20--20-20-20-20-20-20-20-|
|--------------------------|--------------------------|
|--------------------------|--------------------------|
|--------------------------|--------------------------|
|--------------------------|--------------------------|


   E  E  E  E  E  E  E  E    E  E  E  E  E      E   E  E
|-------------------------|------------------------------||
|-------------------------|------------------------------||
|-------------------------|--------------8------7---5--3-||
|--1--1--1--1--1--1--1--1-|--1--1--1--1------------------||
|
|  E  E  E  E  E  E  E  E    E  E  E  E  E      E   E  E
|-22-22-22-22-22-22-22-22-|-22-22-22-22-22-----22--22----||
|-20-20-20-20-20-20-20-20-|-20-20-20-20-20-----20--20----||
|-------------------------|------------------------------||
|-------------------------|------------------------------||
|-------------------------|------------------------------||
|-------------------------|------------------------------||
|
|                                       Gtr III
|                                                      ~~
|  W                         H           E     +E   E  E
|-------------------------|------------------------------||
|-------------------------|-------------15b17r(15)-13----||
|-------------------------|-------------12b14r(12)----12-||
|-------------------------|------------------------12----||
|-------------------------|------------------------------||
|-------------------------|------------------------------||


 Out-Chorus
    E  E E E E E E E     E  E E E   E   E E E
|--------------------|------------------------|
|--------------------|------------------------|
|---3--3-3-3-3-3-3-3-|---3--3-3-3---3---2-0---|
|--------------------|----------------------3-|
|
| Gtr III
|                        ~~~~~~~~~~~~~~~
|  +W                   +H         +Q.      E
|--------------------|------------------------|
|--------------------|------------------------|
|-(12)---------------|-(12)-------(12)\-------|
|--------------------|------------------------|
|--------------------|------------------------|
|--------------------|------------------------|


  E E E E E E E E   E E E E E E E E
|-----------------|-----------------|
|-----------------|-----------------|
|-----------------|-----------------|
|-3-3-3-3-3-3-3-3-|-3-3-3-3-3-3-3-5-|
|
| W                 W
|-----------------|-----------------|
|-----------------|-----------------|
|-----------------|-----------------|
|-----------------|-----------------|
|-----------------|-----------------|
|-----------------|-----------------|


  E E E E E E E E   E E E E E E E E   E E E E E E E E   E E E E E E E E
|-----------------|-----------------|-----------------|-----------------|
|-----------------|-----------------|-----------------|-----------------|
|-----------------|---------3-2-0---|-----------0-2---|-----------0-2-3-|
|-5-5-5-5-5-5-5-5-|-5-5-5-5-------1-|-1-1-1-1-3-----3-|-3-3-3-3-3-------|


  E E E E E E E E   E E E E E E E E   E E E E E E E E   E E E E E E E E
|-----------------|-----------------|-----------------|-----------------|
|-----------------|-----------------|-----------------|-----------------|
|-3-3-3-3-3-3-3-3-|-3-3-3-3-3-2-0---|-----------------|-----------------|
|-----------------|---------------3-|-3-3-3-3-3-3-3-3-|-3-3-3-3-3-3-3-5-|


  E E E E E E E E   E E E E E E E E   E E E E E E E E   E   E E E E E E  E
|-----------------|-----------------|-----------------|--------------------|
|-----------------|-----------------|-----------------|--------------------|
|-----------------|---------3-2-0---|-----------0-2---|-------------0-2--3-|
|-5-5-5-5-5-5-5-5-|-5-5-5-5-------1-|-1-1-1-1-3-----3-|-3---3-3-3-3--------|
|
|                                                                       Gtr II
| W                 W                 W                 H..              E
|-----------------|-----------------|-----------------|-----------------22-|
|-----------------|-----------------|-----------------|-----------------20-|
|-----------------|-----------------|-----------------|--------------------|
|-----------------|-----------------|-----------------|--------------------|
|-----------------|-----------------|-----------------|--------------------|
|-----------------|-----------------|-----------------|--------------------|


   E  E  E  E  E  E  E  E    E  E  E  E  E  E  E  E
|-------------------------|-------------------------|
|--------5-----5--------5-|--------5----------------|
|--3--3-----3-----3--3----|--3--3-----3--3--2--0----|
|-------------------------|-----------------------3-|
|
|  E  E  E  E  E  E  E  E    E  E  E  E  E  E  E  E
|-22-22-22-22-22-22-22-22-|-22-22-22-22-22-22-22-22-|
|-20-20-20-20-20-20-20-20-|-20-20-20-20-20-20-20-20-|
|-------------------------|-------------------------|
|-------------------------|-------------------------|
|-------------------------|-------------------------|
|-------------------------|-------------------------|


   E  E  E  E  E  E  E  E    E  E  E  E  E  E  E  E
|-------------------------|-------------------------|
|--------------0--2-------|-------------------------|
|--------5----------------|-------------------------|
|--3--3-----3--------3--3-|--3--3--3--3--3--3--3--5-|
|
|  E  E  E  E  E  E  E  E    E  E  E  E  E  E  E  E
|-22-22-22-22-22-22-22-22-|-22-22-22-22-22-22-22-22-|
|-20-20-20-20-20-20-20-20-|-20-20-20-20-20-20-20-20-|
|-------------------------|-------------------------|
|-------------------------|-------------------------|
|-------------------------|-------------------------|
|-------------------------|-------------------------|


   E  E  E  E  E  E  E  E    E  E  E  E  E  E  E  E
|-------------------------|-------------------------|
|-------------------------|-------------------------|
|-------------------------|--------------3--2--0----|
|--5--5--5--5--5--5--5--5-|--5--5--5--5-----------1-|
|
|  E  E  E  E  E  E  E  E    E  E  E  E  E  E  E  E
|-22-22-22-22-22-22-22-22-|-22-22-22-22-22-22-22-22-|
|-20-20-20-20-20-20-20-20-|-20-20-20-20-20-20-20-20-|
|-------------------------|-------------------------|
|-------------------------|-------------------------|
|-------------------------|-------------------------|
|-------------------------|-------------------------|


   E  E  E  E  E  E  E  E    E  E  E  E  E  E  E  E
|-------------------------|-------------------------|
|-------------------------|-------------------------|
|-----------------0--2----|-----------------0--2--3-|
|--1--1--1--1--3--------3-|--3--3--3--3--3----------|
|
|  E  E  E  E  E  E  E  E    E  E  E  E  E  E  E  E
|-22-22-22-22-22-22-22-22-|-22-22-22-22-22-22-22----|
|-20-20-20-20-20-20-20-20-|-20-20-20-20-20-20-20-20-|
|-------------------------|----------------------19-|
|-------------------------|-------------------------|
|-------------------------|-------------------------|
|-------------------------|-------------------------|


   E  E  E  E  E  E  E  E    E  E  E  E  E  E  E  E
|-------------------------|-------------------------|
|-------------------------|-------------------------|
|--3--3--3--3--3--3--3--3-|--3--3--3--3--3--2--0----|
|-------------------------|-----------------------3-|
|
|  E  E  E  E  E  E  E  E    E  E  E  E  E  E  E  E
|-------------------------|-------------------------|
|-20-20-20-20-20-20-20-20-|-20-20-20-20-20-20-20-20-|
|-19-19-19-19-19-19-19-19-|-19-19-19-19-19-19-19-19-|
|-------------------------|-------------------------|
|-------------------------|-------------------------|
|-------------------------|-------------------------|


   E  E  E  E  E  E  E  E    E  E  E  E  E  E  E  E
|-------------------------|-------------------------|
|-------------------------|-------------------------|
|-------------------------|-------------------------|
|--3--3--3--3--3--3--3--3-|--3--3--3--3--3--3--3--5-|
|
|  E  E  E  E  E  E  E  E    E  E  E  E  E  E  E  E
|-------------------------|-------------------------|
|-20-20-20-20-20-20-20-20-|-20-20-20-20-20-20-20-20-|
|-19-19-19-19-19-19-19-19-|-19-19-19-19-19-19-19-19-|
|-------------------------|-------------------------|
|-------------------------|-------------------------|
|-------------------------|-------------------------|


   E  E  E  E  E  E  E  E    E  E  E  E  E  E  E  E
|-------------------------|-------------------------|
|-------------------------|-------------------------|
|-------------------------|--------------3--2--0----|
|--5--5--5--5--5--5--5--5-|--5--5--5--5-----------1-|
|
|  E  E  E  E  E  E  E  E    E  E  E  E  E  E  E  E
|-------------------------|-------------------------|
|-20-20-20-20-20-20-20-20-|-20-20-20-20-20-20-20-20-|
|-19-19-19-19-19-19-19-19-|-19-19-19-19-19-19-19-19-|
|-------------------------|-------------------------|
|-------------------------|-------------------------|
|-------------------------|-------------------------|


   E  E  E  E  E  E  E  E    E  E  E  E  E  E  E  E
|-------------------------|-------------------------|
|-------------------------|-------------------------|
|-----------------0--2----|-------------------------|
|--1--1--1--1--3--------3-|--3--3--3--3--3--3--3--3-|
|
|  E  E  E  E  E  E  E  E    E  E  E  E  E  E  E  E
|-------------------------|-------------------------|
|-20-20-20-20-20-20-20-20-|-20-20-20-20-20-20-20-20-|
|-19-19-19-19-19-19-19-19-|-19-19-19-19-19-19-19-19-|
|-------------------------|-------------------------|
|-------------------------|-------------------------|
|-------------------------|-------------------------|


   E  E  E  E  E  E  E  E    E  E  E  E  E  E  E  E
|-------------------------|-------------------------|
|-------------------------|-------------------------|
|-------------------------|-------------------------|
|--3--3--3--3--3--3--3--3-|--3--3--3--3--3--3--3--3-|
|
|  E  E  E  E  E  E  E  E    E  E  E  E  E  E  E  E
|-------------------------|-------------------------|
|-20-20-20-20-20-20-20-20-|-20-20-20-20-20-20-20-20-|
|-19-19-19-19-19-19-19-19-|-19-19-19-19-19-19-19-19-|
|-------------------------|-------------------------|
|-------------------------|-------------------------|
|-------------------------|-------------------------|


   E E   E E E E E E   +W           +H      H
|--------------------|------------|--------------*|
|----3---2---3-2-----|------------|--------------*|
|----------3-----3-3-|-(3)--------|-(3)\---------*|
|--3-----------------|------------|--------------*|
|
|  E H..                W            W
|--------------------|------------|--------------*|
|-20-----------------|------------|--------------*|
|-19-----------------|------------|--------------*|
|--------------------|------------|--------------*|
|--------------------|------------|--------------*|
|--------------------|------------|--------------*|


Duration Legend
---------------
W - whole; H - half; Q - quarter; E - 8th; S - 16th; T - 32nd; X - 64th; a - acciaccatura
+ - note tied to previous; . - note dotted; .. - note double dotted
Uncapitalized letters represent notes that are staccato (1/2 duration)
Irregular groupings are notated above the duration line
Duration letters will always appear directly above the note/fret number it represents the
duration for.  Duration letters with no fret number below them represent rests.  Multi-
bar rests are notated in the form Wxn, where n is the number of bars to rest for.  Low
melody durations appear below the staff

Tablature Legend
----------------
 h   - hammer-on
 p   - pull-off
 b   - bend
 pb  - pre-bend
 r   - bend release (if no number after the r, then release immediately)
 /\  - slide into or out of (from/to "nowhere")
 s   - legato slide
 S   - shift slide
<n>  - natural harmonic
[n]  - artificial harmonic
n(n) - tapped harmonic
 ~   - vibrato
 tr  - trill
 T   - tap
 TP  - trem. picking
 PM  - palm muting
\n/  - tremolo bar dip; n = amount to dip
 \n  - tremolo bar down
 n/  - tremolo bar up
/n\  - tremolo bar inverted dip
 =   - hold bend; also acts as connecting device for hammers/pulls
 <>  - volume swell (louder/softer)
 x   - on rhythm slash represents muted slash
 o   - on rhythm slash represents single note slash

Misc Legend
-----------
 |  - bar
||  - double bar
||o - repeat start
o|| - repeat end
*|  - double bar (ending)
 :  - bar (freetime)
 $  - Segno
 &  - Coda
Tempo markers - <E/E./Q/Q./H/H.> = BPM(8/16=s8/s16), where s8 = swing 8ths, s16 = swing 16ths


comments
We did not receive enough feedback on this tab! Please rate:
print report bad tab
1 2 3 4 5
2 comments total.
+1 reply
Centurion wrote on April 5 2007, 02:17 pm

Next time remove the piano parts before exporting the file to ASCII and give credit to the guy who wrote the Power Tab score.

0 reply
maxpowweer wrote on December 14 2012, 08:14 pm

Too complicated to follow, should put the guitar tab in a seperate tab

I want to post or [tab]
guest
You may want to rate the tab now too:
select rating
Please do not post tabs as comments. Select "correction" instead!