Oops, an error
Loading. Please wait.

Suffering Tab

ver3
ver3

Whole song

Interactive

More versions @911Tabs.com
30,017 views 15 this week
7 commentsread comments
1 2 3 4 5
accurate
x 7
Autoscroll
+/-
esc
set tempo
stop
Contributor
Difficulty
intermediate
Hey! There's an official Ultimate Guitar app which is ideal
for learning songs when you're away from computer. Get the app
WARNING: You are trying to view
                                    content from Ultimate-Guitar.com
                                    in an unauthorized application,
                                    which is prohibited.

                                    Please use an official Ultimate
                                    Guitar Tabs application for iPhone,
                                    iPad or Android to access legitimate
                                    chords, guitar, bass, and drum tabs
                                    from Ultimate-Guitar.com database.

                                    Type "ultimate guitar tabs" in Apple
                                    App Store's or Android Market's
                                    search to find the application.
   THE SUFFERING
                        As recorded by Coheed and Cambria
(From the 2005 Album GOOD APOLLO, I'M BURNING STAR IV - VOLUME ONE: FROM FEAR THROUGH THE EYES OF MADNESS)

Words by Claudio Sanchez
Music by Coheed and Cambria

Gtr I (Eb Ab Db Gb Bb Eb) - 'dist.'
Gtr II (Eb Ab Db Gb Bb Eb) - 'dist.'
Gtr III (Eb Ab Db Gb Bb Eb) - 'dist.'
Gtr IV (Eb Ab Db Gb Bb Eb) - 'dist.'

 Intro
  Moderate Rock Q=150
    C5            N.C.                       D5   E5
 1/4    4/4
    Gtr I
                   PM--|     PM--|
  E  E    +Q    E  E E E  E  E    E  E E Q    E E  E
|------|-----------------------|---------------------|
|------|-----------------------|---------------------|
|------|-----------------------|---------------------|
|------|-----------------------|--------------7----9-|
|---10-|-(10)\----10-7---------|----10---7----5----7-|
|----8-|--(8)\-----------10-10-|-10------------------|
|
|                                            Gtr II
| Q        W                      H        E  E E  E
|------|-----------------------|---------------------|
|------|-----------------------|---------------------|
|------|-----------------------|-------------17---16-|
|------|-----------------------|--------------x----x-|
|------|-----------------------|-------------15---14-|
|------|-----------------------|---------------------|


                                  G5   A5
         PM---|     PM--|   PM--|
   +Q    E  E E E E E   E E E E E  E E  E
|---------------------|--------------------|
|---------------------|--------------------|
|---------------------|--------------------|
|--(9)\---------------|--------------------|
|--(7)\--7--------7---|-----7------5----7--|
|--------0--0-0---0-0-|-0---0-0-0--3----5--|
|
|  +Q    H.             H       E  E E  E
|---------------------|--------------------|
|---------------------|--------------------|
|-(16)\---------------|-----------19---21--|
|--(x)----------------|------------x----x--|
|-(14)\---------------|-----------17---19--|
|---------------------|--------------------|


                      G5         N.C.          F5
          PM---|                 PM-------|
    E   E E  E E  E E  E    +E   E E  E E  E E  E
|------------------------|------------------------|
|------------------------|------------------------|
|------------------------|------------------------|
|------------------------|---------------------10-|
|---7---7-7--7-7--7----5-|--(5)-----------------8-|
|---5---5-5--5-5--5----3-|--(3)--0-3--5-3--0------|
|
|  +Q     Q.      E E  E    +Q     Q.      E E  E
|------------------------|------------------------|
|------------------------|------------------------|
|-(21)\----------21---19-|-(19)\----------19---17-|
|--(x)------------x----x-|--(x)------------x----x-|
|-(19)\----------19---17-|-(17)\----------17---15-|
|------------------------|------------------------|


             C/EF5     C/E  F5    C/E     F5      G5   C5
         PM-----|       PM--|      PM-----|
   +E    E E  E  E E E  E    E Q   E       E       E E  E
|-------------------------|-------------------------------||
|-------------------------|-------------------------------||
|-------------------------|-------------------------------||
|-(10)--10---10-10-----10-|-10----10------10------12------||
|--(8)---8----7--8------7-|--8-----7-------8------10---10-||
|-------------------------|-----------------------------8-||
|
|  +Q      E  E  E E E  E    E Q   E   a   E   a   E E  E
|-------------------------|-------------------------------||
|-------------------------|-------------------------------||
|-(17)\------10s12-----12s|=14----14-(14)s16-(16)s14---12-||
|--(x)--------x--x------x-|--x-----x--(x)--x--(x)--x----x-||
|-(15)\-------8s10-----10s|=12----12-(12)s14-(14)s12---10-||
|-------------------------|-------------------------------||


   Verse
    C5        N.C.                       D5   E5
               PM--|     PM--|
     +Q    E   E E E  E  E    E  E E Q    E E  E
||-------------------------|---------------------|
||o------------------------|---------------------|
||-------------------------|---------------------|
||-------------------------|--------------7----9-|
||o-(10)\-----10-7---------|----10---7----5----7-|
||---(8)\------------10-10-|-10------------------|
|
|    +Q    H.                 H        E  E E  E
||-------------------------|---------------------|
||o------------------------|---------------------|
||--(12)\------------------|-------------17---16-|
||---(x)-------------------|--------------x----x-|
||o-(10)\------------------|-------------15---14-|
||-------------------------|---------------------|


                                  G5   A5
         PM---|     PM--|   PM--|
   +Q    E  E E E E E   E E E E E  E E  E
|---------------------|--------------------|
|---------------------|--------------------|
|---------------------|--------------------|
|--(9)\---------------|--------------------|
|--(7)\--7--------7---|-----7------5----7--|
|--------0--0-0---0-0-|-0---0-0-0--3----5--|
|
|  +Q    H.             H       E  E E  E
|---------------------|--------------------|
|---------------------|--------------------|
|-(16)\---------------|-----------19---21--|
|--(x)----------------|------------x----x--|
|-(14)\---------------|-----------17---19--|
|---------------------|--------------------|


                      G5         N.C.          F5
          PM---|                 PM-------|
   +E   E E  E E  E E  E    +E   E E  E E  E E  E
|------------------------|------------------------|
|------------------------|------------------------|
|------------------------|------------------------|
|------------------------|---------------------10-|
|--(7)--7-7--7-7--7----5-|--(5)-----------------8-|
|--(5)--5-5--5-5--5----3-|--(3)--0-3--5-3--0------|
|
|  +Q     Q.      E E  E    +Q     Q.      E E  E
|------------------------|------------------------|
|------------------------|------------------------|
|-(21)\----------21---19-|-(19)\----------19---17-|
|--(x)------------x----x-|--(x)------------x----x-|
|-(19)\----------19---17-|-(17)\----------17---15-|
|------------------------|------------------------|


                            1.,2.
             C/EF5     C/E  F5    C/E     F5      G5   F5
         PM-----|
   +E    E E  E  E E E  E    E Q   E       E       E E  E  3x
|-------------------------|--------------------------------||
|-------------------------|-------------------------------o||
|-------------------------|--------------------------------||
|-(10)--10---10-10-----10-|-10----10------10------12-------||
|--(8)---8----7--8------7-|--8-----7-------8------10---10-o||
|-------------------------|-----------------------------8--||
|
|  +Q      E  E  E E E  E    E Q   E   a   E   a   E E  E  3x
|-------------------------|--------------------------------||
|-------------------------|-------------------------------o||
|-(17)\------10s12-----12s|=14----14-(14)s16-(16)s14---12--||
|--(x)--------x--x------x-|--x-----x--(x)--x--(x)--x----x--||
|-(15)\-------8s10-----10s|=12----12-(12)s14-(14)s12---10-o||
|-------------------------|--------------------------------||


  3.
  F5       C/E     F5      C/E
    E   Q   E       E       E Q
|----------------------------------||
|----------------------------------||
|----------------------------------||
|--10------10------10------10------||
|---8-------7-------8-------7------||
|----------------------------------||
|
|   E   Q   E   a   E   a   E E  E
|----------------------------------||
|----------------------------------||
|-/14------14-(14)s16-(16)s14---14-||
|---x-------x--(x)--x--(x)--x----x-||
|-/12------12-(12)s14-(14)s12---12-||
|----------------------------------||
|
|                               Gtr I
|   H..                          E
|----------------------------------||
|----------------------------------||
|----------------------------------||
|--------------------------------7-||
|--------------------------------5-||
|----------------------------------||


 Pre-Chorus
        D5                    N.C.
        Gtr IV
                                                 ~
    E   E E E E E E E     E    E E  E E  E   E   E
|---------------------|----------8----8------------|
|---------------------|-------10---10---10---8-----|
|---------------------|--------------------------9-|
|---------------------|----------------------------|
|-------x-x-x---x-x-x-|----------------------------|
|-------x-x-x---x-x-x-|----------------------------|
|
|   ~~~~~~~~~~~~~~~~~~~~~~~~~~
|  +W                    +H.                +Q
|---------------------|----------------------------|
|---------------------|----------------------------|
|-(14)----------------|-(14)---------------(14)\---|
|--(x)----------------|--(x)----------------(x)----|
|-(12)----------------|-(12)---------------(12)\---|
|---------------------|----------------------------|
|
|II
|  +E   E E E E E E E     H..                    E
|---------------------|----------------------------|
|---------------------|----------------------------|
|---------------------|----------------------------|
|--(7)\---------------|--------------------------3-|
|--(5)\-x-x-x---x-x-x-|--------------------------3-|
|-------x-x-x---x-x-x-|--------------------------1-|


  F5                                 G5       A5
   ~~~    ~
  +Q    E H       +E     E  E E  E E  E  +E    E
|----------------------|------8----8-------------|
|-------8--------------|---10---10---10-(10)\----|
|-(9)-----9-------(9)\-|-------------------------|
|----------------------|-------------------------|
|----------------------|----------------------10-|
|----------------------|-------------------------|
|
| Gtr III         Gtrs II, III
|         PM--|    PM------|     PM|
| +E  E E E E E E  E     E  E E  E E  E   E    E
|----------------------|-------------------------|
|----------------------|-------------------------|
|----------------------|-------------------------|
|-(3)------------------|-------------------------|
|-(3)-3---3-3-3----3---|-3--3----3-3--5--------7-|
|-(1)-1---1-1-1----1---|-1--1----1-1--3--------5-|


                       G5
                                          |---3---|
   +E   E  E E  Q    E  E    +E   E  E E  E  E    E  E  E
|-------------------------|-------------------------------|
|-------------------------|-------------------------------|
|-------------------------|-------------------------------|
|---------12---10---------|---------12---10-12---10-------|
|-(10)-10-----------12-10-|-(10)-10-----------------12-10-|
|-------------------------|-------------------------------|
|
|          PM--|                     PM--|
|  +E   E  E E  E E  E  E     E   E  E E  E    E     E  E
|-------------------------|-------------------------------|
|-------------------------|-------------------------------|
|-------------------------|-------------------------------|
|-------------------------|-----------------------------5-|
|--(7)--7--7-7--7-7-----5-|---5---5--5-5--5----5--------3-|
|--(5)--5--5-5--5-5-----3-|---3---3--3-3--3----3----------|


  C5                   F5                    D5
                        PM     PM   PM   PM
   +E   E  E E  Q    E  E   E  E E  E E  E E  S  S
|-------------------------|------------------------|
|-------------------------|------------------10h13p|
|----------------------10-|---10---10---10---------|
|---------12---10-------x-|----x----x----x---------|
|-(10)-10-----------12--8-|----8----8----8---------|
|-------------------------|------------------------|
|
|          PM--|
|  +E   E  E E  E E  E  E   E  E E  E E  E E  E
|-------------------------|------------------------|
|-------------------------|------------------------|
|-------------------------|------------------------|
|--(5)--5--5-5--5-5-------|-------------------7----|
|--(3)--3--3-3--3-3-----3-|----3----3----3----5----|
|-----------------------1-|----1----1----1---------|


                                           ~
   W                    +E   E E  E E  E E E
|--------------------|---------8----8---------|
|-10-----------------|-(10)-10---10---10-8----|
|--------------------|---------------------9--|
|--------------------|------------------------|
|--------------------|------------------------|
|--------------------|------------------------|
|
| +E   E E E E E E E     E   E E  E E  E E E
|--------------------|------------------------|
|--------------------|------------------------|
|--------------------|------------------------|
|-(7)\---------------|-------7-7--7-7--7---3--|
|-(5)\-x-x-x-x-x-x-x-|---x---5-5--5-5--5---3--|
|------x-x-x-x-x-x-x-|---x-----------------1--|


  F5                                 G5       A5
   ~~~    ~
  +Q    E H       +E     E  E E  E E  E  +E    E    +E   E  E E  Q    E  E
|----------------------|------8----8-------------|-------------------------|
|-------8--------------|---10---10---10-(10)\----|-------------------------|
|-(9)-----9-------(9)\-|-------------------------|-------------------------|
|----------------------|-------------------------|---------12---10---------|
|----------------------|----------------------10-|-(10)-10-----------12-10-|
|----------------------|-------------------------|-------------------------|
|
|         PM--|    PM------|     PM|                        PM--|
| +E  E E E E E E  E     E  E E  E E  E   E    E    +E   E  E E  E E  E  E
|----------------------|-------------------------|-------------------------|
|----------------------|-------------------------|-------------------------|
|----------------------|-------------------------|-------------------------|
|-(3)------------------|-------------------------|-------------------------|
|-(3)-3---3-3-3----3---|-3--3----3-3--5--------7-|--(7)--7--7-7--7-7-----5-|
|-(1)-1---1-1-1----1---|-1--1----1-1--3--------5-|--(5)--5--5-5--5-5-----3-|


                             C5
                |---3---|
   +E   E  E E  E  E    E  E  E
|-------------------------------|
|-------------------------------|
|-------------------------------|
|---------12---10-12---10-------|
|-(10)-10-----------------12-10-|
|-------------------------------|
|
|          PM--|
|  +E   E  E E  E    E     E  E
|-------------------------------|
|-------------------------------|
|-------------------------------|
|-----------------------------5-|
|--(5)--5--5-5--5----5--------3-|
|--(3)--3--3-3--3----3----------|


                       F5
                        PM     PM   PM   PM
   +E   E  E E  Q    E  E   E  E E  E E  E E  E
|-------------------------|---------------------||
|-------------------------|---------------------||
|----------------------10-|---10---10---10------||
|---------12---10-------x-|----x----x----x---10-||
|-(10)-10-----------12--8-|----8----8----8------||
|-------------------------|---------------------||
|
|          PM--|
|  +E   E  E E  E E  E  E   E  E E  E E  E E  E
|-------------------------|---------------------||
|-------------------------|---------------------||
|-------------------------|---------------------||
|--(5)--5--5-5--5-5-------|---------------------||
|--(3)--3--3-3--3-3-----3-|----3----3----3---10-||
|-----------------------1-|----1----1----1----8-||


 Verse
  C5        N.C.                       D5   E5
  Gtrs II, IGtr I                      Gtrs I, I
             PM--|     PM--|
   +Q    E   E E E  E  E    E  E E Q    E E  E
|------------------------|---------------------|
|------------------------|---------------------|
|------------------------|---------------------|
|------------------------|--------------7----9-|
|-(10)\-----10-7---------|----10---7----5----7-|
|--(8)\------------10-10-|-10------------------|
|
| Gtr IV                               Gtr II
|  +Q    H.                 H        E  E E  E
|------------------------|---------------------|
|------------------------|---------------------|
|------------------------|-------------17---16-|
|-(10)\------------------|--------------x----x-|
|------------------------|-------------15---14-|
|------------------------|---------------------|


                               G5   A5
 II         Gtr I              Gtrs I, III
            PM|    PM--|
   +Q    E  E E Q  E   E H      E E  E
|--------------------|-----------------|
|--------------------|-----------------|
|--------------------|-----------------|
|--(9)\--------------|-----------------|
|--(7)\-----7------7-|----------5----7-|
|-----------0-0----0-|-0--------3----5-|
|
|  +Q    H.            H     E  E E  E
|--------------------|-----------------|
|--------------------|-----------------|
|-(16)\--------------|---------19---21-|
|--(x)---------------|----------x----x-|
|-(14)\--------------|---------17---19-|
|--------------------|-----------------|


                      G5         N.C.          F5
          PM---|                 PM-------|
   +E   E E  E E  E E  E    +E   E E  E E  E E  E
|------------------------|------------------------|
|------------------------|------------------------|
|------------------------|------------------------|
|------------------------|---------------------10-|
|--(7)--7-7--7-7--7----5-|--(5)-----------------8-|
|--(5)--5-5--5-5--5----3-|--(3)--0-3--5-3--0------|
|
|  +Q     Q.      E E  E    +Q     Q.      E E  E
|------------------------|------------------------|
|------------------------|------------------------|
|-(21)\----------21---19-|-(19)\----------19---17-|
|--(x)------------x----x-|--(x)------------x----x-|
|-(19)\----------19---17-|-(17)\----------17---15-|
|------------------------|------------------------|


             C/EF5     C/E  F5    C/E     F5      G5   C5
         PM-----|       PM--|      PM-----|
   +E    E E  E  E E E  E    E Q   E       E       E E  E
|-------------------------|-------------------------------|
|-------------------------|-------------------------------|
|-------------------------|-------------------------------|
|-(10)--10---10-10-----10-|-10----10------10------12------|
|--(8)---8----7--8------7-|--8-----7-------8------10---10-|
|-------------------------|-----------------------------8-|
|
|  +Q      E  E  E E E  E    E Q   E   a   E   a   E E  E
|-------------------------|-------------------------------|
|-------------------------|-------------------------------|
|-(17)\------10s12-----12s|=14----14-(14)s16-(16)s14---12-|
|--(x)--------x--x------x-|--x-----x--(x)--x--(x)--x----x-|
|-(15)\-------8s10-----10s|=12----12-(12)s14-(14)s12---10-|
|-------------------------|-------------------------------|


            N.C.                       D5   E5
            Gtr I                      Gtrs I, I
             PM--|     PM--|
   +Q    E   E E E  E  E    E  E E Q    E E  E
|------------------------|---------------------|
|------------------------|---------------------|
|------------------------|---------------------|
|------------------------|--------------7----9-|
|-(10)\-----10-7---------|----10---7----5----7-|
|--(8)\------------10-10-|-10------------------|
|
|  +Q    H.                 H        E  E E  E
|------------------------|---------------------|
|------------------------|---------------------|
|-(12)\------------------|-------------17---16-|
|--(x)-------------------|--------------x----x-|
|-(10)\------------------|-------------15---14-|
|------------------------|---------------------|


                                  G5   A5
 II      Gtr I                    Gtrs I, III
         PM---|     PM--|   PM--|
   +Q    E  E E E E E   E E E E E  E E  E
|---------------------|-------------------|
|---------------------|-------------------|
|---------------------|-------------------|
|--(9)\---------------|-------------------|
|--(7)\--7--------7---|-----7------5----7-|
|--------0--0-0---0-0-|-0---0-0-0--3----5-|
|
|  +Q    H.             H       E  E E  E
|---------------------|-------------------|
|---------------------|-------------------|
|-(16)\---------------|-----------19---21-|
|--(x)----------------|------------x----x-|
|-(14)\---------------|-----------17---19-|
|---------------------|-------------------|


                      G5         N.C.          F5
          PM---|                 PM-------|
    E   E E  E E  E E  E    +E   E E  E E  E E  E
|------------------------|------------------------|
|------------------------|------------------------|
|------------------------|------------------------|
|------------------------|---------------------10-|
|---7---7-7--7-7--7----5-|--(5)-----------------8-|
|---5---5-5--5-5--5----3-|--(3)--0-3--5-3--0------|
|
|  +Q     Q.      E E  E    +Q     Q.      E E  E
|------------------------|------------------------|
|------------------------|------------------------|
|-(21)\----------21---19-|-(19)\----------19---17-|
|--(x)------------x----x-|--(x)------------x----x-|
|-(19)\----------19---17-|-(17)\----------17---15-|
|------------------------|------------------------|


             C/EF5     C/E  F5    C/E     F5      G5   D5
                                                       Gtr III
         PM-----|       PM--|      PM-----|
   +E    E E  E  E E E  E    E Q   E       E       E E  E
|-------------------------|-------------------------------||
|-------------------------|-------------------------------||
|-------------------------|-------------------------------||
|-(10)--10---10-10-----10-|-10----10------10------12----7-||
|--(8)---8----7--8------7-|--8-----7-------8------10----5-||
|-------------------------|-------------------------------||
|
|  +Q      E  E  E E E  E    E Q   E   a   E   a   E E  E
|-------------------------|-------------------------------||
|-------------------------|-------------------------------||
|-(17)\------10s12-----12s|=14----14-(14)s16-(16)s14---14-||
|--(x)--------x--x------x-|--x-----x--(x)--x--(x)--x----x-||
|-(15)\-------8s10-----10s|=12----12-(12)s14-(14)s12---12-||
|-------------------------|-------------------------------||


 Pre-Chorus
                              N.C.               F5
        Gtr IV
                                                 ~~~
    E   E E E E E E E     E    E E  E E  E   E   E
|---------------------|----------8----8------------|
|---------------------|-------10---10---10---8-----|
|---------------------|--------------------------9-|
|---------------------|----------------------------|
|-------x-x-x---x-x-x-|----------------------------|
|-------x-x-x---x-x-x-|----------------------------|
|
|   ~~~~~~~~~~~~~~~~~~~~~~~~~~
|  +W                    +H.                +Q
|---------------------|----------------------------|
|---------------------|----------------------------|
|-(14)----------------|-(14)---------------(14)\---|
|--(x)----------------|--(x)----------------(x)----|
|-(12)----------------|-(12)---------------(12)\---|
|---------------------|----------------------------|
|
| Gtr III
|  +E   E E E E E E E     H..                    E
|---------------------|----------------------------|
|---------------------|----------------------------|
|---------------------|----------------------------|
|--(7)\---------------|--------------------------3-|
|--(5)\-x-x-x---x-x-x-|--------------------------3-|
|-------x-x-x---x-x-x-|--------------------------1-|


                                     G5       A5
 ~~~~~    ~
  +Q    E H       +E     E  E E  E E  E  +E    E
|----------------------|------8----8-------------|
|-------8--------------|---10---10---10-(10)\----|
|-(9)-----9-------(9)\-|-------------------------|
|----------------------|-------------------------|
|----------------------|----------------------10-|
|----------------------|-------------------------|
|
|  W                     W
|----------------------|-------------------------|
|----------------------|-------------------------|
|----------------------|-------------------------|
|----------------------|-------------------------|
|----------------------|-------------------------|
|----------------------|-------------------------|
|
|         Gtrs II, III
|         PM--|    PM------|     PM|
| +E  E E E E E E  E     E  E E  E E  E   E    E
|----------------------|-------------------------|
|----------------------|-------------------------|
|----------------------|-------------------------|
|-(3)------------------|-------------------------|
|-(3)-3---3-3-3----3---|-3--3----3-3--5--------7-|
|-(1)-1---1-1-1----1---|-1--1----1-1--3--------5-|


                       G5                              C5
                                          |---3---|
   +E   E  E E  Q    E  E    +E   E  E E  E  E    E  E  E
|-------------------------|-------------------------------|
|-------------------------|-------------------------------|
|-------------------------|-------------------------------|
|---------12---10---------|---------12---10-12---10-------|
|-(10)-10-----------12-10-|-(10)-10-----------------12-10-|
|-------------------------|-------------------------------|
|
| Gtrs II, III
|          PM--|                     PM--|
|  +E   E  E E  E E  E  E    +E   E  E E  E    E     E  E
|-------------------------|-------------------------------|
|-------------------------|-------------------------------|
|-------------------------|-------------------------------|
|-------------------------|-----------------------------5-|
|--(7)--7--7-7--7-7-----5-|--(5)--5--5-5--5----5--------3-|
|--(5)--5--5-5--5-5-----3-|--(3)--3--3-3--3----3----------|


                       F5
                        PM     PM   PM   PM   PM
   +E   E  E E  Q    E  E   E  E E  E E  E E  E
|-------------------------|---------------------|
|-------------------------|---------------------|
|----------------------10-|---10---12---12---14-|
|---------12---10-------x-|----x----x----x----x-|
|-(10)-10-----------12--8-|----8---10---10---12-|
|-------------------------|---------------------|
|
|          PM--|
|  +E   E  E E  E E  E  E   E  E E  E E  E E  E
|-------------------------|---------------------|
|-------------------------|---------------------|
|-------------------------|---------------------|
|--(5)--5--5-5--5-5-------|---------------------|
|--(3)--3--3-3--3-3-----3-|----3----3----3----3-|
|-----------------------1-|----1----1----1----1-|


                                                               C5
     PM-------|
  E  E E  E E  E E  E    +E   H..               H         Q     Q
|---------------------|-----------------------|---------------------||
|---------------------|-----------------------|---------------------||
|---14---17---17---10-|-(10)\-----------------|---------/14\--------||
|----x----x----x----x-|--(x)------------------|---------/14\--------||
|---12---15---15----8-|--(8)\-----------------|---------------------||
|---------------------|-----------------------|---------------------||
|
|   Gtr II
|                             PM----------------------------|
| E  E E  E E  E E  E    +E   E   E E E E E E   E E E E   E  E  E E
|---------------------|-----------------------|---------------------||
|---------------------|-----------------------|---------------------||
|---------------------|-----------------------|---------------------||
|---------------------|-----------------------|-------------------5-||
|----3----3----3----3-|--(3)--3---3-3-3-3-3-3-|-3-3-3-3---3--3--3-3-||
|----1----1----1----1-|--(1)--1---1-1-1-1-1-1-|-1-1-1-1---1--1--1---||
|
|   Gtr III
|                             PM------------------------|
| E  E E  E E  E E  E    +E   E   E E E E E E   E E E E   E  E  E E
|---------------------|-----------------------|---------------------||
|---------------------|-----------------------|---------------------||
|---------------------|-----------------------|---------------------||
|---------------------|-----------------------|-------------------5-||
|----3----3----3----3-|--(3)--3---3-3-3-3-3-3-|-3-3-5S7S=10S12-12-3-||
|----1----1----1----1-|--(1)--1---1-1-1-1-1-1-|-1-1-3S5S==8S10-10---||


 Chorus
                                         G5
        Gtrs I, IV
   Q     E  E Q    E E    Q   E  Q   Q    E
|----------------------|--------------------|
|----------------------|--------------------|
|-----------------12---|-10---9-10---9------|
|----------10----------|-----------------10-|
|-------10-------------|--------------------|
|----------------------|--------------------|
|
| Gtrs II, III
| +E  E  E  E E E  E E    E E E  E E E E  E
|----------------------|--------------------|
|----------------------|--------------------|
|----------------------|--------------------|
|-(5)-5--5--5-5-5--5-5-|--5-5-5--5-5-5-5----|
|-(3)-3--3--3-3-3--3-3-|--3-3-3--3-3-3-3--5-|
|----------------------|------------------3-|


                                           A5
   +Q     E  E Q    E E    Q   E  Q   E  E E
|-----------------------|--------------------|
|-----------------------|--------------------|
|------------------12---|-10---9-10---9----9-|
|-(10)------10----------|---------------10-x-|
|--------10-------------|------------------7-|
|-----------------------|--------------------|
|
|  +E  E  E  E E E  E E    E E E  E E E  E E
|-----------------------|--------------------|
|-----------------------|--------------------|
|-----------------------|--------------------|
|-----------------------|--------------------|
|--(5)-5--5--5-5-5--5-5-|--5-5-5--5-5-5--5-7-|
|--(3)-3--3--3-3-3--3-3-|--3-3-3--3-3-3--3-5-|


                                     F5                  G5                  C5
  +E  E E E E E E E   E E E E E  E E E   +E  E E E E E E E   +E  E E E E E E E
|-------------------|------------------|-------------------|-------------------|
|-------------------|------------------|-------------------|-------------------|
|-(9)-9-9-9-9-7-7-7-|-7-9-9-9-9-10-----|-------------------|-------------------|
|-(x)-x-x-x-x-x-x-x-|-x-x-x-x-x--x-----|-------------------|-----------------2-|
|-(7)-7-7-7-7-5-5-5-|-5-7-7-7-7--8-----|-------2-3-2-0-0---|-------2-3-2-0-0---|
|-------------------|----------------3-|-(3)-3-----------3-|-(3)-3-------------|
|
| +E  E E E E E E E   E E E E E  E E E   +E  E E E E E E E   +E  E E E E E E E
|-------------------|------------------|-------------------|-------------------|
|-------------------|------------------|-------------------|-------------------|
|-------------------|------------------|-------------------|-------------------|
|-------------------|------------------|-------------------|-----------------5-|
|-(7)-7-7-7-7-7-7-7-|-7-7-7-7-7--7-7-3-|-(3)-3-3-3-3-3-3-5-|-(5)-5-5-5-5-5-5-3-|
|-(5)-5-5-5-5-5-5-5-|-5-5-5-5-5--5-5-1-|-(1)-1-1-1-1-1-1-3-|-(3)-3-3-3-3-3-3---|


                                         G5
        Gtr I
  +E  E  E  E Q    E E    Q   E  Q   Q    E
|----------------------|--------------------|
|----------------------|--------------------|
|-----------------12---|-10---9-10---9------|
|-(2)------10----------|-----------------10-|
|-------10-------------|--------------------|
|----------------------|--------------------|
|
| +E  E  E  E E E  E E    E E E  E E E E  E
|----------------------|--------------------|
|----------------------|--------------------|
|----------------------|--------------------|
|-(5)-5--5--5-5-5--5-5-|--5-5-5--5-5-5-5----|
|-(3)-3--3--3-3-3--3-3-|--3-3-3--3-3-3-3--5-|
|----------------------|------------------3-|
|
|       Gtr IV
|  Q     E  E Q    E E    Q   E  Q   Q    E
|----------------------|--------------------|
|----------------------|--------------------|
|-----------------12---|-10---9-10---9------|
|----------10----------|-----------------10-|
|-------10-------------|--------------------|
|----------------------|--------------------|


   +E  E  E  E Q       E  E   Q       E  E  E     +S   S E E
|---------------------------|------------------------------------|
|---------------------------|------------------------------------|
|---------------------------|------------------------------9-----|
|-(10)---------9b10---------|-9b10---------12b14r(12)p10-9-x-----|
|------8-10-12--------10-12-|--------10-12-----------------7-----|
|---------------------------|------------------------------------|
|
|  +E  E  E  E E    E  E  E   E    E  E  E  E      E     E E
|---------------------------|------------------------------------|
|---------------------------|------------------------------------|
|---------------------------|------------------------------------|
|---------------------------|------------------------------------|
|--(5)-5--5--5-5----5--5--5-|-5----5--5--5--5------5-----5-7-----|
|--(3)-3--3--3-3----3--3--3-|-3----3--3--3--3------3-----3-5-----|
|
|  +E  E  E  E Q       E  E   Q       E  E  E     +S   S E E
|---------------------------|------------------------------------|
|---------------------------|------------------------------------|
|---------------------------|------------------------------------|
|-(10)---------9b10---------|-9b10---------12b14r(12)p10-9-7b9===|
|------8-10-12--------10-12-|--------10-12-----------------------|
|---------------------------|------------------------------------|


                                         F5
  +E  E E  E   E  E E E   E E E E E  E E E
|-----------------------|------------------|
|-----------------------|------------------|
|-(9)-9-9--9---9--7-7-7-|-7-9-9-9-9-10-----|
|-(x)-x-x--x---x--x-x-x-|-x-x-x-x-x--x-----|
|-(7)-7-7--7---7--5-5-5-|-5-7-7-7-7--8-----|
|-----------------------|----------------3-|
|
| +E  E E  E   E  E E E   E E E E E  E E E
|-----------------------|------------------|
|-----------------------|------------------|
|-----------------------|------------------|
|-----------------------|------------------|
|-(7)-7-7--7---7--7-7-7-|-7-7-7-7-7--7-7-3-|
|-(5)-5-5--5---5--5-5-5-|-5-5-5-5-5--5-5-1-|
|
|  ~~~
| +Q.     +E  +Q    Q     W
|-----------------------|------------------|
|-----------------------|------------------|
|-----------------------|------------------|
|-(7)-----(7)r(7)-------|------------------|
|-----------------------|------------------|
|-----------------------|------------------|


                  G5                  D5
  +E  E E E E E E E   +E  E E E E E E E
|-------------------|-------------------||
|-------------------|-------------------||
|-------------------|-------------------||
|-------------------|-----------------2-||
|-------2-3-2-0-0---|-------2-3-2-0-0---||
|-(3)-3-----------3-|-(3)-3-------------||
|
| +E  E E E E E E E   +E  E E E E E E E
|-------------------|-------------------||
|-------------------|-------------------||
|-------------------|-------------------||
|-------------------|-----------------7-||
|-(3)-3-3-3-3-3-3-5-|-(5)-5-5-5-5-5-5-5-||
|-(1)-1-1-1-1-1-1-3-|-(3)-3-3-3-3-3-3---||
|
|  W                   W
|-------------------|-------------------||
|-------------------|-------------------||
|-------------------|-------------------||
|-------------------|-------------------||
|-------------------|-------------------||
|-------------------|-------------------||


 Pre-Chorus
                                        F5
      Gtr IV
                                        ~~~
  +E  E E E E E E E   E  E E  E E  E E  E
|-------------------|------8----8---------|
|-------------------|---10---10---10-8----|
|-------------------|-------------------9-|
|-(2)---------------|---------------------|
|-----x-x-x---x-x-x-|---------------------|
|-----x-x-x---x-x-x-|---------------------|
|
|  E  E E Q   E E E   E  E E  E E  E E  E
|-------------------|---------------------|
|-------------------|---------------------|
|-------------------|---------------------|
|--7--7-7-----------|----7-7--7-7--7-7\-3-|
|--5--5-5-----x-x-x-|----5-5--5-5--5-5\-3-|
|-------------x-x-x-|-------------------1-|


                                                A5
 ~~~~~    ~
  +Q    E H       +E     E  E  E   E E  E  +E    E
|----------------------|-------8-----8-------------|
|-------8--------------|---10-----10---10-(10)\----|
|-(9)-----9-------(9)\-|---------------------------|
|----------------------|---------------------------|
|----------------------|------------------------10-|
|----------------------|---------------------------|
|
|     PM------|    PM
| +E  E E E E E E  E     Q    +H            E    E
|----------------------|---------------------------|
|----------------------|---------------------------|
|----------------------|---------------------------|
|-(3)------------------|---------------------------|
|-(3)-3-3-3-3-3----3---|-3----(3)s=========15----7-|
|-(1)-1-1-1-1-1----1---|-1----(1)s=========13----5-|


                                 G5
                                          |---3---|
   +E   E  E E  Q    E  E    +E   E  E E  E  E    E  E  E
|-------------------------|-------------------------------|
|-------------------------|-------------------------------|
|-------------------------|-------------------------------|
|---------12---10---------|---------12---10-12---10-------|
|-(10)-10-----------12-10-|-(10)-10-----------------12-10-|
|-------------------------|-------------------------------|
|
|          PM--|                     PM--|
|   E   E  E E  E E  E  E    +E   E  E E  E    E     E  E
|-------------------------|-------------------------------|
|-------------------------|-------------------------------|
|-------------------------|-------------------------------|
|-------------------------|-----------------------------5-|
|---7---7--7-7--7-7-----5-|--(5)--5--5-5--5----5--------3-|
|---5---5--5-5--5-5-----3-|--(3)--3--3-3--3----3----------|


       C5                     F5             D5
                        PM     PM   PM   PM
   +E   E  E E  Q    E  E   E  E E  E E  E E  S  S
|-------------------------|--------------------------|
|-------------------------|------------------10h13p==|
|----------------------12-|---12---14---14-----------|
|---------12---10-------x-|----x----x----x-----------|
|-(10)-10-----------12-10-|---10---12---12-----------|
|-------------------------|--------------------------|
|
|          PM--|
|  +E   E  E E  E E  E  E   E  E E  E E  E E  E
|-------------------------|--------------------------|
|-------------------------|--------------------------|
|-------------------------|--------------------------|
|--(5)--5--5-5--5-5-------|-------------------7------|
|--(3)--3--3-3--3-3-----3-|----3----3----3----5------|
|-----------------------1-|----1----1----1-----------|


                                           ~~~
   W                    +E   E E  E E  E E E
|--------------------|---------8----8--------|
|-10-----------------|-(10)-10---10---10-8---|
|--------------------|---------------------9-|
|--------------------|-----------------------|
|--------------------|-----------------------|
|--------------------|-----------------------|
|
| +E   E E E E E E E     E   E E  E E  E E E
|--------------------|-----------------------|
|--------------------|-----------------------|
|--------------------|-----------------------|
|-(7)\---------------|-------7-7--7-7--7---3-|
|-(5)\-x-x-x---x-x-x-|-------5-5--5-5--5---3-|
|------x-x-x---x-x-x-|---------------------1-|


        F5                           G5       A5
 ~~~~~    ~
  +Q    E H       +E     E  E E  E E  E  +E    E
|----------------------|------8----8-------------|
|-------8--------------|---10---10---10-(10)\----|
|-(9)-----9-------(9)\-|-------------------------|
|----------------------|-------------------------|
|----------------------|----------------------10-|
|----------------------|-------------------------|
|
|         PM--|    PM------|     PM|
| +E  E E E E E E  E     E  E E  E E  E   E    E
|----------------------|-------------------------|
|----------------------|-------------------------|
|----------------------|-------------------------|
|-(3)------------------|-------------------------|
|-(3)-3---3-3-3----3---|-3--3----3-3--5--------7-|
|-(1)-1---1-1-1----1---|-1--1----1-1--3--------5-|


                       G5
   +E   E  E E  Q    E  E
|-------------------------|
|-------------------------|
|-------------------------|
|---------12---10---------|
|-(10)-10-----------12-10-|
|-------------------------|
|
|          PM--|
|  +E   E  E E  E E  E  E
|-------------------------|
|-------------------------|
|-------------------------|
|-------------------------|
|--(7)--7--7-7--7-7-----5-|
|--(5)--5--5-5--5-5-----3-|


                             C5                        F5
                |---3---|
   +E   E  E E  E  E    E  E  E    +E   E  E E  Q    E  E
|-------------------------------|-------------------------|
|-------------------------------|-------------------------|
|-------------------------------|-------------------------|
|---------12---10-12---10-------|---------12---10---------|
|-(10)-10-----------------12-10-|-(10)-10-----------12----|
|-------------------------------|----------------------13-|
|
|          PM--|                           PM--|        PM
|  +E   E  E E  E    E     E  E    +E   E  E E  E E  E  E
|-------------------------------|-------------------------|
|-------------------------------|-------------------------|
|-------------------------------|-------------------------|
|-----------------------------5-|--(5)--5--5-5--5-5-------|
|--(5)--5--5-5--5----5--------3-|--(3)--3--3-3--3-3-----3-|
|--(3)--3--3-3--3----3----------|-----------------------1-|


                                                 C5
                                        Gtrs I, IV
   E  E  E  E  E  E  E  E    E  E  E  E  E  E  E E
|-------------------------|------------------------||
|-------------------------|------------------------||
|-------------------------|-------------14-12-10-9-||
|-------------------------|-10-10-10-10--x--x--x-x-||
|-------------12-12-12-12-|-12-12-12-12-12-10--8-7-||
|-13-13-13-13-13-13-13-13-|-13-13-13-13------------||
|
| Gtr II
|  PM--------------------------|
|  E  E  E  E  E  E  E  E    E  E  E  E  E  E  E E
|-------------------------|------------------------||
|-------------------------|------------------------||
|-------------------------|------------------------||
|-------------------------|----------------------5-||
|--3--3--3--3--3--3--3--3-|--3--3--3--3--3--3--3-3-||
|--1--1--1--1--1--1--1--1-|--1--1--1--1--1--1--1---||
|
| Gtr III
|  PM-----------------------------------|
|  E  E  E  E  E  E  E  E    E  E  E  E  E  E  E E
|-------------------------|------------------------||
|-------------------------|------------------------||
|-------------------------|------------------------||
|-------------------------|----------------------5-||
|--3--3--3--3--3--3--3--3-|--3--3--5S=7S10S12-12-3-||
|--1--1--1--1--1--1--1--1-|--1--1--3S=5S=8S10-10---||


 Out-Chorus
  C5                                     G5
  +Q     E  E Q    E E    Q   E  Q   Q    E
|----------------------|--------------------|
|----------------------|--------------------|
|-(9)-------------12---|-10---9-10---9------|
|-(x)------10----------|-----------------10-|
|-(7)---10-------------|--------------------|
|----------------------|--------------------|
|
| Gtrs II, III
| +E  E  E  E E E  E E    E E E  E E E E  E
|----------------------|--------------------|
|----------------------|--------------------|
|----------------------|--------------------|
|-(5)-5--5--5-5-5--5-5-|--5-5-5--5-5-5-5----|
|-(3)-3--3--3-3-3--3-3-|--3-3-3--3-3-3-3--5-|
|----------------------|------------------3-|


                                           A5
   +Q     E  E Q    E E    Q   E  Q   E  E E
|-----------------------|--------------------|
|-----------------------|--------------------|
|------------------12---|-10---9-10---9----9-|
|-(10)------10----------|---------------10-x-|
|--------10-------------|------------------7-|
|-----------------------|--------------------|
|
|  +E  E  E  E E E  E E    E E E  E E E  E E
|-----------------------|--------------------|
|-----------------------|--------------------|
|-----------------------|--------------------|
|-----------------------|--------------------|
|--(5)-5--5--5-5-5--5-5-|--5-5-5--5-5-5--5-7-|
|--(3)-3--3--3-3-3--3-3-|--3-3-3--3-3-3--3-5-|


                                     F5                  G5                  C5
  +E  E E E E E E E   E E E E E  E E E   +E  E E E E E E E   +E  E E E E E E E
|-------------------|------------------|-------------------|-------------------|
|-------------------|------------------|-------------------|-------------------|
|-(9)-9-9-9-9-7-7-7-|-7-9-9-9-9-10-----|-------------------|-------------------|
|-(x)-x-x-x-x-x-x-x-|-x-x-x-x-x--x-----|-------------------|-----------------2-|
|-(7)-7-7-7-7-5-5-5-|-5-7-7-7-7--8-----|-------2-3-2-0-0---|-------2-3-2-0-0---|
|-------------------|----------------3-|-(3)-3-----------3-|-(3)-3-------------|
|
| +E  E E E E E E E   E E E E E  E E E   +E  E E E E E E E   +E  E E E E E E E
|-------------------|------------------|-------------------|-------------------|
|-------------------|------------------|-------------------|-------------------|
|-------------------|------------------|-------------------|-------------------|
|-------------------|------------------|-------------------|-----------------5-|
|-(7)-7-7-7-7-7-7-7-|-7-7-7-7-7--7-7-3-|-(3)-3-3-3-3-3-3-5-|-(5)-5-5-5-5-5-5-3-|
|-(5)-5-5-5-5-5-5-5-|-5-5-5-5-5--5-5-1-|-(1)-1-1-1-1-1-1-3-|-(3)-3-3-3-3-3-3---|


                                         G5
        Gtr I
  +E  E  E  E Q    E E    Q   E  Q   Q    E
|----------------------|--------------------|
|----------------------|--------------------|
|-----------------12---|-10---9-10---9------|
|-(2)------10----------|-----------------10-|
|-------10-------------|--------------------|
|----------------------|--------------------|
|
|  E  E  E  E E E  E E    E E E  E E E E  E
|----------------------|--------------------|
|----------------------|--------------------|
|----------------------|--------------------|
|--5--5--5--5-5-5--5-5-|--5-5-5--5-5-5-5----|
|--3--3--3--3-3-3--3-3-|--3-3-3--3-3-3-3--5-|
|----------------------|------------------3-|
|
|       Gtr IV
|  Q     E  E Q    E E    Q   E  Q   Q    E
|----------------------|--------------------|
|----------------------|--------------------|
|-----------------12---|-10---9-10---9------|
|----------10----------|-----------------10-|
|-------10-------------|--------------------|
|----------------------|--------------------|


                                                           A5
   +E  E  E  E Q       E  E   Q       E  E  E     +S   S E E
|---------------------------|------------------------------------|
|---------------------------|------------------------------------|
|---------------------------|------------------------------9-----|
|-(10)---------9b10---------|-9b10---------12b14r(12)p10-9-x-----|
|------8-10-12--------10-12-|--------10-12-----------------7-----|
|---------------------------|------------------------------------|
|
|  +E  E  E  E E    E  E  E   E    E  E  E  E      E     E E
|---------------------------|------------------------------------|
|---------------------------|------------------------------------|
|---------------------------|------------------------------------|
|---------------------------|------------------------------------|
|--(5)-5--5--5-5----5--5--5-|-5----5--5--5--5------5-----5-7-----|
|--(3)-3--3--3-3----3--3--3-|-3----3--3--3--3------3-----3-5-----|
|
|  +E  E  E  E Q       E  E   Q       E  E  E     +S   S E E
|---------------------------|------------------------------------|
|---------------------------|------------------------------------|
|---------------------------|------------------------------------|
|-(10)---------9b10---------|-9b10---------12b14r(12)p10-9-7b9===|
|------8-10-12--------10-12-|--------10-12-----------------------|
|---------------------------|------------------------------------|


                                         F5
  +E  E E  E   E  E E E   E E E E E  E E E
|-----------------------|------------------|
|-----------------------|------------------|
|-(9)-9-9--9---9--7-7-7-|-7-9-9-9-9-10-----|
|-(x)-x-x--x---x--x-x-x-|-x-x-x-x-x--x-----|
|-(7)-7-7--7---7--5-5-5-|-5-7-7-7-7--8-----|
|-----------------------|----------------3-|
|
| +E  E E  E   E  E E E   E E E E E  E E E
|-----------------------|------------------|
|-----------------------|------------------|
|-----------------------|------------------|
|-----------------------|------------------|
|-(7)-7-7--7---7--7-7-7-|-7-7-7-7-7--7-7-3-|
|-(5)-5-5--5---5--5-5-5-|-5-5-5-5-5--5-5-1-|
|
|  ~~~
| +Q.     +E  +Q    Q     W
|-----------------------|------------------|
|-----------------------|------------------|
|-----------------------|------------------|
|-(7)-----(7)r(7)-------|------------------|
|-----------------------|------------------|
|-----------------------|------------------|


                  G5                  C5
  +E  E E E E E E E   +E  E E E E E E E
|-------------------|-------------------|
|-------------------|-------------------|
|-------------------|-------------------|
|-------------------|-----------------2-|
|-------2-3-2-0-0---|-------2-3-2-0-0---|
|-(3)-3-----------3-|-(3)-3-------------|
|
| +E  E E E E E E E   +E  E E E E E E E
|-------------------|-------------------|
|-------------------|-------------------|
|-------------------|-------------------|
|-------------------|-----------------5-|
|-(3)-3-3-3-3-3-3-5-|-(5)-5-5-5-5-5-5-3-|
|-(1)-1-1-1-1-1-1-3-|-(3)-3-3-3-3-3-3---|
|
|  W                   W
|-------------------|-------------------|
|-------------------|-------------------|
|-------------------|-------------------|
|-------------------|-------------------|
|-------------------|-------------------|
|-------------------|-------------------|


                                         G5
        Gtrs I, IV
  +E  E  E  E Q    E E    Q   E  Q   Q    E
|----------------------|--------------------|
|----------------------|--------------------|
|-----------------12---|-10---9-10---9------|
|-(2)------10----------|-----------------10-|
|-------10-------------|--------------------|
|----------------------|--------------------|
|
| +E  E  E  E E E  E E    E E E  E E E E  E
|----------------------|--------------------|
|----------------------|--------------------|
|----------------------|--------------------|
|-(5)-x--5--x-5-x--x-5-|--x-5-x--5-x-x-x----|
|-(3)-x--3--x-3-x--x-3-|--x-3-x--3-x-x-x--5-|
|----------------------|------------------3-|


                                           A5
   +Q     E  E Q    E E    Q   E  Q   E  E E
|-----------------------|--------------------|
|-----------------------|--------------------|
|------------------12---|-10---9-10---9----9-|
|-(10)------10----------|---------------10-x-|
|--------10-------------|------------------7-|
|-----------------------|--------------------|
|
|  +E  E  E  E E E  E E    E E E  E E E  E E
|-----------------------|--------------------|
|-----------------------|--------------------|
|-----------------------|--------------------|
|-----------------------|--------------------|
|--(5)-x--5--x-5-x--x-5-|--x-5-x--5-x-x--x-7-|
|--(3)-x--3--x-3-x--x-3-|--x-3-x--3-x-x--x-5-|


                                     F5                  G5
  +E  E E E E E E E   E E E E E  E E E   +E  E E E E E E E   +E  E E E E E E E
|-------------------|------------------|-------------------|-------------------|
|-------------------|------------------|-------------------|-------------------|
|-(9)-9-9-9-9-7-7-7-|-7-9-9-9-9-10-----|-------------------|-------------------|
|-(x)-x-x-x-x-x-x-x-|-x-x-x-x-x--x-----|-------------------|-----------------2-|
|-(7)-7-7-7-7-5-5-5-|-5-7-7-7-7--8-----|-------2-3-2-0-0---|-------2-3-2-0-0---|
|-------------------|----------------3-|-(3)-3-----------3-|-(3)-3-------------|
|
| +E  E E E E E E E   E E E E E  E E E   +E  E E E E E E E   +E  E E E E E E E
|-------------------|------------------|-------------------|-------------------|
|-------------------|------------------|-------------------|-------------------|
|-------------------|------------------|-------------------|-------------------|
|-------------------|------------------|-------------------|-----------------5-|
|-(7)-7-7-7-7-7-7-7-|-7-7-7-7-7--7-7-3-|-(3)-3-3-3-3-3-3-5-|-(5)-5-5-5-5-5-5-3-|
|-(5)-5-5-5-5-5-5-5-|-5-5-5-5-5--5-5-1-|-(1)-1-1-1-1-1-1-3-|-(3)-3-3-3-3-3-3---|


                                         G5
        Gtr I
  +E  E  E  E Q    E E    Q   E  Q   Q    E
|----------------------|--------------------|
|----------------------|--------------------|
|-----------------12---|-10---9-10---9------|
|-(2)------10----------|-----------------10-|
|-------10-------------|--------------------|
|----------------------|--------------------|
|
| +E  E  E  E E E  E E    E E E  E E E E  E
|----------------------|--------------------|
|----------------------|--------------------|
|----------------------|--------------------|
|-(5)-5--5--5-5-5--5-5-|--5-5-5--5-5-5-5----|
|-(3)-3--3--3-3-3--3-3-|--3-3-3--3-3-3-3--5-|
|----------------------|------------------3-|
|
|       Gtr IV
|  Q     E  E Q    E E    Q   E  Q   Q    E
|----------------------|--------------------|
|----------------------|--------------------|
|-----------------12---|-10---9-10---9------|
|----------10----------|-----------------10-|
|-------10-------------|--------------------|
|----------------------|--------------------|


                                                           A5
   +E  E  E  E Q       E  E   Q       E  E  E     +S   S E  E
|---------------------------|----------------------------------|
|---------------------------|----------------------------------|
|---------------------------|-------------------------------9--|
|-(10)---------9b10---------|-9b10---------12b14r(12)p10-9--x--|
|------8-10-12--------10-12-|--------10-12------------------7--|
|---------------------------|----------------------------------|
|
|  +E  E  E  E E    E  E  E   E    E  E  E  E      E     E  E
|---------------------------|----------------------------------|
|---------------------------|----------------------------------|
|---------------------------|----------------------------------|
|---------------------------|----------------------------------|
|--(5)-5--5--5-5----5--5--5-|-5----5--5--5--5------5-----5--7--|
|--(3)-3--3--3-3----3--3--3-|-3----3--3--3--3------3-----3--5--|
|
|  +E  E  E  E Q       E  E   Q       E  E  E     +S   S E  E
|---------------------------|----------------------------------|
|---------------------------|----------------------------------|
|---------------------------|----------------------------------|
|-(10)---------9b10---------|-9b10---------12b14r(12)p10-9-12--|
|------8-10-12--------10-12-|--------10-12---------------------|
|---------------------------|----------------------------------|


                                                F5
   +E     E E   E  E E E   E     E E E E E  E E E
|------------------------------|------------------|
|------------------------------|------------------|
|--(9)----9-9---9--9-7-7---7---|-7-9-9-9-9-10-----|
|--(7)----x-x---x--x-x-x---x---|-x-x-x-x-x--x-----|
|--(7)----7-7---7--7-5-5---5---|-5-7-7-7-7--8-----|
|------------------------------|----------------3-|
|
|  +E     E E   E  E E E   E     E E E E E  E E E
|------------------------------|------------------|
|------------------------------|------------------|
|------------------------------|------------------|
|------------------------------|------------------|
|--(7)----7-7---7--7-7-7---7---|-7-7-7-7-7--7-7-3-|
|--(5)----5-5---5--5-5-5---5---|-5-5-5-5-5--5-5-1-|
|
|               ~~~~
|  +Q.         +H         +E     W
|------------------------------|------------------|
|------------------------------|------------------|
|------------------------------|------------------|
|-(12)b14r====(12)-------(12)\-|------------------|
|------------------------------|------------------|
|------------------------------|------------------|


                  G5
  +E  E E E E E E E   +E  E E E E E E E
|-------------------|-------------------|
|-------------------|-------------------|
|-------------------|-------------------|
|-------------------|-------------------|
|-------2-3-2-0-0---|-------2-3-2-0-0---|
|-(3)-3-----------3-|-(3)-3-----------3-|
|
| +E  E E E E E E E   +E  E E E E E E E
|-------------------|-------------------|
|-------------------|-------------------|
|-------------------|-------------------|
|-------------------|-------------------|
|-(3)-3-3-3-3-3-3-5-|-(5)-5-5-5-5-5-5-5-|
|-(1)-1-1-1-1-1-1-3-|-(3)-3-3-3-3-3-3-3-|
|
|  W                   W
|-------------------|-------------------|
|-------------------|-------------------|
|-------------------|-------------------|
|-------------------|-------------------|
|-------------------|-------------------|
|-------------------|-------------------|


                                          N.C.        C5
                                          Gtrs I, IV
  +E  E E E E E E E   E E E E E E E E   E E E E E E E  E
|-------------------|-----------------|------------------|
|-------------------|-----------------|------------------|
|-------------------|-----------------|------------------|
|-------------------|-----------------|------------------|
|-------2-3-2-0-0---|-----------------|---8-7---8-7---10-|
|-(3)-3-----------3-|-3-3-3-3-3-3-3-3-|-0-----8-----8--8-|
|
| +E  E E E E E E E   E E E E E E E E   E E E E E E E  E
|-------------------|-----------------|------------------|
|-------------------|-----------------|------------------|
|-------------------|-----------------|------------------|
|-------------------|-----------------|------------------|
|-(5)-5-5-5-5-5-5-5-|-5-5-5-5-5-5-5-5-|---8-7---8-7---10-|
|-(3)-3-3-3-3-3-3-3-|-3-3-3-3-3-3-3-3-|-0-----8-----8--8-|


   +W            +Q    +Q      H
|-------------|------------------------*|
|-------------|------------------------*|
|-------------|------------------------*|
|-------------|------------------------*|
|-(10)--------|-(10)--(10)/------------*|
|--(8)--------|--(8)---(8)/------------*|
|
|  +W            +H           +Q    Q
|-------------|------------------------*|
|-------------|------------------------*|
|-------------|------------------------*|
|-------------|------------------------*|
|-(10)--------|-(10)---------(10)\-----*|
|--(8)--------|--(8)----------(8)\-----*|


Duration Legend
---------------
W - whole; H - half; Q - quarter; E - 8th; S - 16th; T - 32nd; X - 64th; a - acciaccatura
+ - note tied to previous; . - note dotted; .. - note double dotted
Uncapitalized letters represent notes that are staccato (1/2 duration)
Irregular groupings are notated above the duration line
Duration letters will always appear directly above the note/fret number it represents the
duration for.  Duration letters with no fret number below them represent rests.  Multi-
bar rests are notated in the form Wxn, where n is the number of bars to rest for.  Low
melody durations appear below the staff

Tablature Legend
----------------
 h   - hammer-on
 p   - pull-off
 b   - bend
 pb  - pre-bend
 r   - bend release (if no number after the r, then release immediately)
 /\  - slide into or out of (from/to "nowhere")
 s   - legato slide
 S   - shift slide
  - natural harmonic
[n]  - artificial harmonic
n(n) - tapped harmonic
 ~   - vibrato
 tr  - trill
 T   - tap
 TP  - trem. picking
 PM  - palm muting
\n/  - tremolo bar dip; n = amount to dip
 \n  - tremolo bar down
 n/  - tremolo bar up
/n\  - tremolo bar inverted dip
 =   - hold bend; also acts as connecting device for hammers/pulls
 <>  - volume swell (louder/softer)
 x   - on rhythm slash represents muted slash
 o   - on rhythm slash represents single note slash

Misc Legend
-----------
 |  - bar
||  - double bar
||o - repeat start
o|| - repeat end
*|  - double bar (ending)
 :  - bar (freetime)
 $  - Segno
 &  - Coda
Tempo markers -  = BPM(8/16=s8/s16), where s8 = swing 8ths, s16 = swing 16ths
comments
print report bad tab
7 comments total. Showing first comments.
0 reply
willingwellIV wrote on July 6 2006, 10:45 pm

dude kickass tab, im thinking this is the way he plays it in the video deffinatley. its a kickass song. one question did u get this tab from cobaltandcalcium.com?

0 reply
Travv0 wrote on November 27 2006, 09:07 pm

unless you were the guy that submitted the powertab and u just registered, this isn't your tab.

0 reply
Travv0 wrote on November 27 2006, 09:20 pm

nvm about the last post, you copied it exactly.

I want to post or [tab]
guest
You may want to rate the tab now too:
select rating
Please do not post tabs as comments. Select "correction" instead!