Oops, an error
Loading. Please wait.

The Second Stage Turbine Blade Bass Tab

3,686 views 1 this week
no commentswrite comment
1 2 3 4 5
excellent!
x 1
add to favorites launch autoscroll
font size
0
reset
Autoscroll
+/-
esc
set tempo
stop
Contributor
WARNING: You are trying to view
                                    content from Ultimate-Guitar.com
                                    in an unauthorized application,
                                    which is prohibited.

                                    Please use an official Ultimate
                                    Guitar Tabs application for iPhone,
                                    iPad or Android to access legitimate
                                    chords, guitar, bass, and drum tabs
                                    from Ultimate-Guitar.com database.

                                    Type "ultimate guitar tabs" in Apple
                                    App Store's or Android Market's
                                    search to find the application.
 Coheed and Cambria
 The Second Stage Turbine Blade
 
 1.Second Stage Turbine Blade(No bass)
 2.Time Consumer(Xcrimson_ghostX)
 3.Devil in Jersey City(eaby486)
 4.Everything Evil(chikinpie1)
 5.Delirium Trigger(Unregistered)
 6.Hearshot Kid Disaster(doobidoo)
 7.33(doobidoo)
 8.Junesong Provision(doobidoo)
 9.Neverender(doobidoo)
 10.God Send Conspirator(choke383)
 
===============================================================================

 1.Second Stage Turbine Blade(No bass)

===============================================================================

 2.Time Consumer(Xcrimson_ghostX)

 Intro part 1
G|----------------------------------------|--------------------------------|
D|----7-------7--------7------------------|--------------------------------|
A|5~-----5*-55--555~55---5-7878-7h8p7-----|----8~----------------55-7-878--|
D|------------------------------------10~-|-8~----88-7*-5*-3*-0/5----------|

G|--------------------------------------------|-----------------------------|
D|--------------------------------------------|-----------------------------|    
A|----8~-------878/10~---10~------------12----|-----------------------------|    
D|8~------8-88--------10~---1010~-10/12~--12--|5~~~~~~~10~~~~~~~0~~~~~~~----|

Intro part 2
G|----------------------------------------|--------------------------------|
D|----7-------7--------7------------------|--------------------------------|
A|5~-----5*-55--555~55---5-7878-7h8p7-----|----8~----------------55-7-878--|
D|------------------------------------10~-|-8~----88-7*-5*-3*-0/5----------|

G|--------------------------------------------|------------------------------|
D|--------------------------------------------|------------------------------|    
A|----8~-------878/10~---10~------------12----|------------------5~~~~~~~----|    
D|8~------8-88--------10~---1010~-10/12~--12--|-5~~~~~~~10~~~~~~~------------|

Intro part 3
G|--------------------------------------|----------------------------------------|
D|--------------------7--7*---7---------|----------------------------------------|
A|--5*5*5*-5/0--5*5*5*-5*---5*--5/7878--|-------------------------5/7h8p7h8/1087-|
D|--------------------------------------|8*8*8*8/0--8*8*8*8/0--0~~~~~~~----------|

G|----------------------------------------|
D|---------7---------7---------7----------|
A|--5*5*5*----5*5*5*----5*5*5*------------|
D|-------------------------------0~~~~~~~~|

Verse
G|-------------------------------------||-------------------------------------|
D|-------------------------------------||-------------------------------------|
A|-------------------8887778887778-----||-------------------8887778887771087--|
D|--88-88-88-88-88-8*-------------10~--||--88-88-88-88-88-8*------------------|

Last Verse Before Chorus
G|--------------------------------|
D|--------------------------------|
A|--------------------8~~~7~~~----|
D|--88-88-88-88-88-8*-------------|

Chorus
G|---------------------2--2-------------|----------------------------------|
D|--------------------0-00-0--02222333--|----------------------------------|
A|--------------------------------------|--11-11-1111-11-11-111111-11-0----|
D|--33333333222233330~~~~~~~------------|-------------------------------5--|

G|--------------------2--2------------|----------22>-------------22>-----|
D|----------022222230--00-0002222333--|--55>5333>---0000>55>5333>--------|
A|------------------------------------|-----------------------------0----|
D|--33333333--------------------------|-------------------------------5--|

G|-------------------|
D|-------------------|
A|-------------------|
D|--3~~~3332~3~2~0~~~|

Bridge 2X
G|--------|---------------------------------|
D|--------|---------------------------------|
A|--3-----|---------------------------------| 
D|--------|--3---3-33355-5-5-33-33-55-00-0--|

G|------------------------------------|
D|------------------------------------|
A|-----------------------------5--5---|
D|--3-3-3-33355-5-5-33-33-55-00-00-0--|

G|--------|-----------------------------------------------------|
D|--------|-----------------------------------------------------|
A|--3-----|------------------55-55-55-55-55--55-55-55-55-55-----|
D|--------|--3-3-3-33355-5-5---------------------------------0~~|

Second Intro 2X

After Second Intro:
G|----------------------------------|
D|----7--------7-------7------------|
A|5--------55-5----55-5----55-5-78--|
D|----------------------------------|

G|------------------------------------|
D|-----------------------0>-----------|
A|------10-------10------------78787--|
D|--8-88-----88-8---------------------|

===============================================================================

 3.Devil in Jersey City(eaby486)

 1st verse -      "New jersey bound.."
G---------------------------------|
D---------------------------------|
A---------------------------------|
E-x7--7-7-7-7-7-7-7-7-7-7-7-7-7-7-|

1st verse -      "Sound asleep they'll.."
G-----------------------------------------------|
D-----------------------------------------------|
A-----------------------------------------------|
E-x10--10-10-10-10-10-10-10-10-10-10-10-10-10-10|

1st verse -      "Find you at your most vaunrable.."
G--------------------|
D--------------------|
A-10-10-9-9-7-7------|         4 times
E---------------10-10|

1st verse -      "Poll Position, Speak up let.."
G---------------------------------|
D---------------------------------|
A---------------------------------|
E-x7--7-7-7-7-7-7-7-7-7-7-7-7-7-7-|

1st verse -      "Out, when down the street the.."
G-----------------------------------------------|
D-----------------------------------------------|
A-----------------------------------------------|
E-x10--10-10-10-10-10-10-10-10-10-10-10-10-10-10|

1st verse -      "Corner boys, f*** s*** up.."
G--------------------|
D--------------------|    4 times
A-10-10-9-9-7-7------|
E---------------10-10|

1st Verse -      "scream loud.."
G---------------------------------|
D---------------------------------|
A---------------------------------|
E-x7--7-7-7-7-7-7-7-7-7-7-7-7-7-7-|

1st Verse -      "Scream sayanara oh oh, sweet josa.."
G-----------------------------------------------|
D-----------------------------------------------|
A-----------------------------------------------|
E-x10--10-10-10-10-10-10-10-10-10-10-10-10-10-10|

1st Verse -      "phine, will you follow me home?.."
G--------------------|
D--------------------|    4 times
A-10-10-9-9-7-7------|
E---------------10-10|

1st Verse -      "scream loud.."
G---------------------------------|
D---------------------------------|
A---------------------------------|
E-x7--7-7-7-7-7-7-7-7-7-7-7-7-7-7-|

1st Verse -      "Scream sayanara oh oh, sweet josa.."
G-----------------------------------------------|
D-----------------------------------------------|
A-----------------------------------------------|
E-x10--10-10-10-10-10-10-10-10-10-10-10-10-10-10|

1st Verse -      "phine, will you f*** me back home?.."
G--------------------|
D--------------------|    4 times
A-10-10-9-9-7-7------|
E---------------10-10|

Pre Chorus? -        "Lets fire it up..haha, now.."
G------------------------|
D------------------------|
A------------------------| 2 times
E-3h5-5-3h5-5-3h5-5-3h5-5|

Pre Chorus? - if you dont like doing the: (A-0), you can do (E-5)
G-----------------------------| [ on the 4th time,dont hit the (a-0)]
D-----------------------------|
A--------------0--------------|  4 times
E-3--3-3-3-2-3----------------|

Pre Chorus? -        "Lets fire it up.."
G------------------------|
D------------------------|
A------------------------| 2 times
E-3h5-5-3h5-5-3h5-5-3h5-5|

this next part is where I found everybodys tab wrong, he plays what he regularly does 
then he does what claudio does, just look and it will show you..:

Pre Chorus? -
G-----------------------------|
D-----------------------------|
A--------------0--------------|  2 times
E-3--3-3-3-2-3----------------|

G-----------------------------|
D----7-5-4-2-0----------------|
A--5--------------------------|  1 time
E-3---------------------------|

Chorus? -            "When your"
"down on the floor bleeding bastard, you'll be getting home real..
G----------------------------------------------------|
D----------------------------------------------------|
A--2-2-2-2-5-5--2-2-2-2-4-4--0-0-0-0-5-5--0-0-0-0-5-4|
E----------------------------------------------------|

Chorus? -             "soon... and i pray for you... high health.."
G----------------------|
D----------------------|
A----------------------|
E-3--3-3-3-3-3-3-3-3-3-|

Chorus? -            "dont let them scare you.."
G----------------------------------------------------------------|
D----------------------------------------------------------------|
A----------------------------------------------------------------|
E-5-5-5-5-5-5-5-5-5-5-5-5-5-5-5-5-3-3-3-3-3-3-3-3-3-3-3-3-3-3-3-3|

Chorus? -            "When you're"
"down on the floor bleeding bastard, you'll be getting home real..
G----------------------------------------------------|
D----------------------------------------------------|
A--2-2-2-2-5-5--2-2-2-2-4-4--0-0-0-0-5-5--0-0-0-0-5-4|
E----------------------------------------------------|

 Chorus? -             "soon.."
G----------------------|
D----------------------|
A----------------------|
E--3--3-3-3-3-3-3-3-3-3|

       ..:THE SECOND VERSE IS EXACTLY THE SAME AS THE FIRST VERSE:..
Bridge -
G----------------------------|
D----------------------------|
A-2h4-0--0-4-5-7-5-4-5h4-----|
E------------------------5-5-|

Bridge -
G-----------------------------------------------------|
D-----------------------------------------------------|
A---7-------------------------------------------------|  2 times
E-7---7-7-7-7-7-9-5--5-5-5--7-7-7-7-7-7-7-9-5-5-5-5-5-|

Outro thing -
at the end you start playing the part labled as the chorus again..
except you do it four times, and on the fourth one you change and heres the way you play it:
G-----------2-4-0-0---2-4-0-0------|
D----------------------------------|
A--5-5--4-4--------5-5--------4-4--|
E----------------------------------|

===============================================================================

 4.Everything Evil(chikinpie1)

 Intro
G|--------------|
D|--------------|
A|--------------|
E|--------------|

Verse
G|--------------------------------|x2
D|--------------------------------|
A|-22-22---22-22------------------|
E|-----------------33-33---33-33--|

G|-------------------------------------------------------|x2
D|-------452402-------457540-----------------------------|
A|-22-22--------22-22-------------55457540------55457540-|
E|---------------------------33-33---------33-33---------|

G|----------------------------------------------------------|x2
D|-------452402-------457540-------------------------9------|
A|-22-22--------22-22-------------55457540------5759---9~ --|
E|---------------------------33-33---------33-33------------|

G|--------------------------------|x2
D|--------------------------------|
A|-22-22---22-22------------------|
E|-----------------33-33---33-33--|

Pre-Chorus
G|-------------------------------------------------------|x2
D|-------452402-------457540-----------------------------|
A|-22-22--------22-22-------------55457540------55457540-|
E|---------------------------33-33---------33-33---------|

Chorus
G|----------------------------------------------------------|x2
D|----------------------------------------------------------|
A|----------------------------------------------------------|
E|-333-3-3333-32-0-00-0-0000-02-3-33-3-3333-35-0-00-0-0000--|

G|-----------------------------|x1
D|-----------------------------|
A|-33-33-33-33-3333------------|
E|------------------77-77-77\--|

Verse
G|--------------------------------|x2
D|--------------------------------|
A|-22-22---22-22------------------|
E|-----------------33-33---33-33--|

G|-------------------------------------------------------|x2
D|-------452402-------457540-----------------------------|
A|-22-22--------22-22-------------55457540------55457540-|
E|---------------------------33-33---------33-33---------|

Chorus
G|----------------------------------------------------------|x2
D|----------------------------------------------------------|
A|----------------------------------------------------------|
E|-333-3-3333-32-0-00-0-0000-02-3-33-3-3333-35-0-00-0-0000--|

G|-----------------------------|x1
D|-----------------------------|
A|-33-33-33-33-3333------------|
E|------------------77-77-77\--|

Bridge
G|---------------------------------------------------------------------------|x3
D|---------------------------------------------------------------------------|
A|----------------------------1211-------------------------------------------|
E|-55-55744-44-44-44-77-77--12----121412-77-77h955-55-4/5-55-4/5-55-4/5-55---|


G|-------------------------------------------------------------------------|
D|-------------------------------------------------------------------------|
A|----------------------------1211-----------------------------------------|
E|-55-55744-44-44-44-77-77--12----121412-77-77h955-55-4/5-55-4/5-55-4/5-55-|

G|--------|x1
A|--------|
D|--------|
E|-4p0~---|

Bridge 2
G|-----------------------------------------------------------------|x2
D|-----------------------------------------------------------------|
A|-----------------------------------------------------------------|
E|-000000000000000777777777777777744444444444444445555555555555444-|

Outro
G|------------------------------------------------------------------|x4
D|------------------------------------------------------------------|
A|-7777---------------------------7777666666666666--444444--222222--|
E|-----777755554455777777777777777----------------77------44--------|

G|---------------------------------------------------------------------|x1
D|---------------------------------------------------------------------|
A|-7777---------------------------7777666666666666--444444--222222-----|
E|-----777755554455777777777777777----------------77------44-------7~ -|

===============================================================================

 5.Delirium Trigger(Unregistered)
 
 Intro
|----------------|----------------------|
|----------------|----------------------|
|----------------|----------------------|
|-0~---3~---/8~--|-0~---3~---/8h10-8~---|

|----------------|-----------------------------------|
|----------------|-----------------------------------|
|----------------|-----------------------------------|
|-0~---3~---/8~--|-0~---3~---/810-10-10-10-10-108\---|

|---------------------------------------------------|x2
|-------------------------------------8-------------|
|--------------------------------------10-----108---|
|-3-03003~--8-08008~--3-03003~--/81010----1088------|

Verse
|---------------------------------------------------|x4
|-------------------------------------8-------------|
|--------------------------------------10-----108---|
|-3-03003~--8-08008~--3-03003~--/81010----1088------|

|----|
|----|
|----|
|-0~-|

|---------------------------------------------------|x2
|-------------------------------------8-------------|
|--------------------------------------10-----108---|
|-3-03003~--8-08008~--3-03003~--/81010----1088------|

|----|
|----|
|----|
|-0~-|

|---------------------------------------------------|x1
|-------------------------------------8-------------|
|--------------------------------------10-----108---|
|-3-03003~--8-08008~--3-03003~--/81010----1088------|

Pre-Chorus
|-----------------------------|
|-----------------------------|
|-----------------------------|
|-3~----/8~---10-8-3~----/8~--|

Chorus
|-----------------------------------------------------|
|-----------------------------------------------------|
|-1010-1010-------------8h10-10/12-8~--8h10-10/12-7~--|
|-----------1313-1310h12------------------------------|

|---------------------------|x3
|---------------------------|
|---------12--------12------|
|-10h12h10--10h12h10--------|

|-----------------------------------------------------|
|-----------------------------------------------------|
|-1010-1010-------------8h10-10/12-8~--8h10-10/12-7~--|
|-----------1313-1310h12------------------------------|

|--------------------------------------------------------------------------|
|--------------------------------------------------------------------------|
|------12-----------12--------12-----------12--------12-----------12-------|
|-10-12--12-10h12h10--12-10-12--12-10h12h10--12-10-12--12-10h12h10--12-12~-|

Pre-Chorus
|-----------------------------|
|-----------------------------|
|-----------------------------|
|-3~----/8~---10-8-3~----/8~--|

Bridge
|--------------------------------------|x6
|--------------------------------------|
|---------------------8---8------------|
|-0~-2~-3~-5~-8h10h8~--7~--8~-5-875303-|

|---------------------------|x1
|---------------------------|
|---------------------8---8-|
|-0~-2~-3~-5~-8h10h8~--7~---|

Chorus
|-----------------------------------------------------|
|-----------------------------------------------------|
|-1010-1010-------------8h10-10/12-8~--8h10-10/12-7~--|
|-----------1313-1310h12------------------------------|

|---------------------------|x3
|---------------------------|
|---------12--------12------|
|-10h12h10--10h12h10--------|

|-----------------------------------------------------|
|-----------------------------------------------------|
|-1010-1010-------------8h10-10/12-8~--8h10-10/12-7~--|
|-----------1313-1310h12------------------------------|

|--------------------------------|x1
|--------------------------------|
|---------12--------12-1010------|
|-10h12h10--10h12h10--------1313-|

===============================================================================

 6.Hearshot Kid Disaster(doobidoo)

 Intro
  Moderately Fast Q=108
 4/4
  Gtr I
  Wx3          Q  S  E. S E S S S S S
|------------|------------------------|
|------------|------------------------|
|------------|------------------------|
|------------|------10--8---0-5-5-5-5-|


  Faster Q=114
  E S E  E. S E S S S S S
|-------------------------|
|-------------------------|
|-7-7---------------------|
|-------10--8---0-5-5-5-5-|


  S S S E  E. S E S S S S S   E S E  E. S E S S S S S
|---------------------------|-------------------------|
|---------------------------|-------------------------|
|-7-7-7---------------------|-7-7---------------------|
|---------10--8---0-5-5-5-5-|-------10--8---0-5-5-5-5-|


  S S S E  E. S E S S S S S   S S S S S  E. E S S S S S S
|---------------------------|-----------------------------|
|---------------------------|-----------------------------|
|-7-7-7-----------------0-0-|-7-7-7-7-7-------------------|
|---------10--8---0-5-5-----|-----------10--8-0-0-5-5-5-5-|


  S S S S S  E. E S S S S S S
|------------------------------|
|------------------------------|
|-7-7-7-7-7--------------------|
|-----------10--8-0-0-5-5-5-5--|


  S S S S S  E. E S S S S S S   S S S S S  E. S  Q..
|-----------------------------|------------------------||
|-----------------------------|------------------------||
|-7-7-7-7-7-------------------|-7-7-7-7-7--------------||
|-----------10--8-0-0-5-5-5-5-|-----------10--8\-------||


 Pre-Verse
  Slower Q=82
  S S S E. S S S E.  S E.   S S S E. S S S S S S S E.
|-------------------------|---------------------------|
|-5-5-5----5-5-5----------|---------------------------|
|-------------------12-0--|------------------------5\-|
|-------------------------|-4-4-4----4-4-4-4-4-4-4----|


  S S S E. S S S E.  S E.   S S S E. S S S Q   E  S
|-------------------------|-------------------(0)---||
|-5-5-5----5-5-5----------|-------------------(0)---||
|-------------------12-0--|-------------------------||
|-------------------------|-0-0-0----0-0-0----------||


   Verse
    S S S E. S S S E. S E.   S S S E. S S S E.  E  +S   S  4x
||-------------------------|-------------------------------||
||o------------------------|-0-4-0----0-4-0-----0--(0)----o||
||o------------------------|-------------------14-(14)\---o||
||--5-5-5----5-5-5----5-7\-|-------------------12-(12)\-0--||


   Verse Part 2
    S S S S S S S S S S S S S S S S   S S S E. S S S E.  E  +S   S   4x
||----------------------------------|--------------------------------||
||o---------------------------------|-0-4-0----0-4-0-----0--(0)-----o||
||o---------------------------------|-------------------14-(14)\----o||
||--5-5-5-5-5-5-5-5-5-5-5-5-5-7-7-0-|-------------------12-(12)\-0---||


 Pre-Chorus
  $
  S S E Q  Q  Q    Q  Q  H      S S E S S E S S E S S E
|----------------|------------|-------------------------|
|----------------|------------|-------------------------|
|-2-2---2--2--2--|-5--5-------|-------------------------|
|----------------|-0--0--0----|-5-5---5-5---5-5---5-5---|


  S S E S S E. S S E S E    S S S S E S S s s S s S S S S
|-------------------------|-------------------------------|
|--------------------2-2\-|---------4-------------4-------|
|-------------------------|-2-2-2-2---2---2-2---2---2-4h5-|
|-4-4---4-4----2-2--------|-------------------------------|


  S S S S S e S S s S S S S S S
|-------------------------------|
|-------------------------------|
|-5-5-5-5-4-4-4-7-7---7-4-4-4-5-|
|-------------------------------|


                                                       To Coda
  S S S S S S e S e S S S S S   S S S S S S S S S S S S S S S S
|-----------------------------|---------------------------------||
|-----------------------------|---------------------------------||
|---------5-5---------5-5-----|-------------------4-------7-7-7-||
|-5-5-5-5-----5-5-5-5-----5-5-|-4-4-4-4-4-4-4-4-4---4-0-0-------||


 Chorus
  S S S S S S S S S S S S S S S S   S S S S S S S S S S S S S S S S
|---------------------------------|---------------------------------|
|---------4---------------4-------|---------7---------------7-------|
|-2-2-2-2---2-2-2-2-2-2-2---2-2-2-|-5-5-5-5---5-5-5-5-5-5-5---5-0-5-|
|---------------------------------|---------------------------------|


  S S S S S S S S S S S S S S S S   S S S S S S S S S S S S S S S S
|---------------------------------|---------------------------------|
|---------------------------------|---------------------------------|
|---------5---------------5-------|---------------------7-----7-----|
|-5-5-5-5---5-5-5-5-5-5-5---5-5-5-|-0-0-0-0-0-5-4-0-5-7---x-x---7-5-|


  S S S S S S S S S S S S S S S S   S S S S S S S S S S S S S S S S
|---------------------------------|---------------------------------|
|---------4---------------4-------|---------7---------------7-------|
|-2-2-2-2---2-2-2-2-2-2-2---2-2-2-|-5-5-5-5---5-5-5-5-5-5-5---5-0-5-|
|---------------------------------|---------------------------------|


  S S S S S S S S S S S S S S S S   S S S S S S S S S Q..
|---------------------------------|--------------------------||
|---------------------------------|--------------------------||
|---------5---------------5-------|---------------7----------||
|-5-5-5-5---5-5-5-5-5-5-5---5-5-5-|-4-4-4-4-4-4-5---7--------||


   Verse 2
                                              D.S. al Coda
    S S S E. S S S E. S E.   S S S E. S S S E.  E  +S   S   4x
||-------------------------|--------------------------------||
||o------------------------|-0-4-0----0-4-0-----0--(0)-----o||
||o------------------------|-------------------14-(14)\----o||
||--5-5-5----5-5-5----5-7\-|-------------------12-(12)\-0---||


   Chorus 2
    &
    S S S S S S S S S S S S S S S S   S S S S S S S S S S S S S S S S
||----------------------------------|---------------------------------|
||o---------4---------------4-------|---------7---------------7-------|
||o-2-2-2-2---2-2-2-2-2-2-2---2-2-2-|-5-5-5-5---5-5-5-5-5-5-5---5-0-5-|
||----------------------------------|---------------------------------|


  S S S S S S S S S S S S S S S S   S S S S S S S S S S S S S S S S
|---------------------------------|----------------------------------||
|---------------------------------|---------------------------------o||
|---------5---------------5-------|---------------------7-----7-----o||
|-5-5-5-5---5-5-5-5-5-5-5---5-5-5-|-0-0-0-0-0-5-4-0-5-7---x-x---7-5--||


 Breakdown
  W          +W           +W           +W
|----------|------------|------------|--------|
|----------|------------|------------|--------|
|----------|------------|------------|--------|
|-0--------|-(0)--------|-(0)--------|-(0)----|


  S S  S  S E S S S S E S S E    S  S  S  S E  S  S  S  S E  S  S  S S
|-----------------------------|----------------------------------------|
|-------------5-5-4-0---------|----------------------------------------|
|-----------------------0-0---|--------------------------------------0-|
|-5h7-12h14-------------------|-12-12-12-11---14-14-12-11---12-12-12---|


  Q  Q  Q   Q     Q  Q  Q  e  E
|---------------|---------------|
|---------------|---------------|
|---------------|---------------|
|-5--7--9--12\--|-4--5--7--9-\0-|


  S S  S  S E S S S S E S S E   S S S S E S S S S E S S S S
|-----------------------------|-----------------------------|
|-------------5-5-4-0---------|-----------------------------|
|-----------------------0-0---|-5-5-5-4---7-7-5-4---5-5-5-0-|
|-5h7-12h14-------------------|-----------------------------|


  E S S E S S E S  S  Q     Q  Q  Q  e  E
|-------------------------|---------------|
|-------------------------|---------------|
|---5h7---7h9---9h10------|---------------|
|-5-----7-----9------12\--|-4--5--7--9-\0-|


  S S S S E S S S S E S S E   S S S S E S S S S E S S S S
|---------------------------|-----------------------------|
|-----------5-5-4-0---------|-----------------------------|
|-----5h7-------------0-0---|-5-5-5-4---7-7-5-4---5-5-5-0-|
|-5h7-----------------------|-----------------------------|


  Q  Q  Q   Q     Q  Q  Q  E  E
|---------------|---------------||
|---------------|---------------||
|---------------|----------7\---||
|-5--7--9--12\--|-4--5--7-------||


 Outro
 6/8
  S S S S E S S S S E   S S S S E S S S S S S   E E. S S S S S S S
|---------------------|-----------------------|--------------------|
|---------------------|-------------------0---|--------4-----------|
|---------------------|---------------0-4---0-|-2-2--2---2-2-2-2-0-|
|-5-5-5-5---5-5-5-5---|-5-5-5-5---5-5---------|--------------------|


  E E S S E E S S   S S S S E S S S S E   S S S S E S S S S S S
|-----------------|---------------------|-----------------------|
|---4-5p0---4-7p0-|-5-0-------5-0-------|-5-0---------------0---|
|-2-------2-------|-----5---------------|---------------0-4---0-|
|-----------------|-------5-------5-5---|-----5-5---5-5---------|


  S E E S E s S E   E E S S S S S S E   S S S S E S S S S E
|-----------------|-------------------|----------------------|
|---------4---0---|---4-0-5p0-7p0-0-4-|----------------------|
|-2-2-2-2---2---2-|-2-----------------|----------------------|
|-----------------|-------------------|-5-5-5-5---5-5-5-5----|


  S S S S E S S S S S S   E E. S S S S S S S   E E S S E E S S
|-----------------------|--------------------|-----------------|
|-------------------0---|--------4-----------|---4-5p0---4-7p0-|
|---------------0-4---0-|-2-2--2---2-2-2-2-0-|-2-------2-------|
|-5-5-5-5---5-5---------|--------------------|-----------------|


  S S S S E S S S S E   S S S S E S S S S S S
|---------------------|-----------------------|
|-5-0-------5-0-------|-5-0---------------0---|
|-----5---------------|---------------0-4---0-|
|-------5-------5-5---|-----5-5---5-5---------|


  S E E S E s S E   S E e S E S S S S
|-----------------|-------------------|
|---------4---0---|---4-5-5-7-5p4h5p4-|
|-2-2-2-2---2---2-|-2-----------------|
|-----------------|-------------------|


  S S S S S S S S S S S S   S S S S S S S S S S S S
|-------------------------|-------------------------|
|-------------------------|-------------------------|
|-------------------------|-------------4-5-5-5-5-5-|
|-5-5-5-5-5-5-5-5-5-5-5-5-|-4-4-4-4-4-4-------------|


  S S S S S S S S S S S S   S S S S S S S S S S S S
|-------------------------|-------------------------|
|-------------------------|-------------------------|
|-------5-----------5-----|-------5-----------------|
|-5p4p0-----0-5p4p0-----0-|-5p4p0-----0-4h7-5h7-4h7-|


  S S S S S S S S S S S S   S S S S S S S S S S S S
|-------------------------|-------------------------|
|-------------------------|-------------------------|
|-------------5-5---------|-------------------------|
|-5-5-5-5-5-5-----5-5-5-5-|-4-4-4-4-4-4-5-7-7-7-7-7-|


  S S S S S S S S S S S S   S S S S S S S S S S S S
|-------------------------|-------------------------|
|-------------------------|-------------------------|
|-------5-----------5-----|-------5-----------------|
|-5p4p0-----0-5p4p0-----0-|-5p4p0-----0-4h7-5h7-4h7-|


  S S S S S S S S S S S S   E E E E E S S   S S S S S S S S S S S S
|-------------------------|---------------|-------------------------|
|-------------------------|---------------|-------------7-5-4-------|
|-------------5-5---------|---4-5-7-5-4-5-|-------------------7-5-4-|
|-5-5-5-5-5-5-----5-5-5-5-|-4-------------|-5-5-5-5-5-5-------------|


  S S S S S S S S S S E   S S S S S S S S S S S S   S S S S S S S S S S S S
|-----------------------|-------------------------|--------------------------|
|-----------------------|-------------------------|--------------------------|
|-4-4---------5-5-4-----|-------------5-5---5-----|-------4-----4-5-5-5-5-5--|
|-----4-4-5-5---------4-|-5-5-5-5-5-5-----5---5-5-|-4-4-4---4-4--------------|


    S S S S S S S S S S S S   S S S S S S S S S S S S  4x S S S S H
||--------------------------|--------------------------||--------------*|
||o-------------------------|-------------------------o||--------------*|
||o-------5-----------5-----|-------5-----------------o||-------5------*|
||--5p4p0-----0-5p4p0-----0-|-5p4p0-----0-4h7-5h7-4h7--||-5p4p0--------*|

===============================================================================
 
 7.33(doobidoo)

 Intro
 Moderate Rock Q=85
 4/4
  Gtr I
  S S S S S S S S S S S S S S S S   S S S S S S S S S S S S S S S S
|---------------------------------|----------------------------------|
|-------------------3-----3-------|-------------------3-2-0---0------|
|-1-1---1-1---1-1-----1-1---1-1-1-|-1-1---1-1---1-1---------3---3-0--|
|---------------------------------|----------------------------------|


  S S S S S S S S S S S S S S S S   S S S S S S S S S S S S S S S S
|---------------------------------|---------------------------------|
|---------------------------------|---------------------------------|
|---------------------------------|---------------------------------|
|-4-4-4-4-4-4-4-4-4-4-4-4-4-4-4-4-|-4-4-4-4-4-4-4-4-4-4-4-4-4-4-4-4-|


  S S S S S S S S S S S S S S S S   S S S S S S S S S S S S S S S S
|---------------------------------|---------------------------------|
|-------------------3-----3-------|-------------------3-2-0---0-----|
|-1-1---1-1---1-1-----1-1---1-1-1-|-1-1---1-1---1-1---------3---3-0-|
|---------------------------------|---------------------------------|


  S S S S S S S S S S S S S S S S   S S S S S S S S S S S S S S S S
|---------------------------------|---------------------------------||
|---------------------------------|-----------------4-4-4-4---------||
|---------------------------------|-4-4-4-4-4-4-4-4---------4-4-4-4-||
|-4-4-4-4-4-4-4-4-4-4-4-4-4-4-4-4-|---------------------------------||


   Verse 1
    S S S S S S S S S S S S S S S S   S S S S S S S S S S S S S S S S
||----------------------------------|----------------------------------|
||o-------------------3-----3-------|-------------------3-2-0---0------|
||o-1-1---1-1---1-1-----1-1---1-1-1-|-1-1---1-1---1-1---------3---3-0--|
||----------------------------------|----------------------------------|


  S S S S S S S S S S S S S S S S   S S S S S S S S S S S S S S S S  3x
|---------------------------------|----------------------------------||
|---------------------------------|---------------------------------o||
|---------------------------------|---------------------------------o||
|-4-4-4-4-4-4-4-4-4-4-4-4-4-4-4-4-|-4-4-4-4-4-4-4-4-4-4-4-4-4-4-4-4--||


  S S S S S S S S S S S S S S S S   S S S S S S S S S S S S S S S S
|---------------------------------|---------------------------------|
|-------------------3-----3-------|-------------------3-2-0---0-----|
|-1-1---1-1---1-1-----1-1---1-1-1-|-1-1---1-1---1-1---------3---3-0-|
|---------------------------------|---------------------------------|


  S S S S S S S S S S S S S S S S   S S S S S S S S S S S S S S S S
|---------------------------------|---------------------------------||
|---------------------------------|-----------------4-4-4-4---------||
|---------------------------------|-4-4-4-4-4-4-4-4---------4-4-4-4-||
|-4-4-4-4-4-4-4-4-4-4-4-4-4-4-4-4-|---------------------------------||


 Chorus
  E E S S S E S S S S S S S   S S S S S S  S  S S S S S S S S S
|---------------------------|-----------------------------------|
|---6-6-4-3-----------------|-----------------------------------|
|-4-------------------------|-----------------------------------|
|-----------6-6-6-6-6-6-6-6-|-8-8---8-8---11-11---4-4---4-4-4-4-|


  E E S S S E S S S S S S S   Q  H    E E
|---------------------------|--------------||
|---6-6-4-3-3---------------|--------------||
|-4-------------------------|-----------9\-||
|-------------6-6-6-6-8-8-8-|-4------------||


   Verse 2
    S S S S S S S S S S S S S S S S   S S S S S S S S S S S S S S S S
||----------------------------------|----------------------------------|
||o-------------------3-----3-------|-------------------3-2-0---0------|
||o-1-1---1-1---1-1-----1-1---1-1-1-|-1-1---1-1---1-1---------3---3-0--|
||----------------------------------|----------------------------------|


  S S S S S S S S S S S S S S S S   S S S S S S S S S S S S S S S S
|---------------------------------|----------------------------------||
|---------------------------------|---------------------------------o||
|---------------------------------|---------------------------------o||
|-4-4-4-4-4-4-4-4-4-4-4-4-4-4-4-4-|-4-4-4-4-4-4-4-4-4-4-4-4-4-4-4-4--||


  E H..         H    S S S S S S S S
|-------------|----------------------|
|-------------|--------3-2-0---0-----|
|-1-----------|--------------3---3-0-|
|-------------|----------------------|


  S S S S S S S S S S S S S S S S   S S S S S S S S S S S S S S S S
|---------------------------------|---------------------------------||
|---------------------------------|---------------------------------||
|---------------------------------|---------------------------------||
|-4-4-4-4-4-4-4-4-4-4-4-4-4-4-4-4-|-4-4-4-4-4-4-4-4-4-4-4-4-4-4-4-4-||


 Chorus 2
  E E S S S E S S S S S S S   S S S S S S  S  S S S S S S S S S
|---------------------------|-----------------------------------|
|---6-6-4-3-----------------|-----------------------------------|
|-4-------------------------|-----------------------------------|
|-----------6-6-6-6-6-6-6-6-|-8-8---8-8---11-11---4-4---4-4-4-4-|


  E E S S S E S S S S S S S   S S S S S S S S S S S S S S S S
|---------------------------|---------------------------------|
|---6-6-4-3-----------------|---------------------------------|
|-4-------------------------|---------------------------------|
|-----------6-6-6-6-6-8-8-8-|-4-4-4-4-4-4-4-4-4-4-4-4-4-4-4-4-|


  E E S S S E S S S S S S S   S S S S S S  S  S S S S S S S S S
|---------------------------|-----------------------------------|
|---6-6-4-3-----------------|-----------------------------------|
|-4-------------------------|-----------------------------------|
|-----------6-6-6-6-6-6-6-6-|-8-8---8-8---11-11---4-4---4-4-4-4-|


  E E S S S E S S S S S S S   S S S S S S S S S S S S S S S S
|---------------------------|---------------------------------|
|---6-6-4-3-----------------|---------------------------------|
|-4-------------------------|---------------------------------|
|-----------6-6-6-6-6-8-8-8-|-4-4-4-4-4-4-4-4-4-4-4-4-4-4-4-4-|


  S S S S S S S S S S S S S S S S
|----------------------------------||
|----------------------------------||
|----------------------------------||
|-4-4-4-4-4-4-4-4-4-4-4-4-4-4-4-4--||


   Breakdown
    S S S S S S S S S S S S S E.   S S S S S S S S S S S S S S S S   3x
||-------------------------------|-----------------------------------||
||o------------------------------|----------------------------------o||
||o-4-4-4-3-3-3------------------|----------------------------------o||
||--------------6-6-6-8-8-8-3-3--|-4-4-4-4-4-4-4-4-4-4-4-4-4-4-4-4---||


  S S S S S S S S S S S S S E.   S S S S S S S S S S S S S S S S
|------------------------------|---------------------------------|
|------------------------------|-------------------------4-4-4-4-|
|-4-4-4-3-3-3------------------|---------------------------------|
|-------------6-6-6-8-8-8-3-3--|-4-4-4-4-4---4-4---4-4-----------|


  S S S S S S S S S S S S S S S S
|---------------------------------|
|-------------------------4-4-4-4-|
|---------------------------------|
|-4-4-4-4-4---4-4---4-4-----------|


  S S S S S S S S S S S S S S S S   S S S S H.
|---------------------------------|---------------||
|-------------------------4-4-4-4-|---------4-----||
|---------------------------------|---------------||
|-4-4-4-4-4---4-4---4-4-----------|-3-3h4h6-------||


   Out-Chorus
    E E S S S E S S S S S S S   S S S S S S  S  S S S S S S S S S
||----------------------------|-----------------------------------|
||o---6-6-4-3-----------------|-----------------------------------|
||o-4-------------------------|-----------------------------------|
||------------6-6-6-6-6-6-6-6-|-8-8---8-8---11-11---4-4---4-4-4-4-|


  E E S S S E S S S S S S S   S S S S S S S S S S S S S S S S
|---------------------------|----------------------------------||
|---6-6-4-3-----------------|---------------------------------o||
|-4-------------------------|---------------------------------o||
|-----------6-6-6-6-6-8-8-8-|-4-4-4-4-4-4-4-4-4-4-4-4-4-4-4-4--||


  E E S S S E S S S S S S S   S S S S S S  S  S S S S S S S S S
|---------------------------|-----------------------------------|
|---6-6-4-3-----------------|-----------------------------------|
|-4-------------------------|-----------------------------------|
|-----------6-6-6-6-6-6-6-6-|-8-8---8-8---11-11---4-4---4-4-4-4-|


  E E S S S E S S S S E.   W          +W           +W           +W
|------------------------|----------|------------|------------|--------*|
|---6-6-4-3--------------|----------|------------|------------|--------*|
|-4----------------------|----------|------------|------------|--------*|
|-----------6-6-6-6-6-8--|-4--------|-(4)--------|-(4)--------|-(4)----*|

===============================================================================

 8.Junesong Provision(doobidoo)

 Intro
  Moderate Rock Q=164
 1/4  4/4
                                                  Gtr I
  Q    W          W          W          H..       E
|----|----------|----------|----------|-------------|
|----|----------|----------|----------|-------------|
|----|----------|----------|----------|-------------|
|----|----------|----------|----------|-----------9-|


    +E  E E E E E E E   E E E E E E E E   E E E E E E E E   E E E E E E E E
||--------------------|-----------------|-----------------|------------------||
||o-------------------|-----------------|-----------------|-----------------o||
||o-------------------|-------------5---|---5---------5---|---------5-4-0---o||
||--(9)-9-0-0-0-0-4-4-|-4-5-5-5-7-7---7-|-7---5-5-5-5---7-|-5-5-5-5-------9--||


   Verse 1
    +E  E E E E E E E   E E E E E E E E   E E E E E E E E   E E E E E E E E  3x
||--------------------|-----------------|-----------------|------------------||
||o-------------------|-----------------|-----------------|-----------------o||
||o-------------------|-------------5---|---5---------5---|---------5-4-0---o||
||--(9)-9-9-0-0-0-4-4-|-4-5-5-5-7-7---7-|-7---5-5-5-5---7-|-5-5-5-5-------9--||


  E E E E E E E E   E E E E E E E E   E E E E E E E E
|-----------------|-----------------|-----------------|
|-----------------|-----------------|-----------------|
|-----------------|-------------5---|---5---------5---|
|-9-9-0-0-0-0-4-4-|-4-5-5-5-7-7---7-|-7---5-5-5-5---7-|


  E E E E E E E E   +W           +H..       E
|-----------------|------------|--------------||
|-----------------|------------|--------------||
|---------5-4-0---|------------|--------------||
|-5-5-5-5-------0-|-(0)--------|-(0)--------9-||


 Verse 2
  +E  E E E E E E E   E E E E E E E E   E E E E E E E E   E E E E E E E E
|-------------------|-----------------|-----------------|------------------|
|-------------------|-----------------|-----------------|------------------|
|-------------------|-------------5---|-----5-----------|---5-7-5-4-5-0----|
|-(9)-9-9-0-0-0-4-4-|-4-5-5-5-7-7---5-|-5-5---5-5-5-5-5-|-5-------------9--|


    +E  E E E E E E E   E E E E E E E E   E E E E E E E E   E E E E E E E E
||--------------------|-----------------|-----------------|------------------||
||o-------------------|-----------------|-----------------|-----------------o||
||o-------------------|-------------5---|-----5-----------|---5-7-5-4-5-0---o||
||--(9)-9-9-0-0-0-4-4-|-4-5-5-5-7-7---5-|-5-5---5-5-5-5-5-|-5-------------9--||


  E E E E E E E E   E E E E E E E E   E E E E E E E E
|-----------------|-----------------|-----------------|
|-----------------|-----------------|-----------------|
|-----------------|-------------5---|-----5-----------|
|-9-9-9-0-0-0-4-4-|-4-5-5-5-7-7---5-|-5-5---5-5-5-5-5-|


  E E E E E E E E   +W           +H.      E E   +W           +H..       E
|-----------------|------------|--------------|------------|----------------||
|-----------------|------------|--------------|------------|----------------||
|---5-7-5-7-4-0---|------------|------------7-|-(7)--------|-(7)------------||
|-5-------------0-|-(0)--------|-(0)------0---|------------|------------5---||


 Interlude
  +H..       E   +E  E E E E E E E   +E  E E E E E E E
|--------------|-------------------|-------------------|
|--------------|-------------------|-----5-----5-------|
|--------------|-----------0-----3-|-(3)---3-5---5---3-|
|-(5)--------4-|-(4)-4-4-5---5-4---|-------------------|


  +Q.   q  Q  E   +H..       E   +E  E E E E E E E
|---------------|--------------|-------------------|
|-------5--5----|--------------|-------------------|
|-(3)---------3-|-(3)--------2-|-(2)-2-2-3-5-3-2-3-|
|---------------|--------------|-------------------|


  E E E E E E E E   +Q.   q  Q  E   +H..       E
|-----------------|---------------|--------------|
|---5-----5-------|-------5--5----|--------------|
|-3---3-5---5---3-|-(3)-----------|--------------|
|-----------------|-------------5-|-(5)--------4-|


  +E  E E E E E E E   +E  E E E E E E E   +Q.   q  Q  E
|-------------------|-------------------|---------------|
|-------------------|-----5-----5-------|-------5--5----|
|-----------0-----3-|-(3)---3-5---5---3-|-(3)---------3-|
|-(4)-4-4-5---5-4---|-------------------|---------------|


  +H..       E   +E  E E E E E E E   +E  E E E E E E E
|--------------|-------------------|-------------------|
|--------------|-------------------|-----5-----5-------|
|-(3)--------2-|-(2)-2-2-3-5-3-2-3-|-(3)---3-5---5---3-|
|--------------|-------------------|-------------------|


  +Q.   q  Q  E   +H..       E   E E E E E E Q
|---------------|--------------|----------------||
|-------5--5----|--------------|---5-----5------||
|-(3)---------3-|-(3)--------3-|-----3-5---5----||
|---------------|--------------|----------------||


   Chorus
            |-3-|
    H.      E E E   H    E Q  E   E E Q  Q.   E   E E Q  H
||----------------|-------------|---------------|--------------||
||o---------------|-------------|---------------|-------------o||
||o-5-------5h7p5-|-------------|-----8--8------|-----8--8----o||
||----------------|-0----0-2--0-|-8-8---------8-|-8-8----------||


  W          E e Q  E  e Q    E E Q  Q.   E   E E Q  H
|----------|----------------|---------------|-------------|
|----------|----------------|---------------|-------------|
|-5--------|-5-7----8-10----|-----8--8------|-----8--8----|
|----------|----------------|-8-8---------8-|-8-8---------|


       |-3-| |-3-|
  H    E E E E E E   E E E E E E E E   E E E E E E E E   E E E E E E E E
|------------------|-----------------|-----------------|-------------------|
|------2-2-2-3-2-0-|-----------------|-----------------|-------------------|
|-5----------------|---------0-0-0-0-|---------8-8-8-8-|-8-8-----8-8-8-8---|
|------------------|-5-5-5-5---------|-8-8-8-8---------|-----8-8-----------|


  H.=H                          Slower Q=155
  E E E E E E E E   H    H      W
|-----------------|-----------|------|
|-----0-0---------|-----------|------|
|-----------------|-----------|------|
|-0-0-----0-0-0-0-|-5----7----|-8----|


  W          +W           +H     H
|----------|------------|--------------||
|----------|------------|--------------||
|----------|------------|--------------||
|-8--------|-(8)--------|-(8)----8\----||


 Bridge
  W          +W           +W
|----------|------------|--------|
|----------|------------|--------|
|----------|------------|--------|
|-0--------|-(0)--------|-(0)----|


  +W           +W           +H.      Q
|------------|------------|-------------|
|------------|------------|-------------|
|------------|------------|-------------|
|-(0)--------|-(0)--------|-(0)---------|


  E Q  E Q.   E   Q  Q  E E E E   E E E E Q.   E   E E E E E E E E
|-0-0--0-7----0-|-0--0--0-0-0-0-|----------------|-----7------------|
|---------------|----4----------|-4-4-4-4-4----4-|-4-4---4-4-4-4-4--|
|---------------|---------------|----------------|------------------|
|---------------|---------------|----------------|------------------|


  Q  E E E E E E   +E  Q  Q  Q  +E     Q  E E E E E E
|----------------|-------------------|----------------|
|----------------|-----0-------------|----------------|
|----5-4-5-5-5-7-|-(7)----4----------|----5-4-5-5-5-7-|
|-0--------------|-----------7--(7)\-|-0--------------|


  +E  Q  Q  Q.     Q  E E E E E E   +E  Q  Q  Q.
|----------------|--------------9-|-(9)-7--6-------|
|-----0----------|----7-7-7-7-7---|-----------7----|
|-(7)----4-------|----------------|----------------|
|-----------7----|-0--------------|----------------|


  E Q  E H      E Q  E H      E E E E Q.   E   E E E E E E E E
|-0-0--0-7----|-0-0--0-7----|----------------|------------------||
|-------------|-4-4--4------|-4-4-4-4-4----4-|-4-4-4-4-4-4-4-5--||
|-------------|-------------|----------------|------------------||
|-------------|-------------|----------------|------------------||


 Breakdown
  A Tempo Q=164
 6/8                         4/4
  E E E E E E   E E E E E E   Q  Q  Q  Q
|-------------|-------------|-------------|
|-------------|-------------|-------------|
|-------------|-------------|-------------|
|-5p4p0-7p4p0-|-0h4p0-0h4p0-|-4-----5-----|


   6/8
    E E E E E E   E E E E E E   E E E E E E   E E E E E E
||--------------|-------------|-------------|---------------||
||o-------------|-2-2---------|-------------|--------------o||
||o-------------|-------4-4---|-5-5---2-2---|-4-4---0-0----o||
||--5-5---5-5---|-------------|-----0-------|-----------0---||


  E E E E E E   E E E E E E   E E E E E E   E E E E E E
|-------------|-------------|-------------|-------------|
|-------4-4---|-------4-4---|-----4h5p4p0-|-------------|
|-2-2-2-----2-|-0-0-0-----0-|-------------|-------------|
|-------------|-------------|-5-5---------|-2-2-4h5p4p0-|


  E E E E E E   E E E E E E   E E E E E E   E E E E E E
|-------------|-------------|-------------|-------------|
|-------4-4---|-------4-4---|-----4---5p0-|-------------|
|-2-2-2-----2-|-0-0-0-----0-|-------------|-------------|
|-------------|-------------|-5-5---5-----|-2-2-4p0-5p0-|


    E E E E E E   E E E E E E   E E E E E E   E E E E E E
||--------------|-------------|-------------|--------------||
||o-------------|-2-2---------|-------------|-------------o||
||o-------------|-------4-4---|-5-5---2-2---|-4-4---0-0---o||
||--5-5---5-5---|-------------|-----0-------|-----------0--||


    E E E E E E   E E E E E E   E E E E E E   E E E E E E
||--------------|-------------|-------------|--------------||
||o-------4-4---|-------4-4---|-----4---5p0-|-------------o||
||o-2-2-2-----2-|-0-0-0-----0-|-------------|-------------o||
||--------------|-------------|-5-5---5-----|-2-2-4p0-5p0--||


    E E E E E E   E E E E E E   E E E E E E   E E E E E E
||--------------|-------------|-------------|--------------||
||o-------4-4---|-------4-4---|-----4h5p4p0-|-------------o||
||o-2-2-2-----2-|-0-0-0-----0-|-------------|-------------o||
||--------------|-------------|-5-5---------|-2-2-4p0-5p0--||


  E E E E E E   E E E E E E   E E E E E E   E E E E E E
|-------------|-------------|-------------|-------------||
|-------------|-2-2---------|-------------|-------------||
|-------------|-------4-4---|-5-5---2-2---|-4-4---0-0---||
|-5-5---5-5---|-------------|-----0-------|-----------0-||


 Interlude
  Wx7        E  H     E
|----------|------------||
|----------|------------||
|----------|------------||
|----------|---12\------||


   Outro
   4/4
    E E E E E E E E   E E E E E E Q    E E E E E E E E   E E E E E E E E
||------------------|----------------|-----------------|------------------|
||o-----------------|----------------|-----------------|------------------|
||o-0-0---0-0---0-0-|---0-0---0-0----|-3-3---3-3---2-2-|---2-2---2-2-2-2--|
||------------------|----------------|-----------------|------------------|


  E E E E E E E E   E E E E E E E E   E E E E E E E E   E E E E E E E E
|-----------------|-----------------|-----------------|------------------||
|-----------------|-----------------|-----------------|-----------------o||
|---3-3---3-3-3-3-|---3-3---3-3-3-3-|---3-3---3-3-3-3-|---3-3-0-3-5-5-5-o||
|-----------------|-----------------|-----------------|------------------||


  E E E E E E E E   E E E E E E E E   E E E E E E E E   E E E E E E E E
|-----------------|-----------------|-----------------|-----------------|
|-----------------|-----------------|-----------------|-----------------|
|-0-0-0-0-3-0-0-0-|-0-0-0-0-0-0-0-0-|-3-3-3-3-3-3-2-2-|-2-2-2-2-2-2-2-2-|
|-----------------|-----------------|-----------------|-----------------|


  E E E E E E E E   E E E E E E E E   E E E E E E E E   H.       Q
|-----------------|-----------------|-----------------|--------------|
|-----------------|-----------------|-----------------|--------------|
|---3-3---3-3-3-3-|---3-3---3-3-3-3-|---3-3---3-3-3-3-|--------------|
|-----------------|-----------------|-----------------|---------12\--|


    E E E E E E E E   E E E E E E E E   E E E E E E E E   E E E E E E E E
||------------------|-----------------|-----------------|------------------|
||o-------2---------|-2-------2-------|---5-----------4-|---------4--------|
||o-0-0-0---0-0-0-0-|---0-0-0---0-0-0-|-3---3-3-2-2-2---|-2-2-2-2---2-2-2--|
||------------------|-----------------|-----------------|------------------|


  E E E E E E E E   E E E E E E E E   E E E E E E E E   E E E E E E E E
|-----------------|-----------------|-----------------|------------------||
|-------5---------|-------5---------|-------5---------|-------5---------o||
|-3-3-3---3-3-3-3-|-3-3-3---3-3-3-3-|-3-3-3---3-3-3-3-|-3-3-3---3-3-3-3-o||
|-----------------|-----------------|-----------------|------------------||


  E E E E E E E E   E E E E E E E E   E E E E E E E E   E E E E E E E E
|-----------------|-----------------|-----------------|-----------------|
|-------2---------|-2-------2-------|---5-----------4-|---------4-------|
|-0-0-0---0-0-0-0-|---0-0-0---0-0-0-|-3---3-3-2-2-2---|-2-2-2-2---2-2-2-|
|-----------------|-----------------|-----------------|-----------------|


  E E E E E E E E   E E E E E E E E   E E E E E E E E   +E   H..
|-----------------|-----------------|-----------------|-------------*|
|-------5---------|-------5---------|-------5---------|-------------*|
|-3-3-3---3-3-3-3-|-3-3-3---3-3-3-3-|-3-3-3---3-3-3-3-|-(3)\--------*|
|-----------------|-----------------|-----------------|-------------*|

===============================================================================

 9.Neverender(doobidoo)

 Intro
  Fast Rock Q=80
 4/4
  Gtr I
  H..       S  S    S  S  S S  S S S S S  S  S S S  S  S  S
|----------------|------------------------------------------|
|----------------|------------------------------------------|
|-------------11-|-11-12-11---11---9-9-----------9-11-11-11-|
|----------------|----------9----9-----9-12-11-9------------|


    S S S S S S S S S S S S S S S S   S S S S S S S S S S S S S S S S
||----------------------------------|----------------------------------||
||o---------------------------------|---------------------------------o||
||o---------------------------------|---------------------------------o||
||--4-5---9-9---5-5---5-5---2-4-4-4-|-4-5---9-9---2-2---5-5---2-4-4-4--||


  S S H.      S T T   S S S S S S S S S S S S  E    E
|-------------------|-----------------------------------|
|-------------------|-----------------------------------|
|-4-----------------|------------------------------12\--|
|---4-----------2-2-|-2-2---2-2---2-4---4-4---12\-------|


    S S S S  S S  S  S S S S S S S S S   S S S S S S S S S S S S S S S S
||-------------------------------------|----------------------------------||
||o------------------------------------|---------------------------------o||
||o---------11-----------------7-------|---------------------4-----------o||
||--9-9-9-9----9-11-12-5-5-5-5---5-5-5-|-2-2-2-2-2-2-2-4-4-4-----4-4-5-7--||


 Verse
  S S S S  S S S S S S S S S S  S  S   S S S S S S S S S S S S S S S S
|------------------------------------|----------------------------------|
|------------------------------------|----------------------------------|
|---------11-------------------------|---------7------------------------|
|-9-9-9-9----9-9-9-9-9-9-9-9-9-11-12-|-5-5-5-5---5-5-5-5-5-4-4-2-2-4-4--|


  S S S S S S S S S S S S S S S S   S S S S S S S S S S S S  S  S  S  S
|---------------------------------|--------------------------------------|
|---------------------------------|--------------------------------------|
|---------------------------------|--------------------------------------|
|-5-5-5-5-5-5-5-5-5-5-5-5-2-2-4-4-|-7-7-7-7-7-7-7-7-9-9-9-9-12-12-12-12--|


    S S S S  S S S S S S S S  S S  S  S   S S S S S S S S S S S S S S S S
||--------------------------------------|---------------------------------|
||o-------------------------------------|---------------------------------|
||o---------11---------------11---------|---------7-----------------------|
||--9-9-9-9----9-9-9-9-9-9-9----9-11-12-|-5-5-5-5---5-5-5-5-5-4-4-2-2-4-4-|


  S S S S S S S S S S S S S S S S   S S S S S S S S S S S  S  S  S  S  S   3x
|---------------------------------|----------------------------------------||
|---------------------------------|---------------------------------------o||
|---------------------------------|-----------------------11--------------o||
|-5-5-5-5-5-5-5-5-5-5-5-5-2-2-4-4-|-7-7-7-7-7-7-7-7-9-9-9----12-12-12-12---||


 Chorus 1
  W          Q  H.
|----------|----------|
|----------|----------|
|-7--------|----7-----|
|----------|-5--------|


  H.       Q    Q.    S S H
|-------------|----------------|
|-------------|----------------|
|-------------|-2----h2-4p0----|
|-9-------12--|----------------|


  Q  H.        E E H.
|------------|-----------|
|----9-------|-----9-----|
|-7----------|---7-------|
|------------|-9---------|


  H.       Q    H    S S S S S S S S
|-------------|----------------------||
|-------------|----------------------||
|-------------|-2----0-0-0-0-0-0-0-0-||
|-9-------12--|----------------------||


 Interlude
  Q.    S  S S S S S S S S T T   S S S S S S S S S S  S  S S S S S
|------------------------------|------------------------------------|
|------------------------------|------------------------------------|
|--------------------7---------|----------------------4-------------|
|------11-12---5-5-----5---2-2-|-2-2---2-2---2-4---4-(4)---4-4-5-7--|


   Verse 2
    S S S S S S S S S S S S S S  S  S   S S S S S S S S S S S S S S S S
||------------------------------------|---------------------------------|
||o-----------------------------------|---------------------------------|
||o-----------------------------------|---------------------------------|
||--9-9-9-9-9-9-9-9-9-9-9-9-9-9-11-12-|-5-5-5-5-5-5-5-5-5-5-4-4-2-2-4-4-|


  S S S S S S S S S S S S S S S S   S S S S S S S S S S S  S  S  S  S  S
|---------------------------------|----------------------------------------||
|---------------------------------|---------------------------------------o||
|---------------------------------|-----------------------11--------------o||
|-5-5-5-5-5-5-5-5-5-5-5-5-2-2-4-4-|-7-7-7-7-7-7-7-7-9-9-9----12-12-12-12---||


    S S S S  S S S S S S  S S S S  S  S   S S S S S S S S S S S S S S S S
||--------------------------------------|---------------------------------|
||o-------------------------------------|---------------------------------|
||o---------11-----------11-------------|---------7-----------------------|
||--9-9-9-9----9-9-9-9-9----9-9-9-11-12-|-5-5-5-5---5-5-5-5-5-4-4-2-2-4-4-|


  S S S S S S S S S S S S S S S S   S S S S S S S S S S S  S  S  S  S  S
|---------------------------------|----------------------------------------||
|---------------------------------|---------------------------------------o||
|---------------------------------|-----------------------11--------------o||
|-5-5-5-5-5-5-5-5-5-5-5-5-2-2-4-4-|-7-7-7-7-7-7-7-7-9-9-9----12-12-12-12---||


 Chorus 2
  W          W
|----------|------|
|----------|------|
|-7--------|------|
|----------|-5----|


  H.       Q    Q.    S S Q  E S S
|-------------|--------------------|
|-------------|--------------------|
|-------------|-2----h2-4p0----0-0-|
|-9-------12--|--------------------|


  Q  H.        E E H.
|------------|-----------|
|----9-------|-----9-----|
|-7----------|---7-------|
|------------|-9---------|


  H.       Q    S S S S S S S S S S S S S S S S
|-------------|---------------------------------||
|-------------|---------------------------------||
|-------------|-0-0-0-0-0-0-0-0-0-0-0-0-0-0-0-0-||
|-9-------12--|---------------------------------||


   Breakdown
     S  S  S  S  S  S  S  S S S S S S S S S
||------------------------------------------|
||o-----------------------------------------|
||o-----------------------------------------|
||--16-16-16-16-16-16-16-16-0-0-0-0-0-0-0-0-|


  S S S S S S S S S S S S S S S S
|----------------------------------||
|---------------------------------o||
|---------------------------------o||
|-5-5-5-5-5-5-5-5-5-5-5-5-5-5-5-5--||


   E  E  S  S  S  S  S  S  S  S  S  S  S  S   S S S S S S S S S S S S S S S S
|-------------------------------------------|----------------------------------|
|-------------------------------------------|----------------------------------|
|-------------------------------------------|----------------------------------|
|-16-16-16-16-16-16-19-19-19-19-19-19-19-19-|-5-5-5-5-5-5-5-5-5-5-5-5-5-5-5-5--|


   S  S  S  S  S  S  S  S S S S S S S S S   S S S S S S S S S S S S S S S S
|-----------------------------------------|----------------------------------||
|-----------------------------------------|----------------------------------||
|-----------------------------------------|----------------------------------||
|-16-16-16-16-16-16-16-16-0-0-0-0-0-0-0-0-|-5-5-5-5-5-5-5-5-5-5-5-5-5-5-5-5--||


 Interlude
  H..       S  S    S  S  S S  S S S S S  S  S S S  S  S  S
|----------------|------------------------------------------|
|----------------|------------------------------------------|
|-------------11-|-11-12-11---11---9-9-----------9-11-11-11-|
|----------------|----------9----9-----9-12-11-9------------|


    S S S S S S S S S S S S S S S S   S S S S S S S S S S S S S S S S
||----------------------------------|----------------------------------||
||o---------------------------------|---------------------------------o||
||o---------------------------------|---------------------------------o||
||--4-5---9-9---5-5---5-5---2-4-4-4-|-4-5---9-9---5-5---5-5---2-4-4-4--||


     S S S S S S  S  S S S S S S S S T T   S S S S S S S S S S S S S S S S
||---------------------------------------|-----------------------------------||
||o--------------------------------------|----------------------------------o||
||o-11-------------------------7---------|----------------------------------o||
||-----9---9-9---11-12---5-5-----5---2-2-|-2-2---2-2---2-4---4-4---4-4-5-7---||


    S S S S  S S  S  S S S S S S S S S   S S S S S S S S S S S S S S S S
||-------------------------------------|----------------------------------||
||o------------------------------------|---------------------------------o||
||o---------11-----------------7-------|---------------------4-----------o||
||--9-9-9-9----9-11-12-5-5-5-5---5-5-5-|-2-2-2-2-2-2-2-4-4-4-----4-4-5-7--||


 Chorus 3
  W          E E E E H
|----------|--------------|
|----------|-----9--------|
|-7--------|---7---7------|
|----------|-9-------5----|


  H.       Q    Q.    S S Q  S S S S
|-------------|----------------------|
|-------------|----------------------|
|-------------|-2----h2-4p0----0-2-4-|
|-9-------12--|----------------------|


  Q  H.        E E E E H
|------------|--------------|
|----9-------|-----9--------|
|-7----------|---7---7------|
|------------|-9-------9----|


  H.       Q    S S S S S S S S S S S S S S S S
|-------------|---------------------------------||
|-------------|---------------------------------||
|-------------|-0-0-0-0-0-0-0-0-0-0-0-0-0-0-0-0-||
|-9-------12--|---------------------------------||


   Outro
     S  S  S  S  S  S  S  S S S S S S S S S
||------------------------------------------|
||o-----------------------------------------|
||o-----------------------------------------|
||--16-16-16-16-16-16-16-16-0-0-0-0-0-0-0-0-|


  S S S S S S S S S S S S S S S S  4x
|----------------------------------||
|---------------------------------o||
|---------------------------------o||
|-5-5-5-5-5-5-5-5-5-5-5-5-5-5-5-5--||


     E  E  S  S  S  S  S  S  S  S  S  S  S  S
||--------------------------------------------|
||o-------------------------------------------|
||o-------------------------------------------|
||--16-16-16-16-16-16-19-19-19-19-19-19-19-19-|


  S S S S S S S S S S S S S S S S
|----------------------------------||
|---------------------------------o||
|---------------------------------o||
|-5-5-5-5-5-5-5-5-5-5-5-5-5-5-5-5--||


   E  E Q   E  E Q    S S S S S S S S S S S S S S S S
|-------------------|---------------------------------|
|-------------------|---------------------------------|
|-------------------|---------------------------------|
|-16-16----19-19----|-5-5-5-5-5-5-5-5-5-5-5-5-5-5-5-5-|


     S  S  S  S  S  S  S  S S S S S S S S S
||------------------------------------------|
||o-----------------------------------------|
||o-----------------------------------------|
||--16-16-16-16-16-16-16-16-0-0-0-0-0-0-0-0-|


  S S S S S S S S S S S S S S S S
|----------------------------------||
|---------------------------------o||
|---------------------------------o||
|-5-5-5-5-5-5-5-5-5-5-5-5-5-5-5-5--||

===============================================================================

 10.God Send Conspirator(choke383)

 0:05
G|---------------------------------------------------------|
D|---------------------------------------------------5-----|
A|3h5---5h7------------5h7--7--5----5--5h7-5\3-2h33----33--|
E|---5p3---0--2-33--5h7----------7-------------------------|

|----------------------------------------------------------|
|-------------------------------------------4-55-----------|
|-55-33--3--3-33--55-577------------5h7--7-----------5h7---|
|-------------------7---0--2-33--5h7--------------5h7------|

|------------------------------------------------------------------------|
|------------------------------------------------------------------------|
|-3--3-33--55-33--3--3-33--55-577------------5h7-----------5h7-5\3-2h33--|
|----------------------------7---0--2-33--5h7-----0--2-33----------------|

|------------------(4)/5--------------------------------------------|
|-5--------------5-------5---------------------------4-55-----------|
|---33--55-33--3-----------55-577------------5h7--7-----------5h7---|
|----------------------------7---0--2-33--5h7--------------5h7------|

|--------------------------------------------------------------------|
|---5------------------------------------------------4-55------------|
|3----33--55-33--3--3-33--55-55h7------------5h7--7--------5h7-5\3---|
|---------------------------7----0--2-33--5h7----------------------3-|


1:06
G|----------------------------------------------------------------------|
D|---------------------------------------543-----543-4444444444444444---|
A|------5---------5-----------55-3--33333---33333-----------------------|
E|-33-3---3--33-3---3--00-0---------------------------------------------|

G|-----------------------------------------------------------------------------|
D|-------77----------77--------------------------543-----543-4444444444444444--|
A|----55----55----55----55-------5----55-3--33333---33333----------------------|
E|-33----------33-----------33-3---3-------------------------------------------|

G|-------------------------------------|
D|-------------------------------------|
A|------------------55533322333222-----|
E|-0000000000000000---------------33---|


1:36
G|-------------------------------------------------------------------------|
D|-------5-----------------------------------------------------------------|
A|-33-3----33--55-33--3--3-33-3h5---5h7------------------------------------|
E|-------------------------------5p3---0-00-2-22-3-33-2-22-0-00-2-22-3-33--|

G|---------------------------------------------------------------------|
D|------------5--------------------------------------------------------|
A|----5h7--3----33--55-33--3--3-33--55-577------------5h7--7--5----5---|
E|-5h7--------------------------------7---0--2-33--5h7----------7------|

G|----------------------------------------------------------------------|
D|---------------5-----------------------------------------------4-55---|
A|-5h7-5\3-2h33----33--55-33--3--3-33--55-577------------5h7--7---------|
E|----------------------------------------7---0--2-33--5h7--------------|

G|----------------------------------------------------------------------|
D|---------------5-----------------------------------------------4-55---|
A|-5h7-5\3-2h33----33--55-33--3--3-33--55-577------------5h7--7---------|
E|----------------------------------------7---0--2-33--5h7--------------|


2:29
G|----------------------------------------------------------------------|
D|---------------------------------------543-----543-4444444444444444---|
A|------5---------5-----------55-3--33333---33333-----------------------|
E|-33-3---3--33-3---3--00-0---------------------------------------------|

G|-----------------------------------------------------------------------------|
D|-------77----------77--------------------------543-----543-4444444444444444--|
A|----55----55----55----55-------5----55-3--33333---33333----------------------|
E|-33----------33-----------33-3---3-------------------------------------------|


2:54
G|------------------------------------------------------------------------|
D|------------------------------------------------------------------------|
A|-33-33-3-33-33-3-33-33-3-3/555-5/777--5-555-555-555-555-555-555-555-55--|
E|------------------------------------------------------------------------|x3


3:32 «Dear Mariah come sleep in your own»
G|---------------------|
D|---------------------|
A|----3----------------|
E|-3----33----3/5--3---|x3

G|-----|
D|-----|
A|-----|
E|-3---|


3:54«When eye meets eye»
G|------------------------------------------------------------------------|
D|----5-----------------------45775544------------------------------------|
A|-23--33333/55533333/55555555-------------------------55-55-55-54-44-5---|
E|------------------------------------3333333333333333-----------------5--|x6 

===============================================================================
comments
We did not receive enough feedback on this tab! Please rate:
print report bad tab
1 2 3 4 5
I want to post or [tab]
guest
You may want to rate the tab now too:
select rating
Please do not post tabs as comments. Select "correction" instead!