Oops, an error
Loading. Please wait.

Welcome Home Acoustic Tab

90,166 views 133 this week
7 commentsread comments
1 2 3 4 5
accurate
x 10
add to favorites launch autoscroll
font size
0
reset
Autoscroll
+/-
esc
set tempo
stop
Contributor
Difficulty
intermediate
WARNING: You are trying to view
                                    content from Ultimate-Guitar.com
                                    in an unauthorized application,
                                    which is prohibited.

                                    Please use an official Ultimate
                                    Guitar Tabs application for iPhone,
                                    iPad or Android to access legitimate
                                    chords, guitar, bass, and drum tabs
                                    from Ultimate-Guitar.com database.

                                    Type "ultimate guitar tabs" in Apple
                                    App Store's or Android Market's
                                    search to find the application.
Well here you have the acuostic tab fore welcome home.Don't know if the solo is right 
still there you go Welcome Home Acustic Version by Coheed and Cambria 100% right (Don't 
if the solo is right)WOOOOOOOOOOOOOOOOOOOOOOOOOOOOOOOOOOOOOOOOOOOOOOO NOW START PLAYING!





Welcome Home (Acoustic)

e|----------------------------------------------------------------------|
B|----------------------------------------------------------------------|
G|o------------7v----------------------------------7v----------------o--|
D|o-------9-10---10-9-7--7-10-9-7-------------9-10---10-9-4-7-5-4-------|o
A|------7-------------------------10-9------7-------------5-9-7-5-------|
E|--0-0---------------------------------0-0-----------------------------|

e|----------------------------------------------------------------------|
B|----------------------------------------------------------------------|
G|o------------7v----------------------------------7v----------------o--|
D|o-------9-10---10-9-7--7-10-9-7-------------9-10---10-9-4-7-5-4-------|o
A|------7-------------------------10-9------7-------------5-9-7-5-------|
E|--0-0---------------------------------0-0-----------------------------|


e|----------------------------------------------------------------------|
B|----------------------------------------------------------------------|
G|----------------------------------------------------------------------|
D|-2-----------------------------------2-----------------4-7-5-4--------|
A|-2-----------------------------------2-----------------5-9-7-5--------|
E|-0-----------------------------------0--------------------------------|

e|----------------------------------------------------------------------|
B|----------------------------------------------------------------------|
G|----------------------------------------------------------------------|
D|-2----------0h2p0h2p0h2p0h2----------2-----------------4-7-5-4--------|
A|-2-----------------------------------2-----------------5-9-7-5--------|
E|-0-----------------------------------0--------------------------------|

e|--------------------------------------------------------------|
B|--------------------------------------------------------------|
G|--------------------------------------------------------------|
D|---------------------------------7-----------------7----------|
A|-----9-10-9-----9-10-9----7-9-10---10-9-7---7-9-10---10-9-7---|
E|-0-0--------0-0-----------------------------------------------|

e|--------------------------------------------------------------|
B|--------------------------------------------------------------|
G|--------------------------------------------------------------|
D|---------------------------------7-----------------7----------|
A|-----9-10-9-----9-10-9----7-9-10---10-9-7---7-9-10---10-9-7---|
E|-0-0--------0-0-----------------------------------------------|



e|----------------------------------------------------------------------|
B|----------------------------------------------------------------------|
G|o------------7v----------------------------------7v----------------o--|
D|o-------9-10---10-9-7--7-10-9-7-------------9-10---10-9-4-7-5-4-------|o
A|------7-------------------------10-9------7-------------5-9-7-5-------|
E|--0-0---------------------------------0-0-----------------------------|

e|----------------------------------------------------------------------|
B|----------------------------------------------------------------------|
G|o------------7v----------------------------------7v----------------o--|
D|o-------9-10---10-9-7--7-10-9-7-------------9-10---10-9-4-7-5-4-------|o
A|------7-------------------------10-9------7-------------5-9-7-5-------|
E|--0-0---------------------------------0-0-----------------------------|

e|--------------------------------------------------------------|
B|--------------------------------------------------------------|
G|--------------------------------------------------------------|
D|---------------------------------7-----------------7----------|
A|-----9-10-9-----9-10-9----7-9-10---10-9-7---7-9-10---10-9-7---|
E|-0-0--------0-0-----------------------------------------------|

e|--------------------------------------------------------------|
B|--------------------------------------------------------------|
G|--------------------------------------------------------------|
D|---------------------------------7-----------------7----------|
A|-----9-10-9-----9-10-9----7-9-10---10-9-7---7-9-10---10-9-7---|
E|-0-0--------0-0-----------------------------------------------|

e|--------------------------------------------------------------|
B|--------------------------------------------------------------|
G|--------------------------7-7-7-------------------------------|
D|-9-9-9-(x4)-10-10-10-(x4)-x-x-x-(x4)-9-9-9-(x2) 9-9-9-9-9-7---|
A|-7-7-7------7--7--7-------7-7-7------7-7-7------7-7-7-7-7-5---|
E|--------------------------------------------------------------|

e|--------------------------------------------------------------|
B|--------------------------------------------------------------|
G|--------------------------7-7-7-------------------------------|
D|-9-9-9-(x4)-10-10-10-(x4)-x-x-x-(x4)-9-9-9-(x2) 9-9-9-9-9-7---|
A|-7-7-7------7--7--7-------7-7-7------7-7-7------7-7-7-7-7-5---|
E|--------------------------------------------------------------|

e|---------------------------------------------------|
B|---------------------------------------------------|
G|---------------------------------------------------|
D|------------------------------9-10-9-7-------------|
A|-----9-10-9-7---9---(x2)---------------10-9-7-(x2)-|
E|-0-0----------7---7-------0-0----------------------|

e|---------------------------------------------------|
B|---------------------------------------------------|
G|---------------------------------------------------|
D|------------------------------9-10-9-7-------------|
A|-----9-10-9-7---9---(x2)---------------10-9-7-(x2)-|
E|-0-0----------7---7-------0-0----------------------|

e|---------------------------------------------------|
B|---------------------------------------------------|
G|---------------------------------------------------|
D|------------------------------9-10-9-7-------------|
A|-----9-10-9-7---9---(x2)---------------10-9-7-(x2)-|
E|-0-0----------7---7-------0-0----------------------|

e|---------------------------------------------------|
B|----------------------------------1------------1---|
G|-------2*-------------------------2------------0---|
D|-3-3-3----(x3)-3-3-3--3-3--3------2------------2---|
A|-3-3-3---------3-3-3--3-3--3------0------------3---|
E|-1-1-1---------1-1-1--1-1--1-----------------------|

e|---------------------------------------------------|
B|----------------------------------1------------1---|
G|-------2*-------------------------2------------0---|
D|-3-3-3----(x3)-3-3-3--3-3--3------2------------2---|
A|-3-3-3---------3-3-3--3-3--3------0------------3---|
E|-1-1-1---------1-1-1--1-1--1-----------------------|

e|--------------------------------------------------------------|
B|--------------------------------------------------------------|
G|--------------------------7-7-7-------------------------------|
D|-9-9-9-(x4)-10-10-10-(x4)-x-x-x-(x4)-9-9-9-(x2) 9-9-9-9-9-7---|
A|-7-7-7------7--7--7-------7-7-7------7-7-7------7-7-7-7-7-5---|
E|--------------------------------------------------------------|

e|--------------------------------------------------------------|
B|--------------------------------------------------------------|
G|--------------------------7-7-7-------------------------------|
D|-9-9-9-(x4)-10-10-10-(x4)-x-x-x-(x4)-9-9-9-(x2) 9-9-9-9-9-7---|
A|-7-7-7------7--7--7-------7-7-7------7-7-7------7-7-7-7-7-5---|
E|--------------------------------------------------------------|




e|---------------------------------------------------|
B|---------------------------------------------------|
G|---------------------------------------------------|
D|------------------------------9-10-9-7-------------|
A|-----9-10-9-7---9---(x2)---------------10-9-7-(x2)-|
E|-0-0----------7---7-------0-0----------------------|

e|---------------------------------------------------|
B|---------------------------------------------------|
G|---------------------------------------------------|
D|------------------------------9-10-9-7-------------|
A|-----9-10-9-7---9---(x2)---------------10-9-7-(x2)-|
E|-0-0----------7---7-------0-0----------------------|

e|---------------------------------------------------|
B|----------------------------------1------------1---|
G|-------2*-------------------------2------------0---|
D|-3-3-3----(x3)-3-3-3--3-3--3------2------------2---|
A|-3-3-3---------3-3-3--3-3--3------0------------3---|
E|-1-1-1---------1-1-1--1-1--1-----------------------|

e|---------------------------------------------------|
B|----------------------------------1------------1---|
G|-------2*-------------------------2------------0---|
D|-3-3-3----(x3)-3-3-3--3-3--3------2------------2---|
A|-3-3-3---------3-3-3--3-3--3------0------------3---|
E|-1-1-1---------1-1-1--1-1--1-----------------------|

e|--------------8------------8--------8-----12----8-----12---|
B|-------10-----------10-------------------------------------|
G|-----------------------------------------------------------|
D|--------------------------------7-7---7-7---7-7---7-7------|
A|----8-8---8-8---8-8---8-8----------------------------------|
E|-----------------------------------------------------------|

e|--------------8------------8--------8-----12----8-----12---|
B|-------10-----------10-------------------------------------|
G|-----------------------------------------------------------|
D|--------------------------------7-7---7-7---7-7---7-7------|
A|----8-8---8-8---8-8---8-8----------------------------------|
E|-----------------------------------------------------------|



SOLO

|--------------------------------------------------------|
|--------------------------------------------------------|
|---16p14p12-16p14p12-16p14p12-16p14p12-16p14p12-16p14p12|
|--------------------------------------------------------|
|--------------------------------------------------------|
|--------------------------------------------------------|

|-----18b-17-15-15b-12-12-----------------|
|-15b-----------------------------17-19^--|
|--------------------------/16-19---------|
|-----------------------------------------|
|-----------------------------------------|
|-----------------------------------------|

|---17-17-12---15-15-12---14-14-10---12-12-8-7h8p7----7---------------|
|--------------------------------------------------10---8-10-12/------|
|-----------------------------------------------------------------/9--|
|---------------------------------------------------------------------|
|---------------------------------------------------------------------|
|---------------------------------------------------------------------|


|----------------------------------15^--15^-------------------|
|-------17-16^--16^----------15h17----------------------------|
|-14-16-------------16p14h16-------------------------9--12*^--|
|-------------------------------------------9-10-12-----------|
|-------------------------------------------------------------|
|-------------------------------------------------------------|
                                            .  .  .  .

|------------------------------------------------------------|
|------------------------------------------------------------|
|---------16-------14----------------------------------------|
|--14/16-----17-14----17-16-12---0-2-4h5p4p2p0--2-4-5--4p2p0-|
|------------------------------------------------------------|
|------------------------------------------------------------|

|----------7h8h10p8p10-------------------------------------|
|-7h8h10---------------10-8-7-8-7h8p7-7--------------------|
|------------------------------------------9^------9^------|
|----------------------------------------------9-------9---|
|----------------------------------------------------------|
|----------------------------------------------------------|

|---19^-17-15----17p15------------------------------|
|----------------------17-17---17p15----------------|
|------------------------------------16-16---16p14--|
|---------------------------------------------------|
|---------------------------------------------------|
|---------------------------------------------------|

|-----------------------------------------------------|
|-----------------------------------------------------|
|----11---11-11--11-12---12-12---12-14--14-14--14-16--|
|----x----x--x---x--x----x--x----x--x---x--x---x--x---|
|--7/9----9--9---9/-10---10-10---10/12--12-12--12/14--|
|-----------------------------------------------------|


|--------------------------------------------------------------|
|--------------------------------------------------------------|
|-------2-4-5-7-9-9*^-9p7-7*^--4-4h5p4-------------------------|
|-0-2-5--------------------------------7p5h7-7-8-7^-7h5-5h7p5~-|
|--------------------------------------------------------------|
|--------------------------------------------------------------|

|------3-7-3---5-------7b--10------------------------|
|--3-5-------5----8-10--------10b---8-7-8-7-5-7h8p7~-|
|----------------------------------------------------|
|----------------------------------------------------|
|----------------------------------------------------|
|----------------------------------------------------|


|--------------------------------------------|
|---7p5p0-8p5p0-12p8p0-13p8p0-12p8p0-8p5p0-7-|
|-4------------------------------------------|
|--------------------------------------------|
|--------------------------------------------|
|--------------------------------------------|

|-----------------------------------------------|
|---7p5p0-8p5p0-12p8p0-13p8p0-12p8p0-8p5p0-7----|
|-5---------------------------------------------|
|-----------------------------------------------|
|-----------------------------------------------|
|-----------------------------------------------|

|-----------------------------------------------|
|---7p5p0-8p5p0-12p8p0-13p8p0-15p12p0-13p8p0-12-|
|-7---------------------------------------------|
|-----------------------------------------------|
|-----------------------------------------------|
|-----------------------------------------------|

|---------3-------3-------3-|
|---5p3p0---5p3p0---5p3p0---|
|/4-------------------------|
|---------------------------|
|---------------------------|
|---------------------------|





e|--------------------------------------------------------------|
B|--------------------------------------------------------------|
G|--------------------------7-7-7-------------------------------|
D|-9-9-9-(x4)-10-10-10-(x4)-x-x-x-(x4)-9-9-9-(x2) 9-9-9-9-9-7---|
A|-7-7-7------7--7--7-------7-7-7------7-7-7------7-7-7-7-7-5---|
E|--------------------------------------------------------------|


e|--------------------------------------------------------------|
B|--------------------------------------------------------------|
G|--------------------------7-7-7-------------------------------|
D|-9-9-9-(x4)-10-10-10-(x4)-x-x-x-(x4)-9-9-9-(x2) 9-9-9-9-9-7---|
A|-7-7-7------7--7--7-------7-7-7------7-7-7------7-7-7-7-7-5---|
E|--------------------------------------------------------------|
comments
print report bad tab
7 comments total. Showing first comments.
+1 reply
Bubbles516 wrote on June 25 2008, 11:39 am

Really good tab. But its not perfect.
Keep it up.

+1 reply
welby wrote on June 25 2008, 01:31 pm

great job
on the tab man
almost perfect.

-2 reply
ligerb wrote on June 28 2008, 10:36 pm

hey man can i suggest somthing to ya in this tab i think were you have
-475-
-597-

i found it sounds better if you go
-477-
-595-

I want to post or [tab]
guest
You may want to rate the tab now too:
select rating
Please do not post tabs as comments. Select "correction" instead!