Oops, an error
Loading. Please wait.

Welcome Home Bass Tab

ver3
9,825 views 3 this week
5 commentsread comments
1 2 3 4 5
accurate
x 8
Autoscroll
+/-
esc
set tempo
stop
Contributor
Difficulty
novice
Hey! There's an official Ultimate Guitar app which is ideal
for learning songs when you're away from computer. Get the app
WARNING: You are trying to view
                                    content from Ultimate-Guitar.com
                                    in an unauthorized application,
                                    which is prohibited.

                                    Please use an official Ultimate
                                    Guitar Tabs application for iPhone,
                                    iPad or Android to access legitimate
                                    chords, guitar, bass, and drum tabs
                                    from Ultimate-Guitar.com database.

                                    Type "ultimate guitar tabs" in Apple
                                    App Store's or Android Market's
                                    search to find the application.
ANGRY BEAVER BASS TABS

                             WELCOME HOME (Bassline)
                        As recorded by Coheed and Cambria
(From the 2005 Album GOOD APOLLO, I'M BURNING STAR IV - VOLUME ONE: FROM FEAR THROUGH THE EYES OF MADNESS)

Words by Claudio Sanchez
Music by Coheed and Cambria


Gtr I (Eb Ab Db Gb) - 'elec.'
Gtr II (Eb Ab Db Gb Bb Eb) - 'strings arr. for gtr.'

 Intro
  Moderately Slow Rock Q=154
 2/2
  Gtr I
  Wx8
|--------|
|--------|
|--------|
|--------|


  W          +W           q  H.        q  q  q  Q
|----------|------------|------------|--------------|
|----------|------------|------------|--------------|
|----------|------------|------------|-5--9--7--5\--|
|-0--------|-(0)--------|-0----------|--------------|


  W          +W           q  H.        q  q  q  Q
|----------|------------|------------|--------------|
|----------|------------|------------|--------------|
|----------|------------|------------|-5--9--7--5\--|
|-0--------|-(0)--------|-0----------|--------------|


     E  E  E E  q   q     E  E  E E  q   q
||---------------------|--------------------|
||o--------------------|--------------------|
||o--------------------|--------------------|
||---0--0--0----0---0--|--0--0--0----0---0--|
|
|   Gtr II
|    E  E  E E  E E Q     E  E  E E  E E Q
||---------------------|--------------------|
||o-12-12-12-----------|-12-12-12-----------|
||---------------------|--------------------|
||---4--4--4----4------|--4--4--4----4------|
||o--7--7--9---10---9--|--7--7--9---10---9--|
||---------------------|--------------------|


   E  E  E E  E E q     E  E  E E  E E q
|--------------------|----------------------||
|--------------------|---------------------o||
|--------------------|---------------------o||
|--0--0--0-0--0-0-0--|--0--0--0-0--0-0-0----||
|
|  E  E  E E  E E Q     E  E  E E  E E Q
|----15-15-----------|----------------------||
|-12-12-12-----------|-12-13-12------------o||
|--------------------|----------------------||
|--4--4--4-7--4------|--4--4--4-7--4--------||
|--7--9-10-9-10-9-7--|--7--9-10-9-10-9-7---o||
|--------------------|----------------------||


                               ~~
  q  q  q  Q    H.      E E    H     +H        q  q  q  Q
|-------------|-------------|----------------|--------------|
|-------------|-------------|----------------|--------------|
|-------------|-------------|----------------|-5--9--7--5\--|
|-0--0--0-----|-----------0-|-12----(12)\----|--------------|


  W          +H.      +E  E    H     Q.   S S   q  q  q  Q
|----------|----------------|-----------------|--------------|
|----------|----------------|-----------------|--------------|
|----------|----------------|-----------------|-5--9--7--5\--|
|-0--------|-(0)------(0)-0-|-12\---------0-0-|--------------|


     E  E  E E  q    q     E  E  E E  q    q
||----------------------|---------------------|
||o---------------------|---------------------|
||o---------------------|---------------------|
||---0--0--0----0----0--|--0--0--0----0----0--|
|
|   Gtr II
|    E  E  E E  E E  Q     E  E  E E  E E  Q
||----------------------|---------------------|
||o-12-12-12------------|-12-12-12------------|
||---9--9-11---12---11--|--9--9-11---12---11--|
||---4--4--4----4-------|--4--4--4----4-------|
||o--7--7--9---10----9--|--7--7--9---10----9--|
||----------------------|---------------------|


   E  E  E  E  E  E q     E  E  E  E  E  E q
|----------------------|------------------------||
|----------------------|-----------------------o||
|----------------------|-----------------------o||
|--0--0--0--0--0--0-0--|--0--0--0--0--0--0-0----||
|
|  E  E  E  E  E  E Q     E  E  E  E  E  E Q
|----15-15-------------|------------------------||
|-12-12-12-------------|-12-13-12--------------o||
|--9-11-12-14-12-11-9--|--9-11-12-14-12-11-9----||
|--4--4--4--7--4-------|--4--4--4--7--4---------||
|--7--9-10--9-10--9-7--|--7--9-10--9-10--9-7---o||
|----------------------|------------------------||


   Verse
    E E E E  E E E E   E E E E  E E E E
||-------------------|------------------|
||o------------------|------------------|
||o------------------|------------------|
||--0-0-0----0-0-0---|-0-0-0----0-0-0---|
|
|   E E E E  E E E E   E E E E  E E E E
||-------------------|------------------|
||o---------12-------|---------12-------|
||-------------------|------------------|
||--9-9-9----9-9-9---|-9-9-9----9-9-9---|
||o-7-7-7----7-7-7---|-7-7-7----7-7-7---|
||-------------------|------------------|


   E  E  E E  E  E  E E    E  E  E E  E  E  E E
|-----------------------|------------------------|
|-----------------------|------------------------|
|-----------------------|------------------------|
|--0--0--0----0--0--0---|--0--0--0----0--0--0----|
|
|  E  E  E E  E  E  E E    E  E  E E  E  E  E E
|-----------------------|------------------------|
|------------13---------|------------13----------|
|-----------------------|------------------------|
|-10-10-10---10-10-10---|-10-10-10---10-10-10----|
|--7--7--7----7--7--7---|--7--7--7----7--7--7----|
|-----------------------|------------------------|


   E  E  E E  E  E  E E    E  E  E E  E  E  E E
|-----------------------|-----------------------|
|-----------------------|-----------------------|
|-----------------------|-----------------------|
|--0--0--0----0--0--0---|--0--0--0----0--0--0---|
|
|  E  E  E E  E  E  E E    E  E  E E  E  E  E E
|-----------------------|-----------------------|
|------------15---------|------------15---------|
|-----------------------|-----------------------|
|-12-12-12---12-12-12---|-12-12-12---12-12-12---|
|--9--9--9----9--9--9---|--9--9--9----9--9--9---|
|-----------------------|-----------------------|


  E E E E E E E E   E E E E H
|-----------------|------------------||
|-----------------|-----------------o||
|-----------------|-----------------o||
|-0-0-0---0-0-0---|-0-0-0-0-0--------||
|
| E E E E E E E E   E E E E Q   Q
|-----------------|------------------||
|-----------------|-----------------o||
|-----------------|---------9--(9)---||
|-9-9-9---9-9-9---|-9-9-9-9-9---7----||
|-7-7-7---7-7-7---|-7-7-7-7-7---5---o||
|-----------------|------------------||


    E E E E  E E E E   E E E E  E E E E
||-------------------|------------------|
||o------------------|------------------|
||o------------------|------------------|
||--0-0-0----0-0-0---|-0-0-0----0-0-0---|
|
|   E E E E  E E E E   E E E E  E E E E
||-------------------|------------------|
||o---------12-------|---------12-------|
||-------------------|------------------|
||--9-9-9----9-9-9---|-9-9-9----9-9-9---|
||o-7-7-7----7-7-7---|-7-7-7----7-7-7---|
||-------------------|------------------|


   E  E  E E  E  E  E E    E  E  E E  E  E  E E
|-----------------------|------------------------|
|-----------------------|------------------------|
|-----------------------|------------------------|
|--0--0--0----0--0--0---|--0--0--0----0--0--0----|
|
|  E  E  E E  E  E  E E    E  E  E E  E  E  E E
|-----------------------|------------------------|
|-----------------------|------------------------|
|-----------------------|------------------------|
|-10-10-10---10-10-10---|-10-10-10---10-10-10----|
|--7--7--7----7--7--7---|--7--7--7----7--7--7----|
|-----------------------|------------------------|


   E  E  E E  E  E  E E    E  E  E E  E  E  E E
|-----------------------|-----------------------|
|-----------------------|-----------------------|
|-----------------------|-----------------------|
|--0--0--0----0--0--0---|--0--0--0----0--0--0---|
|
|  E  E  E E  E  E  E E    E  E  E E  E  E  E E
|-----------------------|-----------------------|
|-----------------------|-----------------------|
|-----------------------|-----------------------|
|-12-12-12---12-12-12---|-12-12-12---12-12-12---|
|--9--9--9----9--9--9---|--9--9--9----9--9--9---|
|-----------------------|-----------------------|


                   1.                  2.
  E E E E E E E E   E E E E H           E E E E E Q.
|-----------------|------------------||-------------------||
|-----------------|-----------------o||-------------------||
|-----------------|-----------------o||-7-7-7-7-7-5\------||
|-0-0-0---0-0-0---|-0-0-0-0-0--------||-------------------||
|
| E E E E E E E E   E E E E Q   Q       E E E E Q     Q
|-----------------|------------------||-------------------||
|-----------------|-----------------o||-------------------||
|-----------------|---------9--(9)---||---------9----(9)--||
|-9-9-9---9-9-9---|-9-9-9-9-9---7----||-9-9-9-9-9-----7---||
|-7-7-7---7-7-7---|-7-7-7-7-7---5---o||-7-7-7-7-7-----5---||
|-----------------|------------------||-------------------||


 Chorus
   E  E  E   E    E   E +Q       E  E  E  E   E   E +Q
|-----------------------------|---------------------------|
|-----------------------------|---------------------------|
|-----------------------------|---------------------------|
|--1--1--1--------x--/8-(8)\--|--1--1--1------x--/8-(8)\--|
|
|  E  E  E  +E   +H              E  E  E +E  +H
|-----------------------------|-13-17-12------------------|
|----10-13-(13)-(13)----------|----10--6-(6)-(6)----------|
|-10-----9--------------------|-10-----9------------------|
|-----------------------------|---------------------------|
|-----------------------------|---------------------------|
|-----------------------------|---------------------------|


   E  E  E   E    E   E +Q        E    E    E    E    E  E E E
|-----------------------------|--------------------------------|
|-----------------------------|--------------------------------|
|-----------------------------|--------------------------------|
|--1--1--1--------x--/8-(8)\--|---1----1----1----1----1--1-1-1-|
|
|  E  E  E  +E   +H               E    E    E   +E   +H
|-----------------------------|--13---17---12------------------|
|----10-13-(13)-(13)----------|-(13)-(13)-(13)-(13)-(13)-------|
|-10----10-(10)-(10)----------|-(10)-(10)-(10)-(10)-(10)-------|
|-------14--------------------|--------------------------------|
|-----------------------------|--------------------------------|
|-----------------------------|--------------------------------|


   W           +H.      E E     W            +Q   E E H
|-----------|---------------|-------------|------------------|
|-----------|---------------|-------------|-----------5\-----|
|--0--------|--(0)------0h2-|---3---------|--(3)--3-5--------|
|-----------|---------------|-------------|------------------|
|
|                                             >
|  W           +W               W            +H.          Q
|-----------|---------------|-------------|------------------|
|-13--------|-(13)----------|-(13)--------|-(13)-------------|
|-14--------|-(14)----------|---9---------|--(9)-------------|
|-----------|---------------|-------------|------------------|
|-----------|---------------|-------------|------------------|
|-----------|---------------|-------------|------------------|


   E   E   E   E    E   E  +Q       E  E  E  E   E   E +Q
|--------------------------------|---------------------------|
|--------------------------------|---------------------------|
|--------------------------------|---------------------------|
|--1---1---1--------x--/8--(8)\--|--1--1--1------x--/8-(8)\--|
|
|  E   E   E  +E    Q       Q       E  E  E +E  +H
|-17-(17)-15-(15)--13------12----|-13-17-12------------------|
|-----10--13-(13)-(13)----(13)---|----10--6-(6)-(6)----------|
|-10-------9---------------------|-10-----9------------------|
|--------------------------------|---------------------------|
|--------------------------------|---------------------------|
|--------------------------------|---------------------------|


   E  E  E   E    E   E +Q        E    E    E    E    E  E E E
|-----------------------------|--------------------------------|
|-----------------------------|--------------------------------|
|-----------------------------|--------------------------------|
|--1--1--1--------x--/8-(8)\--|---1----1----1----1----1--1-1-1-|
|
|  E  E  E  +E   +H               E    E    E   +E   +H
|-----------------------------|--13---17---12------------------|
|----10-13-(13)-(13)----------|-(13)-(13)-(13)-(13)-(13)-------|
|-10----10-(10)-(10)----------|-(10)-(10)-(10)-(10)-(10)-------|
|-------14--------------------|--------------------------------|
|-----------------------------|--------------------------------|
|-----------------------------|--------------------------------|


   W           +W            W           +H       H
|-----------|-------------|-----------|-----------------||
|-----------|-------------|-----------|-----------------||
|--0--------|--(0)--------|--3--------|--(3)-----12\----||
|-----------|-------------|-----------|-----------------||
|
|  W           +W            W           +H       H
|-----------|-------------|-15--------|-(15)----(15)----||
|-13--------|-(13)--------|-----------|----------15s====||
|-14--------|-(14)--------|--9--------|--(9)-----(9)----||
|-----------|-------------|-----------|-----------------||
|-----------|-------------|-----------|-----------------||
|-----------|-------------|-----------|-----------------||


 Verse 2
   E   E    E    E   E E  E E   E E E E  E E  E E
|-----------------------------|-------------------|
|-----------------------------|-------------------|
|-----------------------------|-------------------|
|--0---0----0--------0-0--0---|-0-0-0----0-0--0---|
|
|  E   E    E   +E   E Q.       E E E E  E Q.
|-----------------------------|-------------------|
|-17-(17)-(17)-(17)-12--------|---------12--------|
|--9---9----------------------|-------------------|
|--9---9----9--------9--------|-9-9-9----9--------|
|--7---7----------------------|----------7--------|
|-----------7-----------------|-7-7---------------|


   E  E  E E  E E  E E    E  E E E  E E  E E
|----------------------|---------------------|
|----------------------|---------------------|
|----------------------|---------------------|
|--0--0--0----0-0--0---|--0--0-0----0-0--0---|
|
|  E  E  E E  E Q.        E  E E E  E Q.
|----------------------|---------------------|
|------------13--------|-----------13--------|
|--9--9----------------|-------0----0--------|
|-10-10-10---10--------|-10-10-----10--------|
|--7--7----------------|---------------------|
|--------8-------------|--8--8---------------|


  E E  E E  E E  E E    E  E E E  E E  E E
|--------------------|---------------------|
|--------------------|---------------------|
|--------------------|---------------------|
|-0-0--0----0-0--0---|--0--0-0----0-0--0---|
|
| E E  E E  E Q.        E  E Q    E Q.
|--------------------|---------------------|
|----------15--------|-----------15--------|
|-9-9--7-------------|--7--7---------------|
|----------12--------|-----------12--------|
|-7-7----------------|---------------------|
|-----10-------------|-10-10---------------|


  E E  E E  E E  E E   E E E E  H
|--------------------|--------------------|
|--------------------|--------------------|
|--------------------|--------------------|
|-0-0--0----0-0--0---|-0-0-0-0--0---------|
|
| E E  E E  E Q.       E E Q    E   Q   E
|----------12--------|---------12-(12)----|
|-----12-------------|--------------------|
|-9-9-------9--------|-9-9------9--(9)----|
|------9-------------|-------------12-----|
|-7-7----------------|-7-7----------------|
|--------------------|--------------------|


  E E E E  E E  E E   E E E E  E E  E E
|-------------------|-------------------|
|-------------------|-------------------|
|-------------------|-------------------|
|-0-0-0----0-0--0---|-0-0-0----0-0--0---|
|
| E E E E  E Q.       E E E E  E Q.
|-------------------|-------------------|
|---------12--------|---------12--------|
|-9-9---------------|-------------------|
|-9-9-9----9--------|-9-9-9----9--------|
|-7-7---------------|----------7--------|
|-----7-------------|-7-7---------------|


   E  E  E E  E E  E E    E  E E E  E E  E E
|----------------------|---------------------|
|----------------------|---------------------|
|----------------------|---------------------|
|--0--0--0----0-0--0---|--0--0-0----0-0--0---|
|
|  E  E  E E  E Q.        E  E E E  E Q.
|----------------------|---------------------|
|------------13--------|-----------13--------|
|--9--9----------------|-------0----0--------|
|-10-10-10---10--------|-10-10-----10--------|
|--7--7----------------|---------------------|
|--------8-------------|--8--8---------------|


  E E  E E  E E  E E    E  E E E  E E  E E
|--------------------|---------------------|
|--------------------|---------------------|
|--------------------|---------------------|
|-0-0--0-0--0-0--0---|--0--0-0----0-0--0---|
|
| E E  E E  E Q.        E  E Q    E Q.
|--------------------|---------------------|
|----------15--------|-----------15--------|
|-9-9--7-------------|--7--7---------------|
|----------12--------|-----------12--------|
|-7-7----------------|---------------------|
|-----10-------------|-10-10---------------|


  E E  E E  E E  E E   E E E E  E   Q.
|--------------------|--------------------|
|--------------------|--------------------|
|--------------------|---7-7-7--7---5\----|
|-0-0--0----0-0--0---|-0------------------|
|
| E E  E E  E Q.       E E Q    E   Q   E
|----------12--------|---------12-(12)----|
|-----12-------------|--------------------|
|-9-9-------9--------|-9-9------9--(9)----|
|------9-------------|-------------12-----|
|-7-7----------------|-7-7----------------|
|--------------------|--------------------|


    E E E E  E E  E E   E E E E  E E  E E
||--------------------|-------------------|
||o-------------------|-------------------|
||o-------------------|-------------------|
||--0-0-0----0-0--0---|-0-0-0----0-0--0---|
|
|   E E E E  E Q.       E E E E  E Q.
||--------------------|-------------------|
||o---------12--------|---------12--------|
||--9-9---------------|-------------------|
||--9-9-9----9--------|-9-9-9----9--------|
||o-7-7---------------|----------7--------|
||------7-------------|-7-7---------------|


   E  E  E E  E E  E E    E  E E E  E E  E E
|----------------------|----------------------|
|----------------------|----------------------|
|----------------------|----------------------|
|--0--0--0----0-0--0---|--0--0-0----0-0--0----|
|
|  E  E  E E  E Q.        E  E E E  E Q.
|----------------------|----------------------|
|------------13--------|-----------13---------|
|--9--9----------------|-------0----0---------|
|-10-10-10---10--------|-10-10-----10---------|
|--7--7----------------|----------------------|
|--------8-------------|--8--8----------------|


  E E  E E  E E  E E    E  E E E  E E  E E
|--------------------|---------------------|
|--------------------|---------------------|
|--------------------|---------------------|
|-0-0--0----0-0--0---|--0--0-0----0-0--0---|
|
| E E  E E  E Q.        E  E Q    E Q.
|--------------------|---------------------|
|----------15--------|-----------15--------|
|-9-9--7-------------|--7--7---------------|
|----------12--------|-----------12--------|
|-7-7----------------|---------------------|
|-----10-------------|-10-10---------------|


  E E  E E  E E  E E   E E E E  E   Q.
|--------------------|---------------------||
|--------------------|--------------------o||
|--------------------|---7-7-7--7---5\----o||
|-0-0--0----0-0--0---|-0-------------------||
|
| E E  E E  E Q.       E E Q    E   Q   E
|----------12--------|---------12-(12)-----||
|-----12-------------|--------------------o||
|-9-9-------9--------|-9-9------9--(9)-----||
|------9-------------|-------------12------||
|-7-7----------------|-7-7----------------o||
|--------------------|---------------------||


 Chorus 2
   E  E  E   E    E   E +Q       E  E  E  E   E   E +Q
|-----------------------------|---------------------------|
|-----------------------------|---------------------------|
|-----------------------------|---------------------------|
|--1--1--1--------x--/8-(8)\--|--1--1--1------x--/8-(8)\--|
|
|  E  E  E  +E   +H              E  E  E +E  +H
|-----------------------------|-13-17-12------------------|
|----10-13-(13)-(13)----------|----10--6-(6)-(6)----------|
|-10-----9--------------------|-10-----9------------------|
|-----------------------------|---------------------------|
|-----------------------------|---------------------------|
|-----------------------------|---------------------------|


   E  E  E   E    E   E +Q        E    E    E    E    E  E E E
|-----------------------------|--------------------------------|
|-----------------------------|--------------------------------|
|-----------------------------|--------------------------------|
|--1--1--1--------x--/8-(8)\--|---1----1----1----1----1--1-1-1-|
|
|  E  E  E  +E   +H               E    E    E   +E   +H
|-----------------------------|--13---17---12------------------|
|----10-13-(13)-(13)----------|-(13)-(13)-(13)-(13)-(13)-------|
|-10----10-(10)-(10)----------|-(10)-(10)-(10)-(10)-(10)-------|
|-------14--------------------|--------------------------------|
|-----------------------------|--------------------------------|
|-----------------------------|--------------------------------|


   W           +H.      E E     W             E  E E E H
|-----------|---------------|-------------|-------------------|
|-----------|---------------|-------------|------------5\-----|
|--0--------|--(0)------0h2-|---3---------|---x--x-3-5--------|
|-----------|---------------|-------------|-------------------|
|
|                                             >
|  W           +W               W            +H.           Q
|-----------|---------------|-------------|-------------------|
|-13--------|-(13)----------|-(13)--------|-(13)--------------|
|-14--------|-(14)----------|---9---------|--(9)--------------|
|-----------|---------------|-------------|-------------------|
|-----------|---------------|-------------|-------------------|
|-----------|---------------|-------------|-------------------|


   E   E   E   E    E   E  +Q       E  E  E  E   E   E +Q
|--------------------------------|---------------------------|
|--------------------------------|---------------------------|
|--------------------------------|---------------------------|
|--1---1---1--------x--/8--(8)\--|--1--1--1------x--/8-(8)\--|
|
|  E   E   E  +E    Q       Q       E  E  E +E  +H
|-17-(17)-15-(15)--13------12----|-13-17-12------------------|
|-----10--13-(13)-(13)----(13)---|----10--6-(6)-(6)----------|
|-10-------9---------------------|-10-----9------------------|
|--------------------------------|---------------------------|
|--------------------------------|---------------------------|
|--------------------------------|---------------------------|


   E  E  E   E    E   E +Q        E    E    E    E    E  E E E
|-----------------------------|--------------------------------|
|-----------------------------|--------------------------------|
|-----------------------------|--------------------------------|
|--1--1--1--------x--/8-(8)\--|---1----1----1----1----1--1-1-1-|
|
|  E  E  E  +E   +H               E    E    E   +E   +H
|-----------------------------|--13---17---12------------------|
|----10-13-(13)-(13)----------|-(13)-(13)-(13)-(13)-(13)-------|
|-10----10-(10)-(10)----------|-(10)-(10)-(10)-(10)-(10)-------|
|-------14--------------------|--------------------------------|
|-----------------------------|--------------------------------|
|-----------------------------|--------------------------------|


   W           +H.      E E     H     E E E E     E   E Q.   E Q
|-----------|---------------|-----------------|--------------5-----||
|-----------|---------------|-----------------|---5--/7s5------5\--||
|--0--------|--(0)------0h2-|---3-----x-x-3h5-|--------------------||
|-----------|---------------|-----------------|--------------------||
|
|  W           +W               W                +W
|-----------|---------------|-----------------|--------------------||
|-13--------|-(13)----------|-(13)------------|-(13)---------------||
|-14--------|-(14)----------|---9-------------|--(9)---------------||
|-----------|---------------|-----------------|--------------------||
|-----------|---------------|-----------------|--------------------||
|-----------|---------------|-----------------|--------------------||


 Bridge
   E E E E   E  E E E     E  E E E  E E E E
|---------------------|---------------------|
|---------------------|---------------------|
|---------------------|---------------------|
|--1-1---1---1--1---1-|---1--1---1--1-1-3-1-|
|
|            <
|  H         H           +H         Q   Q
|---------------------|---------------------|
|-----------13--------|-(13)----------------|
|---------------------|-----------------7---|
|-10-------(10)-------|-(10)-------10-------|
|--8---------8--------|---------------------|
|---------------------|---------------------|


  E E E E E E E E    E  E E E E E E E
|-----------------|-------------------|
|-----------------|-------------------|
|-0-0---0-0-0---0-|--0--0---0-3-0---0-|
|-----------------|---------------3---|
|
| W                 +W
|-----------------|-------------------|
|-----------------|-------------------|
|-9---------------|-(9)---------------|
|-----------------|-------------------|
|-----------------|-------------------|
|-----------------|-------------------|


  E E E E E E E E    E  E E E E E  E  E   E E E E E E E E    E  E E E E E E E
|-----------------|---------------------|-----------------|-------------------|
|-----------------|---------------------|-----------------|-------------------|
|-----------------|-----------5-3-------|-----------------|-------------------|
|-3-3---3-3-3---3-|--3--3---3------5--3-|-1-1---1-1-1---1-|--1--1---1-1-1-1-1-|
|
| W                 +H        Q   +Q      W                 +W
|-----------------|---------------------|-----------------|-------------------|
|-----------------|---------------------|-----------------|-------------------|
|-7---------------|-(7)-------9---(9)s==|=5---------------|-(5)---------------|
|-----------------|---------------------|-----------------|-------------------|
|-----------------|---------------------|-----------------|-------------------|
|-----------------|---------------------|-----------------|-------------------|


   E E E E E E E E     E  E E E  E  E E E
|------------------|----------------------|
|------------------|----------------------|
|------------------|----------------------|
|--1-1-1-1-1-1-1-1-|---1--1-1-1--1--1-1-0-|
|
|  W                  +H         Q.     E
|------------------|----------------------|
|------------------|----------------------|
|------------------|--------------------7-|
|-10---------------|-(10)-------10--------|
|--8---------------|----------------------|
|------------------|----------------------|


  E E E E E E E E    E  E E E E E E E
|-----------------|-------------------|
|-----------------|-------------------|
|-0-0-0-0-0-0-0-0-|--0--0-0-0-0-0-0-0-|
|-----------------|-------------------|
|
| W                 +W
|-----------------|-------------------|
|-----------------|-------------------|
|-9---------------|-(9)---------------|
|-----------------|-------------------|
|-----------------|-------------------|
|-----------------|-------------------|


  E E E E E E E E    E  E E E E E E E   E E E E E E E E    E  E E E E Q.
|-----------------|-------------------|-----------------|------------------||
|-----------------|-------------------|-----------------|------------------||
|-----------------|-------------------|-----------------|------------------||
|-3-3-3-3-3-3-3-3-|--3--3-3-3-3-3-3-0-|-1-1-1-1-1-1-1-1-|--1--1---1-1------||
|
|                                                          >
| W                 +H        Q   Q     W                 +H        H
|-----------------|-------------------|-----------------|------------------||
|-----------------|-------------------|-----------------|------------------||
|-7---------------|-(7)-------9---7---|-5---------------|-(5)--------------||
|-----------------|-------------------|-----------------|------------------||
|-----------------|-------------------|-----------------|------------------||
|-----------------|-------------------|-----------------|------------------||


 Guitar Solo
  E E E E  E E  E E   E E E E  E E  E E
|-------------------|-------------------|
|-------------------|-------------------|
|-------------------|-------------------|
|-0-0-0----0-0--0---|-0-0-0----0-0--0---|
|
| E E E E  E Q.       E E E E  E Q.
|-------------------|-------------------|
|---------12--------|---------12--------|
|-9-9---------------|-------------------|
|-9-9-9----9--------|-9-9-9----9--------|
|-7-7---------------|----------7--------|
|-----7-------------|-7-7---------------|


   E  E  E E  E E  E E    E  E E E  E E  E E
|----------------------|---------------------|
|----------------------|---------------------|
|----------------------|---------------------|
|--0--0--0----0-0--0---|--0--0-0----0-0--0---|
|
|  E  E  E E  E Q.        E  E E E  E Q.
|----------------------|---------------------|
|------------13--------|-----------13--------|
|--9--9----------------|-------0----0--------|
|-10-10-10---10--------|-10-10-----10--------|
|--7--7----------------|---------------------|
|--------8-------------|--8--8---------------|


  E E  E E  E E  E E    E  E E E  E E  E E
|--------------------|---------------------|
|--------------------|---------------------|
|--------------------|---------------------|
|-0-0--0----0-0--0---|--0--0-0----0-0--0---|
|
| E E  E E  E Q.        E  E Q    E Q.
|--------------------|---------------------|
|----------15--------|-----------15--------|
|-9-9--7-------------|--7--7---------------|
|----------12--------|-----------12--------|
|-7-7----------------|---------------------|
|-----10-------------|-10-10---------------|


  E E  E E  E E  E E   E E E E  E   E  +Q
|--------------------|-----------------------|
|--------------------|-----------------------|
|--------------------|-7-5-------------------|
|-0-0--0----0-0--0---|-----7-5--3---3--(3)---|
|
| E E  E E  E Q.       E E Q    E   Q      E
|----------12--------|---------12-(12)-------|
|-----12-------------|-----------------------|
|-9-9-------9--------|-9-9------9--(9)-------|
|------9-------------|-------------12--------|
|-7-7----------------|-7-7-------------------|
|--------------------|-----------------------|


  E E E E  E E  E E   E E E E  E E  E E
|-------------------|-------------------|
|-------------------|-------------------|
|-------------------|-------------------|
|-0-0-0----0-0--0---|-0-0-0----0-0--0---|
|
| E E E E  E Q.       E E E E  E Q.
|-------------------|-------------------|
|---------12--------|---------12--------|
|-9-9---------------|-------------------|
|-9-9-9----9--------|-9-9-9----9--------|
|-7-7---------------|----------7--------|
|-----7-------------|-7-7---------------|


   E  E  E E  E E  E E    E  E E E  E E  E E
|----------------------|---------------------|
|----------------------|---------------------|
|----------------------|---------------------|
|--0--0--0----0-0--0---|--0--0-0----0-0--0---|
|
|  E  E  E E  E Q.        E  E E E  E Q.
|----------------------|---------------------|
|------------13--------|-----------13--------|
|--9--9----------------|-------0----0--------|
|-10-10-10---10--------|-10-10-----10--------|
|--7--7----------------|---------------------|
|--------8-------------|--8--8---------------|


  E E  E E  E E  E E    E  E E E  E E  E E
|--------------------|---------------------|
|--------------------|---------------------|
|--------------------|---------------------|
|-0-0--0----0-0--0---|--0--0-0----0-0--0---|
|
| E E  E E  E Q.        E  E Q    E Q.
|--------------------|---------------------|
|----------15--------|-----------15--------|
|-9-9--7-------------|--7--7---------------|
|----------12--------|-----------12--------|
|-7-7----------------|---------------------|
|-----10-------------|-10-10---------------|


  E E  E E  E E  E E   E E E E  E   E  +Q
|--------------------|-4-2-2-0--0------------|
|--------------------|--------------0--(0)---|
|--------------------|-----------------------|
|-0-0--0----0-0--0---|-----------------------|
|
| E E  E E  E Q.       E E Q    E   Q      E
|----------12--------|---------12-(12)-------|
|-----12-------------|-----------------------|
|-9-9-------9--------|-9-9------9--(9)-------|
|------9-------------|-------------12--------|
|-7-7----------------|-7-7-------------------|
|--------------------|-----------------------|


  E E E E  E E  E E   E E E E  E E  E E
|-------------------|-------------------|
|-------------------|-------------------|
|-------------------|-------------------|
|-0-0-0----0-0--0---|-0-0-0----0-0--0---|
|
| E E E E  E Q.       E E E E  E Q.
|-------------------|-------------------|
|---------12--------|---------12--------|
|-9-9---------------|-------------------|
|-9-9-9----9--------|-9-9-9----9--------|
|-7-7---------------|----------7--------|
|-----7-------------|-7-7---------------|


   E  E  E E  E E  E E    E  E E E  E E  E E
|----------------------|---------------------|
|----------------------|-------2------4--5---|
|----------------------|---------------------|
|--0--0--0----0-0--0---|--0--0------0--------|
|
|  E  E  E E  E Q.        E  E E E  E Q.
|----------------------|---------------------|
|------------13--------|-----------13--------|
|--9--9----------------|-------0----0--------|
|-10-10-10---10--------|-10-10-----10--------|
|--7--7----------------|---------------------|
|--------8-------------|--8--8---------------|


  E E  E E  E E  E E    E  E E E  E E  E E
|--------------------|--7--4---------------|
|------7-5--4-4--4---|---------7--4-4----4-|
|-5-5--------------5-|-------5---------5---|
|--------------------|---------------------|
|
| E E  E E  E Q.        E  E Q    E Q.
|--------------------|---------------------|
|----------15--------|-----------15--------|
|-9-9--7-------------|--7--7---------------|
|----------12--------|-----------12--------|
|-7-7----------------|---------------------|
|-----10-------------|-10-10---------------|


  E E  E E  E E  E E   E E E E  E   E  +Q
|--------------------|-----------------------|
|--------------------|-----------------------|
|-----------5--------|---5-------------------|
|-0-0--0-0----0--0-0-|-0---7-5--3---3--(3)---|
|
| E E  E E  E Q.       E E Q    E   Q      E
|----------12--------|---------12-(12)-------|
|-----12-------------|-----------------------|
|-9-9-------9--------|-9-9------9--(9)-------|
|------9-------------|-------------12--------|
|-7-7----------------|-7-7-------------------|
|--------------------|-----------------------|


  E E E E  E E  E E   E E E E  E E  E E
|-------------------|-------------------|
|-------------------|-------------------|
|-------------------|-------------------|
|-0-0-0----0-0--0---|-0-0-0----0-0--0---|
|
| E E E E  E Q.       E E E E  E Q.
|-------------------|-------------------|
|---------12--------|---------12--------|
|-9-9---------------|-------------------|
|-9-9-9----9--------|-9-9-9----9--------|
|-7-7---------------|----------7--------|
|-----7-------------|-7-7---------------|


   E  E  E E  E E  E E    E  E E E  E E  E E
|----------------------|---------------------|
|----------------------|---------------------|
|----------------------|---------------------|
|--0--0--0----0-0--0---|--0--0-0----0-0--0-0-|
|
|  E  E  E E  E Q.        E  E E E  E Q.
|----------------------|---------------------|
|------------13--------|-----------13--------|
|--9--9----------------|-------0----0--------|
|-10-10-10---10--------|-10-10-----10--------|
|--7--7----------------|---------------------|
|--------8-------------|--8--8---------------|


  E E  E E  E E  E E    E  E E E  E E  E E
|--------------------|---------------------|
|--------------------|---------------------|
|--------------------|---------------------|
|-0-0--0----0-0--0---|--0--0-0----0-0--0---|
|
| E E  E E  E Q.        E  E Q    E Q.
|--------------------|---------------------|
|----------15--------|-----------15--------|
|-9-9--7-------------|--7--7---------------|
|----------12--------|-----------12--------|
|-7-7----------------|---------------------|
|-----10-------------|-10-10---------------|


  E E  E E  E E  E E   E E Q   E   E  Q
|--------------------|-4-4-2--------------|
|--------------------|--------/5---5--4---|
|--------------------|--------------------|
|-0-0--0----0-0--0---|--------------------|
|
| E E  E E  E Q.       E E Q   E   Q    E
|----------12--------|--------12-(12)-----|
|-----12-------------|--------------------|
|-9-9-------9--------|-9-9-----9--(9)-----|
|------9-------------|------------12------|
|-7-7----------------|-7-7----------------|
|--------------------|--------------------|


  E E E E  E E  E E   E E E E  E E  E E
|-------------------|-------------------|
|-------------------|-------------------|
|-------------------|-------------------|
|-0-0-0-0--0-0--0-0-|-0-0-0-0--0-0--0-0-|
|
| E E E E  E Q.       E E E E  E Q.
|-------------------|-------------------|
|---------12--------|---------12--------|
|-9-9---------------|-------------------|
|-9-9-9----9--------|-9-9-9----9--------|
|-7-7---------------|----------7--------|
|-----7-------------|-7-7---------------|


   E  E  E E  E E  E E    E  E E E  E E  E E
|----------------------|---------------------|
|----------------------|---------------------|
|----------------------|-----7-7-7-----------|
|--0--0--0-0----0--0-0-|--0--0-0-0----0--0-0-|
|
|  E  E  E E  E Q.        E  E E E  E Q.
|----------------------|---------------------|
|------------13--------|-----------13--------|
|--9--9----------------|-------0----0--------|
|-10-10-10---10--------|-10-10-----10--------|
|--7--7----------------|---------------------|
|--------8-------------|--8--8---------------|


  E E  E E  E E  E E    E  E E E  E E  E E
|--------------------|---------------------|
|--------------------|---------------------|
|--------------------|---------------------|
|-0-0--0-0----0--0---|--0--0-0-0----0--0-0-|
|
| E E  E E  E Q.        E  E Q    E Q.
|--------------------|---------------------|
|----------15--------|-----------15--------|
|-9-9--7-------------|--7--7---------------|
|----------12--------|-----------12--------|
|-7-7----------------|---------------------|
|-----10-------------|-10-10---------------|


  E E  E E  E E  E E   E E E E  E   Q.
|--------------------|--------------------||
|--------------------|--------------------||
|--------------------|--------------5-----||
|-0-0--0-0----0--0---|-0-0-0-0--0---------||
|
| E E  E E  E Q.       E E Q    E   Q   E
|----------12--------|---------12-(12)----||
|-----12-------------|--------------------||
|-9-9-------9--------|-9-9------9--(9)----||
|------9-------------|-------------12-----||
|-7-7----------------|-7-7----------------||
|--------------------|--------------------||


 Outro
  E E E E  E E  E E   E E E E  E E  E E
|-------------------|-------------------|
|-------------------|-------------------|
|-------------------|-------------------|
|-0-0-0----0-0--0---|-0-0-0----0-0--0---|
|
| E E E E  E Q.       E E E E  E Q.
|-------------------|-------------------|
|---------12--------|---------12--------|
|-9-9---------------|-------------------|
|-9-9-9----9--------|-9-9-9----9--------|
|-7-7---------------|----------7--------|
|-----7-------------|-7-7---------------|


   E  E  E E  E E  E E    E  E E Q    E  E E
|----------------------|---------------------|
|----------------------|---------------------|
|----------------------|--------------5--7---|
|--0--0--0----0-0--0---|--0--0-0-------------|
|
|  E  E  E E  E Q.        E  E E E  E Q.
|----------------------|---------------------|
|------------13--------|-----------13--------|
|--9--9----------------|-------0----0--------|
|-10-10-10---10--------|-10-10-----10--------|
|--7--7----------------|---------------------|
|--------8-------------|--8--8---------------|


  E E  E E  E E  E E    E  E E E  E E  E E
|--------------------|---------------------|
|--------------------|---------------------|
|--------------------|---------------------|
|---0--0----0-0--0---|--0--0-0----0-0--0---|
|
| E E  E E  E Q.        E  E Q    E Q.
|--------------------|---------------------|
|----------15--------|-----------15--------|
|-9-9--7-------------|--7--7---------------|
|----------12--------|-----------12--------|
|-7-7----------------|---------------------|
|-----10-------------|-10-10---------------|


  E E  E E  E E  E E   E E E E  E   E  +Q
|--------------------|-----------------------|
|--------------------|-----------------------|
|--------------------|---5-------------------|
|-0-0--0----0-0--0---|-0---7-5--3---3--(3)---|
|
| E E  E E  E Q.       E E Q    E   Q      E
|----------12--------|---------12-(12)-------|
|-----12-------------|-----------------------|
|-9-9-------9--------|-9-9------9--(9)-------|
|------9-------------|-------------12--------|
|-7-7----------------|-7-7-------------------|
|--------------------|-----------------------|


  E E E E  E  E  E  E    E   E    E    E   E  E  E E
|---------------------|------------------------------|
|---------------------|------------------------------|
|---------------------|------------------------------|
|-0-0-0----0--0--0----|--0---0----0--------0--0--0---|
|
| E E E E  E  E  E  E    E   E    E   +E   E +Q.
|---------------------|--8--(8)--(8)--(8)--7-(7)-----|
|---------12----------|-------------------12---------|
|-9-9------9-11-12-16-|--------------------0-(0)-----|
|-9-9-9----9----------|--9---9----9--------9---------|
|-7-7------7--9-10-14-|-12-(12)-(12)-(12)--7---------|
|-----7---------------|--7---7-----------------------|


   E  E  E E  E  E  E  E    E   E    E    E   E   E  E E
|------------------------|-------------------------------|
|------------------------|-------------------------------|
|------------------------|-------------------------------|
|--0--0--0----0--0--0----|--0---0----0--------0---0--0---|
|
|  E  E  E E  E  E  E  E    E   E    E   +E   E  +Q.
|------------------------|-10-(10)-(10)-(10)--8--(8)-----|
|------------13----------|-------------------13----------|
|--9--9------12-14-16-17-|-----------0--------0----------|
|-10-10-10---10----------|-10--10------------10----------|
|--7--7------10-12-14-15-|-14-(14)-(14)-(14)-12-(12)-----|
|--------8---------------|--8---8------------------------|


  E E  E  Q     E  Q       E   E    E  Q      E   Q
|-----------------------|----------------------------|
|-----------------------|----------------------------|
|-----------------------|----------------------------|
|-0-0--0--------0--0----|--0---0----0---------0---0--|
|
| E E  E  E  E  E  E  E    E   E   +Q     E  +E   Q
|-----------------------|----------------------------|
|-----------15----------|-17--17--(17)---15----------|
|-9-9--7-12-14-16-17-19-|--7---7---------19-(19)-17--|
|-----------12----------|-14--14--(14)---12----------|
|-7-7----10-12-14-15-17-|-12-(12)--------17-(17)-15--|
|-----10----------------|-10--10---------------------|


   E   E    E    E    E    E  Q      E    E    E    E   E    E  E   E
|--------------------------------|---7---------------------------------|
|---------------------0----------|--------9----7----9---7----5--4------|
|--------------------------------|----------------------------------5--|
|--0---0----0----0---------0--0--|-------------------------------------|
|
|  E   E    E   +E    E   +Q.        E    E   +E   +E   E    Q     +E
|-----------7--------12----------|---------------------12--(12)--------|
|-12-(12)-(12)-(12)-(12)-(12)----|-(12)-(12)-(12)-(12)-12--(12)---(12)-|
|--9---9--------------9----------|---9----9-------------9----7---------|
|--9--(9)--(9)--(9)--(9)--(9)----|--(9)--(9)--(9)--(9)-(9)--(9)----(9)-|
|--7---7---14--------------------|---7----7----------------------------|
|--------------------------------|-------------------------------------|


   E   E    E    E    E    E  E E     E    E    E    E    E    E  E E
|---------------------------------|-----------------------------------|
|---------------------------------|-----------------------------------|
|---------------------------------|-----------------------------------|
|--0---0----0---------0----0--0---|---0----0----0---------0----0--0---|
|
|  E   E    E   +E    E   +Q.         E    E    E   +E    E   +Q.
|-15-(15)-(15)-(15)-(15)-(15)-----|-(15)-(15)-(15)-(15)-(15)-(15)-----|
|---------------------------------|-----------------------------------|
|--9---9-------------16-----------|----------------------16-----------|
|--9---9----9---------9-----------|---9----9----9---------9-----------|
|--7---7--------------------------|-----------------------7-----------|
|-----------7---------------------|---7----7--------------------------|


    E    E    E    E    E    E  E E     E    E    Q         E    E   E E
|-----------------------------------|------------------------------------|
|-----------------------------------|-------------2--------------4---5-7-|
|-----------------------------------|------------------------------------|
|---0----0----0---------0----0--0---|---0----0---------------------------|
|
|   E    E    E   +E    E   +Q.         E    E    E   +E    E   +E   Q
|-(15)-(15)-(15)-(15)-(15)-(15)-----|-(15)-(15)-(15)-(15)-(15)-(15)-12---|
|----------------------13-----------|----------------------13------------|
|---9----9--------------------------|-------------0---------0------------|
|--10---10---10--------10-----------|--10---10-------------10------------|
|---7----7--------------------------|------------------------------------|
|-------------8---------------------|---8----8---------------------------|


   E  E   Q         E    E  E E     E    E    E  E   E    E  E E
|--7----------------------------|---7----4-----------------------|
|-----9---7---------4----4--4---|----------------7---4----4----4-|
|-----------------------------5-|-------------5--------------5---|
|-------------------------------|--------------------------------|
|
|  E  E   E   +E    E   +Q.         E    E   +Q      E   +Q.
|-12-14-(14)-(14)-(14)-(14)-----|-(14)-(14)-(14)---(14)-(14)-----|
|------------------15-----------|-------------------15-----------|
|--9--9---7---------------------|---7----7-----------------------|
|------------------12-----------|-------------------12-----------|
|--7--7-------------------------|--------------------------------|
|--------10---------------------|--10---10-----------------------|


   E   E    E    E    E    E  E E     E    E    E  E   E    E  +Q
|---------------------------------|----------------------------------|
|---------------------------------|----------------------------------|
|---------------------5-----------|--------5-------------------------|
|--0---0----0----0---------0--0-0-|---0---------7--5---3----3--(3)---|
|
|  E   E    E   +E    E   +Q.         E    E   +Q      E    Q      E
|-12-(12)-(12)-(12)-(12)-(12)-----|-(12)-(12)-(12)---(12)-(12)-------|
|----------12---------------------|----------------------------------|
|--9---9--------------9-----------|---9----9-----------9---(9)-------|
|-----------9---------------------|------------------------12--------|
|--7---7--------------------------|---7----7-------------------------|
|---------------------------------|----------------------------------|


   E   E    E    E    E    E  E E     E    E    E    E    E    E  E E
|---------------------------------|-----------------------------------|
|---------------------------------|-----------------------------------|
|---------------------------------|-----------------------------------|
|--0---0----0---------0----0--0---|---0----0----0---------0----0--0---|
|
|  E   E    E   +E    E   +Q.         E    E    E   +E    E   +Q.
|-15-(15)-(15)-(15)-(15)-(15)-----|-(15)-(15)-(15)-(15)-(15)-(15)-----|
|---------------------------------|-----------------------------------|
|--9---9-------------16-----------|----------------------16-----------|
|--9---9----9---------9-----------|---9----9----9---------9-----------|
|--7---7--------------------------|-----------------------7-----------|
|-----------7---------------------|---7----7--------------------------|


    E    E    E    E    E    E  E E     E    E    E    E    E    E   E E
|-----------------------------------|------------------------------------|
|-----------------------------------|------------------------------------|
|-----------------------------------|------------------------------------|
|---0----0----0---------0----0--0---|---0----0----0---------0----0---0-0-|
|
|   E    E    E   +E    E   +Q.         E    E    E   +E    E   +E   Q
|-(15)-(15)-(15)-(15)-(15)-(15)-----|-(15)-(15)-(15)-(15)-(15)-(15)-12---|
|----------------------13-----------|----------------------13------------|
|---9----9--------------------------|-------------0---------0------------|
|--10---10---10--------10-----------|--10---10-------------10------------|
|---7----7--------------------------|------------------------------------|
|-------------8---------------------|---8----8---------------------------|


   E  E   E    E    E    E  E E     E    E    E  E   E    E  E E
|-------------------------------|--------------------------------|
|-------------------------------|--------------------------------|
|-------------------------------|--------------------------------|
|--0--0---0---------0----0--0---|---0----0----0------0----0--0---|
|
|  E  E   E   +E    E   +Q.         E    E   +Q      E   +Q.
|-12-14-(14)-(14)-(14)-(14)-----|-(14)-(14)-(14)---(14)-(14)-----|
|------------------15-----------|-------------------15-----------|
|--9--9---7---------------------|---7----7-----------------------|
|------------------12-----------|-------------------12-----------|
|--7--7-------------------------|--------------------------------|
|--------10---------------------|--10---10-----------------------|


   E   E    E    E    E    E  E E     E    E    E  E   E    E  Q
|---------------------------------|---4----2----0--0---2----0------|
|---------------------------------|----------------------------4---|
|---------------------------------|--------------------------------|
|--0---0----0---------0----0--0---|--------------------------------|
|
|  E   E    E   +E    E   +Q.         E    E   +Q      E    Q    E
|-12-(12)-(12)-(12)-(12)-(12)-----|-(12)-(12)-(12)---(12)-(12)-----|
|----------12---------------------|--------------------------------|
|--9---9--------------9-----------|---9----9-----------9---(9)-----|
|-----------9---------------------|------------------------12------|
|--7---7--------------------------|---7----7-----------------------|
|---------------------------------|--------------------------------|


   E   E    E    E    E    E  E E     E    E    E    E    E    E  E E
|---------------------------------|-----------------------------------|
|---------------------------------|-----------------------------------|
|---------------------------------|-----------------------------------|
|--0---0----0---------0----0--0---|---0----0----0---------0----0--0---|
|
|  E   E    E   +E    E   +Q.         E    E    E   +E    E   +Q.
|-15-(15)-(15)-(15)-(15)-(15)-----|-(15)-(15)-(15)-(15)-(15)-(15)-----|
|---------------------------------|-----------------------------------|
|--9---9-------------16-----------|----------------------16-----------|
|--9---9----9---------9-----------|---9----9----9---------9-----------|
|--7---7--------------------------|-----------------------7-----------|
|-----------7---------------------|---7----7--------------------------|


    E    E    E    E    E    E  E E     E    E    E    E    E    E   E E
|-----------------------------------|------------------------------------|
|-----------------------------------|------------------------------------|
|-----------------------------------|------------------------------------|
|---0----0----0---------0----0--0---|---0----0----0---------0----0---0---|
|
|   E    E    E   +E    E   +Q.         E    E    E   +E    E   +E   Q
|-(15)-(15)-(15)-(15)-(15)-(15)-----|-(15)-(15)-(15)-(15)-(15)-(15)-12---|
|----------------------13-----------|----------------------13------------|
|---9----9--------------------------|-------------0---------0------------|
|--10---10---10--------10-----------|--10---10-------------10------------|
|---7----7--------------------------|------------------------------------|
|-------------8---------------------|---8----8---------------------------|


   E  E   E    E    E    E  E E     E    E    E  E   E    E  E E
|-------------------------------|--------------------------------|
|-------------------------------|--------------------------------|
|-------------------------------|--------------------------------|
|--0--0---0---------0----0--0---|---0----0----0------0----0--0---|
|
|  E  E   E   +E    E   +Q.         E    E   +Q      E   +Q.
|-12-14-(14)-(14)-(14)-(14)-----|-(14)-(14)-(14)---(14)-(14)-----|
|------------------15-----------|-------------------15-----------|
|--9--9---7---------------------|---7----7-----------------------|
|------------------12-----------|-------------------12-----------|
|--7--7-------------------------|--------------------------------|
|--------10---------------------|--10---10-----------------------|


   E   E    E    E    E    E  E E     E    E    E  E   E    Q.
|---------------------------------|---7----7----4-----------------|
|---------------------------------|----------------7---5----------|
|---------------------------------|-------------------------5-----|
|--0---0----0---------0----0--0---|-------------------------------|
|
|  E   E    E   +E    E   +Q.         E    E   +Q      E    Q   E
|-12-(12)-(12)-(12)-(12)-(12)-----|-(12)-(12)-(12)---(12)-(12)----|
|----------12---------------------|-------------------------------|
|--9---9--------------9-----------|---9----9-----------9---(9)----|
|-----------9---------------------|------------------------12-----|
|--7---7--------------------------|---7----7----------------------|
|---------------------------------|-------------------------------|


   E   E    E    E    E    E  E E     E    E    E    E    E    E  E E
|---------------------------------|-----------------------------------|
|---------------------------------|-----------------------------------|
|---------------------------------|-----------------------------------|
|--0---0----0---------0----0--0---|---0----0----0---------0----0--0---|
|
|  E   E    E   +E    E   +Q.         E    E    E   +E    E   +Q.
|-15-(15)-(15)-(15)-(15)-(15)-----|-(15)-(15)-(15)-(15)-(15)-(15)-----|
|---------------------------------|-----------------------------------|
|--9---9-------------16-----------|----------------------16-----------|
|--9---9----9---------9-----------|---9----9----9---------9-----------|
|--7---7--------------------------|-----------------------7-----------|
|-----------7---------------------|---7----7--------------------------|


    E    E    E    E    E    E  E E     E    E    E    E    E    E   E E
|-----------------------------------|------------------------------------|
|-----------------------------------|------------------------------------|
|-----------------------------------|------------------------------------|
|---0----0----0---------0----0--0---|---0----0----0---------0----0---0---|
|
|   E    E    E   +E    E   +Q.         E    E    E   +E    E   +E   Q
|-(15)-(15)-(15)-(15)-(15)-(15)-----|-(15)-(15)-(15)-(15)-(15)-(15)-12---|
|----------------------13-----------|----------------------13------------|
|---9----9--------------------------|-------------0---------0------------|
|--10---10---10--------10-----------|--10---10-------------10------------|
|---7----7--------------------------|------------------------------------|
|-------------8---------------------|---8----8---------------------------|


  Gtr II
   E  E   E   +E    E   +Q.       E    E   +Q     E   +Q.
|-12-14-(14)-(14)-(14)-(14)---|-(14)-(14)-(14)--(14)-(14)---|
|------------------15---------|------------------15---------|
|--9--9---7-------------------|---7----7--------------------|
|------------------12---------|------------------12---------|
|--7--7-----------------------|-----------------------------|
|--------10-------------------|--10---10--------------------|


   E   E    E   +E    E   +Q.       E    E   +Q     E    Q   E
|-12-(12)-(12)-(12)-(12)-(12)---|-(12)-(12)-(12)--(12)-(12)----*|
|----------12-------------------|------------------------------*|
|--9---9--------------9---------|---9----9----------9---(9)----*|
|-----------9-------------------|-----------------------12-----*|
|--7---7------------------------|---7----7---------------------*|
|-------------------------------|------------------------------*|


Duration Legend
---------------
W - whole; H - half; Q - quarter; E - 8th; S - 16th; T - 32nd; X - 64th; a - acciaccatura
+ - note tied to previous; . - note dotted; .. - note double dotted
Uncapitalized letters represent notes that are staccato (1/2 duration)
Irregular groupings are notated above the duration line
Duration letters will always appear directly above the note/fret number it represents the
duration for.  Duration letters with no fret number below them represent rests.  Multi-
bar rests are notated in the form Wxn, where n is the number of bars to rest for.  Low
melody durations appear below the staff

Tablature Legend
----------------
 h   - hammer-on
 p   - pull-off
 b   - bend
 pb  - pre-bend
 r   - bend release (if no number after the r, then release immediately)
 /\  - slide into or out of (from/to "nowhere")
 s   - legato slide
 S   - shift slide
  - natural harmonic
[n]  - artificial harmonic
n(n) - tapped harmonic
 ~   - vibrato
 tr  - trill
 T   - tap
 TP  - trem. picking
 PM  - palm muting
\n/  - tremolo bar dip; n = amount to dip
 \n  - tremolo bar down
 n/  - tremolo bar up
/n\  - tremolo bar inverted dip
 =   - hold bend; also acts as connecting device for hammers/pulls
 <>  - volume swell (louder/softer)
 x   - on rhythm slash represents muted slash
 o   - on rhythm slash represents single note slash

Misc Legend
-----------
 |  - bar
||  - double bar
||o - repeat start
o|| - repeat end
*|  - double bar (ending)
 :  - bar (freetime)
 $  - Segno
 &  - Coda
Tempo markers -  = BPM(8/16=s8/s16), where s8 = swing 8ths, s16 = swing 16ths



comments
print report bad tab
5 comments total. Showing first comments.
-2 reply
FalconNFlames wrote on September 5 2007, 11:16 pm

youve got to be retarded... a whole note is 4 counts and cant appear in 2/2 time... other than that nice tab

0 reply
shredderofbass wrote on August 8 2008, 02:48 pm

how is the bassist playing? his hand is flying everywhere so it kinda looks like he is slaping

0 reply
MusicMan24 wrote on August 20 2009, 01:36 pm

What the hell??? Is this a bass tab or a guitar tab???

I want to post or [tab]
guest
You may want to rate the tab now too:
select rating
Please do not post tabs as comments. Select "correction" instead!