Oops, an error
Loading. Please wait.

Welcome Home Tab

ver4
284,505 views 60 this week
45 commentsread comments
1 2 3 4 5
accurate
x 80
Autoscroll
+/-
esc
set tempo
stop
Contributor
Difficulty
intermediate
Hey! There's an official Ultimate Guitar app which is ideal
for learning songs when you're away from computer. Get the app
WARNING: You are trying to view
                                    content from Ultimate-Guitar.com
                                    in an unauthorized application,
                                    which is prohibited.

                                    Please use an official Ultimate
                                    Guitar Tabs application for iPhone,
                                    iPad or Android to access legitimate
                                    chords, guitar, bass, and drum tabs
                                    from Ultimate-Guitar.com database.

                                    Type "ultimate guitar tabs" in Apple
                                    App Store's or Android Market's
                                    search to find the application.
||----------------------|------------------|
||o---------------------|------------------|
||--------------7-------|------------------|
||---------9-10----10-9-|-7--7-10-9-7------|
||o------7--------------|-------------10-9-|
||--0--0----------------|------------------|


                        D   F#m Em  D
              ~           PM
  Q  T T S  E Q   E E   E E E E E E Q
|---------------------|-----------------||
|---------------------|----------------o||
|-------------7-------|-----------------||
|--------9-10----10-9-|-4---7---5---4---||
|------7--------------|-5---9---7---5--o||
|-0--0----------------|-----------------||


  E5                                                         D   F#m Em  D
  Gtr IV
          ~          ~~~                           ~           PM
  Q  E  E Q   E E    Q   E  E E E  E E   E E E   E Q   E E   E E E E E E Q
|-----------------|--------------------|-------------------|----------------|
|-----------------|--------------------|-------------------|----------------|
|---------7-------|--------------------|-----------7-------|----------------|
|----9-10----10-9-|--7---7-10-9-7------|-----9--10----10-9-|-4---7---5---4--|
|-----------------|---------------10-9-|-7-----------------|-5---9---7---5--|
|-0---------------|--------------------|-------------------|----------------|
|
| Gtrs II, III
| W                 +W                   Q   H.              W
|-----------------|--------------------|-------------------|----------------|
|-----------------|--------------------|-------------------|----------------|
|-----------------|--------------------|-------------------|----------------|
|-----------------|--------------------|-------------------|----------------|
|-2---------------|-(2)----------------|-2-----------------|----------------|
|-0---------------|-(0)----------------|-0-----------------|----------------|


  E5
           ~~~        ~~~~
  Q  E  E  Q    E E   Q     E  E E E  E E
|-------------------|---------------------|
|-------------------|---------------------|
|---------[7]-------|---------------------|
|----9-10------10-9-|-7-----7-10-9-7------|
|-------------------|----------------10-9-|
|-0-----------------|---------------------|
|
| W                   W
|-------------------|---------------------|
|-------------------|---------------------|
|-------------------|---------------------|
|-------------------|-0tr2----------------|
|-2-----------------|---------------------|
|-0-----------------|---------------------|


                       D       F#m Em  D
             ~               PM
  E E  E   E Q   E E     E   E E E E E Q
|--------------------|--------------------||
|--------------------|--------------------||
|------------7-------|--------------------||
|------9--10----10-9-|---4-----7---5---4--||
|-7------------------|---5-----9---7---5--||
|--------------------|--------------------||
|
|      <                 <
| Q    H.                W
|--------------------|-[19]---------------||
|-----<7>------------|-(<7>)--------------||
|--------------------|--------------------||
|--------------------|--------------------||
|-2------------------|--------------------||
|-0------------------|--------------------||


    E5
    Gtr III
    PM-------|     ~~~   PM-------|     ~~~
    E E  E E  q    Q     E E  E E  q    Q
||---------------------|--------------------|
||o--------------------|--------------------|
||---------------------|--------------------|
||---------------------|--------------------|
||o---9-10---10---[9]--|---9-10---10---[9]--|
||--0-7--7----7--------|-0-7--7----7--------|
|
|   Gtr II
|   PM--|     PM   ~~~   PM--|     PM   ~~~
|   E E  E E  E E  Q     E E  E E  E E  Q
||---------------------|--------------------|
||o--------------------|--------------------|
||---------------------|--------------------|
||---------------------|--------------------|
||o---9-10---10----9---|---9-10---10----9---|
||--0-7--7----7----7---|-0-7--7----7----7---|


  PM-----------|  ~~~     PM---------|  ~~~
  E E  E  E  E E  Q     E E  E  E  E E  Q
|---------------------|-----------------------||
|---------------------|----------------------o||
|---------------------|-----------------------||
|---------------------|-----------------------||
|---9-10-12-10-9-[7]--|---9-10-12-10-9-[7]---o||
|-0-0--0--0--0-0------|-0-0--0--0--0-0--------||
|
| PM-----------|        PM-----------|
| E E  E  E  E E  Q     E E  E  E  E E  Q
|---------------------|-----------------------||
|---------------------|----------------------o||
|---------------------|-----------------------||
|---------------------|-----------------------||
|---9-10-12-10-9--7---|---9-10-12-10-9--7----o||
|-0-0--0--0--0-0--0---|-0-0--0--0--0-0--0-----||


  E5
  Gtr IV
           ~~~         ~~~
  Q  E  E  Q    E E    Q   E  E E E  E E
|-------------------|--------------------|
|-------------------|--------------------|
|---------[7]-------|--------------------|
|----9-10------10-9-|-[7]--7-10-9-7------|
|-------------------|---------------10-9-|
|-0-----------------|--------------------|
|
| Gtrs II, III
| W                   +W
|-------------------|--------------------|
|-------------------|--------------------|
|-------------------|--------------------|
|-------------------|--------------------|
|-2-----------------|-(2)----------------|
|-0-----------------|-(0)----------------|


                        D   F#m Em  D
             ~~~          PM
  E E E   E  Q    E E   E E E E E E Q
|---------------------|----------------|
|---------------------|----------------|
|-----------[7]-------|----------------|
|-----9--10------10-9-|-4---7---5---4--|
|-7-------------------|-5---9---7---5--|
|---------------------|----------------|
|
| Q   H.                W
|---------------------|----------------|
|---------------------|----------------|
|---------------------|----------------|
|---------------------|----------------|
|-2-------------------|----------------|
|-0-------------------|----------------|


  E5
           ~~~         ~~~~~
  Q  E  E  Q    E E    Q     E  E E E  E E
|-------------------|----------------------|
|-------------------|----------------------|
|---------[7]-------|----------------------|
|----9-10------10-9-|-[7]----7-10-9-7------|
|-------------------|-----------------10-9-|
|-0-----------------|----------------------|
|
| W                    W
|-------------------|----------------------|
|-------------------|----------------------|
|-------------------|----------------------|
|-------------------|--0tr2----------------|
|-2-----------------|----------------------|
|-0-----------------|----------------------|


                                    D
              ~~~          ~~~~~
  E E  E   E  Q    E E     H.        Q
|----------------------|------------------||
|----------------------|------------------||
|------------[7]-------|------------------||
|------9--10------10-9-|--[7]--------4----||
|-7--------------------|-------------5----||
|----------------------|------------------||
|
|      <
| Q    H.                 +H.       +E  E
|----------------------|------------------||
|-----<7>--------------|-(<7>)------(7)---||
|----------------------|------------------||
|----------------------|------------------||
|-2--------------------|------------------||
|-0--------------------|------------------||


    E5
    Gtr III
    PM-------|     ~~~   PM-------|     ~~~
    E E  E E  q    Q     E E  E E  q    Q
||---------------------|--------------------|
||o--------------------|--------------------|
||---------------------|--------------------|
||---------------------|--------------------|
||o---9-10---10---[9]--|---9-10---10---[9]--|
||--0-7--7----7--------|-0-7--7----7--------|
|
|   Gtr II
|   PM--|     PM   ~~~   PM--|     PM   ~~~
|   E E  E E  E E  Q     E E  E E  E E  Q
||---------------------|--------------------|
||o--------------------|--------------------|
||---------------------|--------------------|
||---------------------|--------------------|
||o---9-10---10----9---|---9-10---10----9---|
||--0-7--7----7----7---|-0-7--7----7----7---|


  PM-----------|  ~~~     PM---------|  ~~~
  E E  E  E  E E  Q     E E  E  E  E E  Q
|---------------------|-----------------------||
|---------------------|----------------------o||
|---------------------|-----------------------||
|---------------------|-----------------------||
|---9-10-12-10-9-[7]--|---9-10-12-10-9-[7]---o||
|-0-0--0--0--0-0------|-0-0--0--0--0-0--------||
|
| PM-----------|        PM-----------|
| E E  E  E  E E  Q     E E  E  E  E E  Q
|---------------------|-----------------------||
|---------------------|----------------------o||
|---------------------|-----------------------||
|---------------------|-----------------------||
|---9-10-12-10-9--7---|---9-10-12-10-9--7----o||
|-0-0--0--0--0-0--0---|-0-0--0--0--0-0--0-----||


   Verse
    $
    E5
    Gtrs II, III, IV
    E E E E E E E E   E E E E E E E E
||------------------|-----------------|
||o-----------------|-----------------|
||------------------|-----------------|
||--9-9-9---9-9-9---|-9-9-9---9-9-9---|
||o-7-7-7---7-7-7---|-7-7-7---7-7-7---|
||------------------|-----------------|


  C/E
   E  E  E E  E  E  E E    E  E  E E  E  E  E E
|-----------------------|------------------------|
|-----------------------|------------------------|
|-----------------------|------------------------|
|-10-10-10---10-10-10---|-10-10-10---10-10-10----|
|--7--7--7----7--7--7---|--7--7--7----7--7--7----|
|-----------------------|------------------------|


  F#m                                 E5                          D5
  Gtr IV
  E E E E E E E E   E E E E E E E E   E E E E E E E E   E E E E E Q.
|-----------------|-----------------|-----------------|-----------------||
|-----------------|-----------------|-----------------|----------------o||
|-0-0-0---0-0-0---|-0-0-0---0-0-0---|-----------------|-----------------||
|-7-7-7---7-7-7---|-7-7-7---7-7-7---|-9-9-9---9-9-9---|-9-9-9-9-9-7-----||
|-9-9-9---9-9-9---|-9-9-9---9-9-9---|-7-7-7---7-7-7---|-7-7-7-7-7-5----o||
|-----------------|-----------------|-----------------|-----------------||
|
| Gtrs II, III
| E E E E E E E E   E E E E E E E E   E E E E E E E E   E E E E E Q.
|-----------------|-----------------|-----------------|-----------------||
|-----------------|-----------------|-----------------|----------------o||
|-----------------|-----------------|-----------------|-----------------||
|-7-7-7---7-7-7---|-7-7-7---7-7-7---|-9-9-9---9-9-9---|-9-9-9-9-9-7-----||
|-9-9-9---9-9-9---|-9-9-9---9-9-9---|-7-7-7---7-7-7---|-7-7-7-7-7-5----o||
|-----------------|-----------------|-----------------|-----------------||


    E5
    Gtr III
    E E Q   Q   Q     E E Q   E E Q
||------------------|-----------------|
||o-----------------|-----------------|
||------------------|-----------------|
||------4---5---4---|---------2-2-----|
||o-----------------|-5-5-2-------2---|
||--0-0-------------|-----------------|
|
|   Gtrs II, IV
|   E E E E E E E E   E E E E E E E E
||------------------|-----------------|
||o-----------------|-----------------|
||------------------|-----------------|
||--9-9-9---9-9-9---|-9-9-9---9-9-9---|
||o-7-7-7---7-7-7---|-7-7-7---7-7-7---|
||------------------|-----------------|


  C/E
   E  E  Q    Q     Q      E  E  Q    E  E  Q
|-----------------------|------------------------|
|-----------------------|------------------------|
|-----------------------|------------------------|
|--------4----5-----4---|-------------2--2-------|
|-/3--3-----------------|--5--5--2----------2----|
|-----------------------|------------------------|
|
|  E  E  E E  E  E  E E    E  E  E E  E  E  E E
|-----------------------|------------------------|
|-----------------------|------------------------|
|-----------------------|------------------------|
|-10-10-10---10-10-10---|-10-10-10---10-10-10----|
|--7--7--7----7--7--7---|--7--7--7----7--7--7----|
|-----------------------|------------------------|


                                                                    To Coda
  F#m                                    E5                             D5
  Gtr III
   E E Q    Q   Q     Q    Q   Q   Q      E E Q    Q   Q     Q    Q   E Q.
|-------------------|------------------|-------------------|------------------||
|-------------------|------------------|-------------------|-----------------o||
|-------------------|------------------|-------------------|------------------||
|------9---10---9---|-7----------------|------9---10---9---|-7----------------||
|-/7-7--------------|-----10---9---7---|-/7-7--------------|-----10---9S5----o||
|-------------------|------------------|-------------------|------------------||
|
| Gtr IV
|  E E E E  E E E E   E E  E E E E E E    E E E E  E E E E   E E  E E E Q.
|-------------------|------------------|-------------------|------------------||
|-------------------|------------------|-------------------|-----------------o||
|--0-0-0----0-0-0---|-0-0--0---0-0-0---|-------------------|------------------||
|--7-7-7----7-7-7---|-7-7--7---7-7-7---|--9-9-9----9-9-9---|-9-9--9-9-9-7-----||
|--9-9-9----9-9-9---|-9-9--9---9-9-9---|--7-7-7----7-7-7---|-7-7--7-7-7-5----o||
|-------------------|------------------|-------------------|------------------||
|
| Gtr II
|  E E E E  E E E E   E E  E E E E E E    E E E E  E E E E   E E  E E E Q.
|-------------------|------------------|-------------------|------------------||
|-------------------|------------------|-------------------|-----------------o||
|-------------------|------------------|-------------------|------------------||
|--7-7-7----7-7-7---|-7-7--7---7-7-7---|--9-9-9----9-9-9---|-9-9--9-9-9-7-----||
|--9-9-9----9-9-9---|-9-9--9---9-9-9---|--7-7-7----7-7-7---|-7-7--7-7-7-5----o||
|-------------------|------------------|-------------------|------------------||


 Chorus
  F5
  Gtr IV
   PM--------------------------------------------------------
   E  E  E  E  E      E  Q     E  E  E  E  E      E      Q
|-------15-----------13-----|-------12-----------13---------|
|----10-------10------------|----10-------10----------------|
|-10-------10---------------|-10-------10-------------------|
|---------------------------|-------------------------------|
|---------------------------|-------------------------------|
|---------------------------|-------------------------------|
|
| Gtr III
|  PM---|      PM     ~~~      PM---|      PM     ~~~~~~~
|  E  E  E  E  E a a  Q.       E  E  E  E  E a a  Q.
|---------------------------|-------------------------------|
|---------------------------|-------------------------------|
|--------------------[2]----|--------------------[2]--------|
|--3--3--3---------x--------|--3--3--3---------x------------|
|--3--3--3-----3-x----------|--3--3--3-----3-x--------------|
|--1--1--1------------------|--1--1--1----------------------|
|
| Gtr II
|  PM---|      PM     ~~~      PM---|      PM     ~~~~~~~
|  E  E  E  E  E a a  Q.       E  E  E  E  E a a  Q.
|---------------------------|-------------------------------|
|---------------------------|-------------------------------|
|--------------------[2]----|--------------------[2]b2.5----|
|--3--3--3---------x--------|--3--3--3---------x------------|
|--3--3--3-----3-x----------|--3--3--3-----3-x--------------|
|--1--1--1------------------|--1--1--1----------------------|


 --------------------------------|
   E  E  E  E  E      E  Q     E  E  Q    E  E  Q
|-------15-----------13-----|-------12---13p12------|
|----10-------10------------|----10------------13---|
|-10-------10---------------|-10--------------------|
|---------------------------|-----------------------|
|---------------------------|-----------------------|
|---------------------------|-----------------------|
|
|  PM---|      PM     ~~~      PM-----------|     PM
|  E  E  E  E  E a a  Q.       E  E  E E  E  E  E E
|---------------------------|-----------------------|
|---------------------------|-----------------------|
|--------------------[2]----|-----------------------|
|--3--3--3---------x--------|--3--3----3--3--3----3-|
|--3--3--3-----3-x----------|--3--3----3--3--3----3-|
|--1--1--1------------------|--1--1----1--1--1----1-|
|
|  PM---|      PM     ~~~      PM-----------|     PM
|  E  E  E  E  E a a  Q.       E  E  E E  E  E  E E
|---------------------------|-----------------------|
|---------------------------|-----------------------|
|--------------------[2]----|-----------------------|
|--3--3--3---------x--------|--3--3----3--3--3----3-|
|--3--3--3-----3-x----------|--3--3----3--3--3----3-|
|--1--1--1------------------|--1--1----1--1--1----1-|


  Am                           C
  Gtr IV
      ~~~~~~~~~~~~~~~~
   a  W           +W            W           W
|--------------|-------------|-----------|--------|
|-12s13--------|-(13)--------|-----------|--------|
|--------------|-------------|-----------|--------|
|--------------|-------------|-----------|--------|
|--------------|-------------|-----------|--------|
|--------------|-------------|-----------|--------|
|
|    Gtrs I, II, III
|     W           +W            W          +W
|----^0--------|--(0)--------|-^0--------|-(0)----|
|----^1--------|--(1)--------|-^1--------|-(1)----|
|----^2--------|--(2)--------|-^0--------|-(0)----|
|----^2--------|--(2)--------|-^2--------|-(2)----|
|----^0--------|--(0)--------|-^3--------|-(3)----|
|--------------|-------------|-----------|--------|


  F5
  Gtr IV
   PM--------------------------------------------------------
   E  E  E  E  E      E  Q     E  E  E  E  E      E      Q
|-------15-----------13-----|-------12-----------13---------|
|----10-------10------------|----10-------10----------------|
|-10-------10---------------|-10-------10-------------------|
|---------------------------|-------------------------------|
|---------------------------|-------------------------------|
|---------------------------|-------------------------------|
|
| Gtr III
|  PM---|      PM     ~~~      PM---|      PM     ~~~~~~~
|  E  E  E  E  E a a  Q.       E  E  E  E  E a a  Q.
|---------------------------|-------------------------------|
|---------------------------|-------------------------------|
|--------------------[2]----|--------------------[2]--------|
|--3--3--3---------x--------|--3--3--3---------x------------|
|--3--3--3-----3-x----------|--3--3--3-----3-x--------------|
|--1--1--1------------------|--1--1--1----------------------|
|
| Gtr II
|  PM---|      PM     ~~~      PM---|      PM     ~~~~~~~
|  E  E  E  E  E a a  Q.       E  E  E  E  E a a  Q.
|---------------------------|-------------------------------|
|---------------------------|-------------------------------|
|--------------------[2]----|--------------------[2]b2.5----|
|--3--3--3---------x--------|--3--3--3---------x------------|
|--3--3--3-----3-x----------|--3--3--3-----3-x--------------|
|--1--1--1------------------|--1--1--1----------------------|


 ------------------------------------|
   E  E  E  E  E      E      Q     E  E  Q    E  E  Q
|-------15-----------13---------|-------12---13p12------|
|----10-------10----------------|----10------------13---|
|-10-------10-------------------|-10--------------------|
|-------------------------------|-----------------------|
|-------------------------------|-----------------------|
|-------------------------------|-----------------------|
|
|  PM---|      PM     ~~~~~~~      PM-----------|     PM
|  E  E  E  E  E a a  Q.           E  E  E E  E  E  E E
|-------------------------------|-----------------------|
|-------------------------------|-----------------------|
|--------------------[2]--------|-----------------------|
|--3--3--3---------x------------|--3--3----3--3--3----3-|
|--3--3--3-----3-x--------------|--3--3----3--3--3----3-|
|--1--1--1----------------------|--1--1----1--1--1----1-|
|
|  PM---|      PM     ~~~~~~~      PM-----------|     PM
|  E  E  E  E  E a a  Q.           E  E  E E  E  E  E E
|-------------------------------|-----------------------|
|-------------------------------|-----------------------|
|--------------------[2]b2.5----|-----------------------|
|--3--3--3---------x------------|--3--3----3--3--3----3-|
|--3--3--3-----3-x--------------|--3--3----3--3--3----3-|
|--1--1--1----------------------|--1--1----1--1--1----1-|


                                            D.S. al Coda
  Am                           C
  Gtr IV
      ~~~~~~~~~~~~~~~~
   a  W           +W            W           H      H
|--------------|-------------|-----------|------------------||
|-12s13--------|-(13)--------|-----------|--------15b17-----||
|--------------|-------------|-----------|------------------||
|--------------|-------------|-----------|------------------||
|--------------|-------------|-----------|------------------||
|--------------|-------------|-----------|------------------||
|
|    Gtrs I, II, III
|     W           +W            W          +W
|----^0--------|--(0)--------|-^0--------|-(0)--------------||
|----^1--------|--(1)--------|-^1--------|-(1)--------------||
|----^2--------|--(2)--------|-^0--------|-(0)--------------||
|----^2--------|--(2)--------|-^2--------|-(2)--------------||
|----^0--------|--(0)--------|-^3--------|-(3)--------------||
|--------------|-------------|-----------|------------------||


 Chorus 2
  &
  F5
  Gtr IV
   PM--------------------------------------------------------------------
   E  E  E  E  E      E      Q           E  E  E  E  E      E     Q
|-------15-----------13---------------|-------12-----------13-----------|
|----10-------10----------------------|----10-------10------------------|
|-10-------10-------------------------|-10-------10---------------------|
|-------------------------------------|---------------------------------|
|-------------------------------------|---------------------------------|
|-------------------------------------|---------------------------------|
|
| Gtr III
|  PM---|      PM                        PM---|      PM
|  E  E  E  E  E a a  E     +E  +E       E  E  E  E  E a a  Q       +E
|-------------------------------------|---------------------------------|
|-------------------------------------|---------------------------------|
|--------------------[2]b3==(2)r(2)---|--------------------[2]pb4r==(2)-|
|--3--3--3---------x------------------|--3--3--3---------x--------------|
|--3--3--3-----3-x--------------------|--3--3--3-----3-x----------------|
|--1--1--1----------------------------|--1--1--1------------------------|
|
| Gtr II
|  PM---|      PM                        PM---|      PM
|  E  E  E  E  E a a  E     +E  +S  S    E  E  E  E  E a a  Q       +E
|-------------------------------------|---------------------------------|
|-------------------------------------|---------------------------------|
|---------------------2b3===(2)r(2)p0-|---------------------2pb4r===(2)-|
|--3--3--3---------x------------------|--3--3--3---------x--------------|
|--3--3--3-----3-x--------------------|--3--3--3-----3-x----------------|
|--1--1--1----------------------------|--1--1--1------------------------|


 ------------------------------------------|
   E  E  E  E  E      E      Q           E  E  Q    E  E  Q
|-------15-----------13---------------|-------12---13p12-------|
|----10-------10----------------------|----10------------13----|
|-10-------10-------------------------|-10---------------------|
|-------------------------------------|------------------------|
|-------------------------------------|------------------------|
|-------------------------------------|------------------------|
|
|  PM---|      PM                        PM-----------|     PM
|  E  E  E  E  E a a  E     +E  +E       E  E  E E  E  E  E E
|-------------------------------------|------------------------|
|-------------------------------------|------------------------|
|--------------------[2]b3==(2)r(2)---|------------------------|
|--3--3--3---------x------------------|--3--3----3--3--3----3--|
|--3--3--3-----3-x--------------------|--3--3----3--3--3----3--|
|--1--1--1----------------------------|--1--1----1--1--1----1--|
|
|  PM---|      PM                        PM-----------|     PM
|  E  E  E  E  E a a  E     +E  +S  S    E  E  E E  E  E  E E
|-------------------------------------|------------------------|
|-------------------------------------|------------------------|
|---------------------2b3===(2)r(2)p0-|------------------------|
|--3--3--3---------x------------------|--3--3----3--3--3----3--|
|--3--3--3-----3-x--------------------|--3--3----3--3--3----3--|
|--1--1--1----------------------------|--1--1----1--1--1----1--|


  Am                           C
  Gtr IV
      ~~~~~~~~~~~~~~~~
   a  W           +W            W           W
|--------------|-------------|-----------|--------|
|-12s13--------|-(13)--------|-----------|--------|
|--------------|-------------|-----------|--------|
|--------------|-------------|-----------|--------|
|--------------|-------------|-----------|--------|
|--------------|-------------|-----------|--------|
|
|    Gtrs I, II, III
|     W           +W            W          +W
|----^0--------|--(0)--------|-^0--------|-(0)----|
|----^1--------|--(1)--------|-^1--------|-(1)----|
|----^2--------|--(2)--------|-^0--------|-(0)----|
|----^2--------|--(2)--------|-^2--------|-(2)----|
|----^0--------|--(0)--------|-^3--------|-(3)----|
|--------------|-------------|-----------|--------|


  F5
  Gtr IV
   PM------------------------------------------------------------------
   E  E  E  E  E      E     Q        E  E  E  E  E      E      Q
|-------15-----------13-----------|-------12-----------13-------------|
|----10-------10------------------|----10-------10--------------------|
|-10-------10---------------------|-10-------10-----------------------|
|---------------------------------|-----------------------------------|
|---------------------------------|-----------------------------------|
|---------------------------------|-----------------------------------|
|
| Gtr III
|  PM---------|                      PM---------|
|  E  E  E  E  E a a  Q       +E     E  E  E  E  E a a  E     +E  +E
|---------------------------------|-----------------------------------|
|---------------------------------|-----------------------------------|
|--------------------[2]pb4r==(2)-|--------------------[2]b4==(2)r(2)-|
|--3--3--3---------x--------------|--3--3--3---------x----------------|
|--3--3--3-----3-x----------------|--3--3--3-----3-x------------------|
|--1--1--1------------------------|--1--1--1--------------------------|
|
| Gtr II
|  PM---|      PM                    PM---|      PM
|  E  E  E  E  E a a  Q       +E     E  E  E  E  E a a  E     +E  +E
|---------------------------------|-----------------------------------|
|---------------------------------|-----------------------------------|
|--------------------[2]pb4r==(2)-|--------------------[2]b4==(2)r(2)-|
|--3--3--3---------x--------------|--3--3--3---------x----------------|
|--3--3--3-----3-x----------------|--3--3--3-----3-x------------------|
|--1--1--1------------------------|--1--1--1--------------------------|


 ------------------------------------------|
   E  E  E  E  E      E      Q           E  E  Q    E  E  Q
|-------15-----------13---------------|-------12---13p12--------|
|----10-------10----------------------|----10------------13-----|
|-10-------10-------------------------|-10----------------------|
|-------------------------------------|-------------------------|
|-------------------------------------|-------------------------|
|-------------------------------------|-------------------------|
|
|  PM---|      PM                        PM-----------|     PM
|  E  E  E  E  E a a  E     +E  +E       E  E  E E  E  E  E E
|-------------------------------------|-------------------------|
|-------------------------------------|-------------------------|
|--------------------[2]b5==(2)r(2)---|-------------------------|
|--3--3--3---------x------------------|--3--3----3--3--3----3---|
|--3--3--3-----x-x--------------------|--3--3----3--3--3----3---|
|--1--1--1----------------------------|--1--1----1--1--1----1---|
|
|  PM---|      PM                        PM-----------|     PM
|  E  E  E  E  E a a  E     +E  +S  S    E  E  E E  E  E  E E
|-------------------------------------|-------------------------|
|-------------------------------------|-------------------------|
|--------------------[2]b5==(2)r(2)p0-|-------------------------|
|--3--3--3---------x------------------|--3--3----3--3--3----3---|
|--3--3--3-----3-x--------------------|--3--3----3--3--3----3---|
|--1--1--1----------------------------|--1--1----1--1--1----1---|


  Am                           C
  Gtr IV
      ~~~~~~~~~~~~~~~~
   a  W           +W            W           W
|--------------|-------------|-----------|--------||
|-12s13--------|-(13)--------|-----------|--------||
|--------------|-------------|-----------|--------||
|--------------|-------------|-----------|--------||
|--------------|-------------|-----------|--------||
|--------------|-------------|-----------|--------||
|
|    Gtrs I, II, III
|     W           +W            W          +W
|----^0--------|--(0)--------|-^0--------|-(0)----||
|----^1--------|--(1)--------|-^1--------|-(1)----||
|----^2--------|--(2)--------|-^0--------|-(0)----||
|----^2--------|--(2)--------|-^2--------|-(2)----||
|----^0--------|--(0)--------|-^3--------|-(3)----||
|--------------|-------------|-----------|--------||


 Bridge
  F5/C                                A5
  Gtr II
  PM---------------------------------------------------------------|    PM
  E E E E E E E E   E E E E E E E E   E E E E E E  E E   E E E E E E  E E
|-----------------|-----------------|------------------|------------------|
|-----------------|-----------------|------------------|------------------|
|-----------------|-----------------|------------------|------------------|
|-----------------|-----------------|------------------|------------------|
|-3-3---3-3-3---3-|-3-3---3-3-3---3-|-7-7---7-7-7----7-|-7-7---7-7-7----7-|
|-1-1---1-1-1---1-|-1-1---1-1-1---1-|-5-5---5-5-5----5-|-5-5---5-5-5----5-|
|
| Gtr III
| PM|   PM--|   PM----|   PM--|   PM----|   PM--|    PM----|   PM--|    PM
| E E E E E E E E   E E E E E E E E   E E E E E E  E E   E E E E E E  E E
|-----5-------8---|-----5-------8---|-----8-------12---|-----8-------12---|
|-----------------|-----------------|------------------|------------------|
|-----------------|-----------------|------------------|------------------|
|-3-3---3-3-3---3-|-3-3---3-3-3---3-|-7-7---7-7-7----7-|-7-7---7-7-7----7-|
|-----------------|-----------------|------------------|------------------|
|-----------------|-----------------|------------------|------------------|


  G5                                    F5
  PM--------------------------------------------------------------------|
  E E E E E E  E E   E E E E E E  E E   E E E E E E E E   E E E E E E E E
|------------------|------------------|-----------------|-----------------|
|------------------|------------------|-----------------|-----------------|
|------------------|------------------|-----------------|-----------------|
|------------------|------------------|-----------------|-----------------|
|-5-5---5-5-5----5-|-5-5---5-5-5----5-|-3-3---3-3-3---3-|-3-3---3-3-3---3-|
|-3-3---3-3-3----3-|-3-3---3-3-3----5-|-1-1---1-1-1---1-|-1-1---1-1-1---1-|
|
| PM|   PM--|    PM----|   PM--|    PM----|   PM--|   PM----|   PM--|   PM
| E E E E E E  E E   E E E E E E  E E   E E E E E E E E   E E E E E E E E
|-----7-------10---|-----7-------10---|-----5-------8---|-----5-------8---|
|------------------|------------------|-----------------|-----------------|
|------------------|------------------|-----------------|-----------------|
|-5-5---5-5-5----5-|-5-5---5-5-5----5-|-3-3---3-3-3---3-|-3-3---3-3-3---3-|
|------------------|------------------|-----------------|-----------------|
|------------------|------------------|-----------------|-----------------|


  F5                                   A5
  Gtr IV
  W                 +W                 W                 +W
  |                  |                 |                  |
  /                  /                 /                  /

  Gtr II
  PM--------------------------------------------------------------------|
  E E E E E E E E    E E E E E E E E   E E E E E E E E    E E E E E E E E
|-----------------|------------------|-----------------|------------------|
|-----------------|------------------|-----------------|------------------|
|-----------------|------------------|-----------------|------------------|
|-----------------|------------------|-----------------|------------------|
|-3-3-3-3-3-3-3-3-|--3-3-3-3-3-3-3-3-|-7-7-7-7-7-7-7-7-|--7-7-7-7-7-7-7-7-|
|-1-1-1-1-1-1-1-1-|--1-1-1-1-1-1-1-1-|-5-5-5-5-5-5-5-5-|--5-5-5-5-5-5-5-5-|
|
| Gtr III
| PM|   PM--|   PM-----|   PM--|   PM----|   PM--|   PM-----|   PM--|   PM
| E E E E E E E E    E E E E E E E E   E E E E E E E E    E E E E E E E E
|-----------------|------------------|-----------------|------------------|
|-----------------|------------------|-----------------|------------------|
|-----2-------5---|------2-------5---|-----5-------9---|------5-------9---|
|-3-3---3-3-3---3-|--3-3---3-3-3---3-|-7-7---7-7-7---7-|--7-7---7-7-7---7-|
|-----------------|------------------|-----------------|------------------|
|-----------------|------------------|-----------------|------------------|


  G5
  W                 +W
  |                  |
  /                  /

  PM----------------------------------
  E E E E E E E E    E E E E E E E E
|-----------------|------------------|
|-----------------|------------------|
|-----------------|------------------|
|-----------------|------------------|
|-5-5-5-5-5-5-5-5-|--5-5-5-5-5-5-5-5-|
|-3-3-3-3-3-3-3-3-|--3-3-3-3-3-3-3-5-|
|
| PM|   PM--|   PM-----|   PM--|   PM-
| E E E E E E E E    E E E E E E E E
|-----------------|------------------|
|-----------------|------------------|
|-----4-------7---|------4-------7---|
|-5-5---5-5-5---5-|--5-5---5-5-5---5-|
|-----------------|------------------|
|-----------------|------------------|


  F5
  W                 +H                E Q.
  |                  |                |
  /                  /                /

 -------------------------------------|
  E E E E E E E E    E     E     E  E E Q.
|-----------------|--------------------------||
|-----------------|--------------------------||
|-----------------|--------------------------||
|-----------------|--------------------------||
|-3-3-3-3-3-3-3-3-|--3-----3-----3--3-3------||
|-1-1-1-1-1-1-1-1-|--1-----1-----1--1-1------||
|
|---|   PM--|
| E E E E E E E E    S  S  S  S  Q    H
|-----------------|-15p12----15p12\----------||
|-----------------|-------15-----------------||
|-----2-------5---|--------------------------||
|-3-3---3-3-3-----|--------------------------||
|-----------------|--------------------------||
|-----------------|--------------------------||


 Guitar Solo
  E5
  Gtr III
                                                                              ~~~~
   |---3---|  |---3---|  |---3---|  |---3---|    |---3---|  |---3---|
   E  E    E  E  E    E  E  E    E  E  E    E    E  E    E  E  E    E  E     +Q    E
|---------------------------------------------|--------------------------------------|
|-15p12------15p12------15p12------15p12------|-15p12------15p12------15b17-(15)-----|
|---------14---------14---------14---------14-|---------14---------14----------------|
|---------------------------------------------|--------------------------------------|
|---------------------------------------------|--------------------------------------|
|---------------------------------------------|--------------------------------------|
|
| Gtrs II, IV
|  E    E     E    E     E    E     E    E       E    E     E    E     E      E  E E
|---------------------------------------------|--------------------------------------|
|---------------------------------------------|--------------------------------------|
|---------------------------------------------|--------------------------------------|
|--9----9-----9----------9----9-----9---------|--9----9-----9----------9------9--9---|
|--7----7-----7----------7----7-----7---------|--7----7-----7----------7------7--7---|
|---------------------------------------------|--------------------------------------|


  C/E
                                     ~~~~~~~~~~~
   Q        E  E  Q        +E   E    Q     +Q       Q     E  E
|-17b19----17-15-15b17r===(15)----|----------------------------|
|------------------------------17-|-17----(17)\----------15-17-|
|---------------------------------|---------------/16----------|
|---------------------------------|----------------------------|
|---------------------------------|----------------------------|
|---------------------------------|----------------------------|
|
|  E     E  E  E  E     E   E   E    E  E   E   E   E  E  E  E
|---------------------------------|----------------------------|
|---------------------------------|----------------------------|
|---------------------------------|----------------------------|
|-10----10-10----10----10--10-----|-10-10--10------10-10-10----|
|--7-----7--7-----7-----7---7-----|--7--7---7-------7--7--7----|
|---------------------------------|----------------------------|


  F#m
  Gtr III
                                               |--3--|
   E  E  E  E  E  E  E  E    E  E  E  E  E  E  S  S  S  E
|-12s14-17-17-14-15-15-12-|-14-14----12-12----------------|
|-------------------------|-------15-------13-12h13p12----|
|-------------------------|----------------------------14-|
|-------------------------|-------------------------------|
|-------------------------|-------------------------------|
|-------------------------|-------------------------------|
|
| Gtr IV
|  E  E  E  E  E  E  E  E    E  E  E  E  E  E  E        E
|-------------------------|-------------------------------|
|-------------------------|-------------------------------|
|--0--0--0-----0--0--0----|--0--0--0-----0--0--0----------|
|--7--7--7-----7--7--7----|--7--7--7-----7--7--7----------|
|--9--9--9-----9--9--9----|--9--9--9-----9--9--9----------|
|-------------------------|-------------------------------|
|
| Gtr II
|  E  E  E  E  E  E  E  E    E  E  E  E  E  E  E        E
|-------------------------|-------------------------------|
|-------------------------|-------------------------------|
|-------------------------|-------------------------------|
|--7--7--7-----7--7--7----|--7--7--7-----7--7--7----------|
|--9--9--9-----9--9--9----|--9--9--9-----9--9--9----------|
|-------------------------|-------------------------------|


  E5                                     D5
                               ~~~~~~
   E  E  E  E  E  a  E Q     E E +H.
|--------------------------|-------------------|
|-12----------12-12s17-----|-------------------|
|----12-14-15--------------|-7s9-(9)-----------|
|--------------------------|-------------------|
|--------------------------|-------------------|
|--------------------------|-------------------|
|
|  E  E  E  E  E     E E E   E E  E  E E Q.
|--------------------------|-------------------|
|--------------------------|-------------------|
|--------------------------|-------------------|
|--9--9--9-----9-----9-9---|-9-9--9--9-9-7-----|
|--7--7--7-----7-----7-7---|-7-7--7--7-7-5-----|
|--------------------------|-------------------|
|
|  E  E  E  E  E     E E E   E E  E  E E Q.
|--------------------------|-------------------|
|--------------------------|-------------------|
|--------------------------|-------------------|
|--9--9--9-----9-----9-9---|-9-9--9--9-9-7-----|
|--7--7--7-----7-----7-7---|-7-7--7--7-7-5-----|
|--------------------------|-------------------|


  E5
  Gtr II
   PM-----|                                                   ~~~~~~~~~~~~
   |---3---|
   E  E    E  Q        +E   +Q      E       +Q.      S  S  S  S  +E   +E   S  S
|---------12-10b12====(10)-(10)r---10b12r|=(10)---------------------------------|
|-10-12----------------------------------|----------12p10-12s13-(13)-(13)-15h17-|
|----------------------------------------|--------------------------------------|
|----------------------------------------|--------------------------------------|
|----------------------------------------|--------------------------------------|
|----------------------------------------|--------------------------------------|
|
| Gtrs III, IV
|  E    E     E     E   E    E   E  E        E  E E  E     E      E    E   E
|----------------------------------------|--------------------------------------|
|----------------------------------------|--------------------------------------|
|----------------------------------------|--------------------------------------|
|--9----9-----9---------9----9---9-------|---9--9-9--------9------9----9--------|
|--7----7-----7---------7----7---7-------|---7--7-7--------7------7----7--------|
|----------------------------------------|--------------------------------------|


  C/E
                                                        PM-------|   ~~~~
                                                  |--3--|  |--3--|
   +E      +E   +Q.       +S   E        +E.      +Q     E  E E   E   Q.       S S
|---------------------------------------------|------------------0-----------------|
|-(17)b20-(17)-(17)------(17)-17b20r===(17)---|-(17)---------0---------------------|
|---------------------------------------------|------------0-------[12]---------0--|
|---------------------------------------------|---------0--------------------------|
|---------------------------------------------|------------------------------------|
|---------------------------------------------|------------------------------------|
|
|   E       E    E  E  E   E         E      E     E   E    E   E     E   E  E E
|---------------------------------------------|------------------------------------|
|---------------------------------------------|------------------------------------|
|---------------------------------------------|------------------------------------|
|--10------10---10----10--10--------10--------|--10--10---10--------10--10-10------|
|---7-------7----7-----7---7---------7--------|---7---7----7---------7---7--7------|
|---------------------------------------------|------------------------------------|


  F#m
  Gtr II
                         ~~
   |--------3---------|
   E  E    E  E  E    E  H          +Q.     E E E E S S
|--------------------------------|----------------------|
|--------------------------------|----------------------|
|-16p14---16----14---------------|----------------------|
|------------17------16----------|------------------4h5p|
|-----------------------17-------|-(17)s====0-3h5-------|
|--------------------------------|----------------------|
|
| Gtr IV
|  E    E     E    E     E E E E     E  E E E E E E E
|--------------------------------|----------------------|
|--------------------------------|----------------------|
|--0----0-----0----------0-0-0---|---0--0-0---0-0-0-----|
|--7----7-----7----------7-7-7---|---7--7-7---7-7-7-----|
|--9----9-----9----------9-9-9---|---9--9-9---9-9-9-----|
|--------------------------------|----------------------|
|
| Gtr III
|  E    E     E    E     E E E E     E  E E E E E E E
|--------------------------------|----------------------|
|--------------------------------|----------------------|
|--------------------------------|----------------------|
|--7----7-----7----------7-7-7---|---7--7-7---7-7-7-----|
|--9----9-----9----------9-9-9---|---9--9-9---9-9-9-----|
|--------------------------------|----------------------|


    E5                                 D5
                           ~
  S S E Q.     E S E   S   Q   +E  E E Q.
|------------------------|-------------------|
|------------------------|-------------------|
|------------------------|-------------------|
|-4p2p0--------2---4-----|-5---(5)-4-2-0-----|
|------------------------|-------------------|
|------------------------|-------------------|
|
| E   E E  E E E E   E     E E  E  E E Q.
|------------------------|-------------------|
|------------------------|-------------------|
|------------------------|-------------------|
|-9---9-9----9-9-9-------|-9-9--9--9-9-7-----|
|-7---7-7----7-7-7-------|-7-7--7--7-7-5-----|
|------------------------|-------------------|
|
| E   E E  E E E E   E     E E  E  E E Q.
|------------------------|-------------------|
|------------------------|-------------------|
|------------------------|-------------------|
|-9---9-9----9-9-9-------|-9-9--9--9-9-7-----|
|-7---7-7----7-7-7-------|-7-7--7--7-7-5-----|
|------------------------|-------------------|


  E5
  Gtr III
                                                       ~~
            |--3--|  |--3--|
   E  E  E  S  S  S  S  S  S  E  E  E    E  S  S  Q    H
|-------------------------------------|------------------------|
|----10-12-13h15p13p12h13p12-10-12-10-|------------------------|
|-11----------------------------------|-12-11h12p11---11-------|
|-------------------------------------|------------------------|
|-------------------------------------|------------------------|
|-------------------------------------|------------------------|
|
| Gtrs II, IV
|  E  E  E  E        E        E  E  E    E  E     E E  E E E E
|-------------------------------------|------------------------|
|-------------------------------------|------------------------|
|-------------------------------------|------------------------|
|--9--9--9-----------9--------9--9----|--9--9-----9----9-9-9---|
|--7--7--7-----------7--------7--7----|--7--7-----7----7-7-7---|
|-------------------------------------|------------------------|


  C/E
                   ~~                           ~~~
   E +E     +Q     H            E +E     +Q     Q.       E
|----------------------------|------------------------------|
|----------------------------|------------------------------|
|--9-(9)b11r(9)--------------|--9-(9)b11r(9)----------------|
|------------------9---------|------------------9-----------|
|----------------------------|------------------------------|
|----------------------------|------------------------------|
|
|  E  E      E  E  E  E  E E    E  E      E  E  E   E  E E
|----------------------------|------------------------------|
|----------------------------|------------------------------|
|----------------------------|------------------------------|
|-10-10-----10----10-10-10---|-10-10-----10----10--10-10----|
|--7--7------7-----7--7--7---|--7--7------7-----7---7--7----|
|----------------------------|------------------------------|


  F#m
  Gtr III
                          ~~              ~~      ~~~~~~~
   Q       E  E  S  S  E  Q      S  S  E  Q    E  E  +Q
|-17b19---17-15-17p15---------|----------------------------|
|---------------------17-17---|-17p15----------------------|
|-----------------------------|-------16-16---16-14-(14)---|
|-----------------------------|----------------------------|
|-----------------------------|----------------------------|
|-----------------------------|----------------------------|
|
| Gtr IV
|  E    E  E  E  E     E  E E    E     E  E E  E  E   E  E
|-----------------------------|----------------------------|
|-----------------------------|----------------------------|
|--0----0--0-----0-----0--0---|--0-----0--0----0--0---0----|
|--7----7--7-----7-----7--7---|--7-----7--7----7--7---7----|
|--9----9--9-----9-----9--9---|--9-----9--9----9--9---9----|
|-----------------------------|----------------------------|
|
| Gtr II
|  E    E  E  E  E     E  E E    E     E  E E  E  E   E  E
|-----------------------------|----------------------------|
|-----------------------------|----------------------------|
|-----------------------------|----------------------------|
|--7----7--7-----7-----7--7---|--7-----7--7----7--7---7----|
|--9----9--9-----9-----9--9---|--9-----9--9----9--9---9----|
|-----------------------------|----------------------------|


  E5                                      D5
  E  E  E  E  E  E  E  E    E  E  E  E  E  Q.
|------------------------|----------------------|
|------------------------|----------------------|
|-9s11-11-11-11s12-12-12-|-12s14-14-14-14s16----|
|------------------------|----------------------|
|-7s=9--9--9--9s10-10-10-|-10s12-12-12-12s14----|
|------------------------|----------------------|
|
| E  E  E  E  E  E  E  E    E  E  E  E  E  Q.
|------------------------|----------------------|
|------------------------|----------------------|
|------------------------|----------------------|
|-9--9--9-----9--9--9----|--9--9--9--9--9--7----|
|-7--7--7-----7--7--7----|--7--7--7--7--7--5----|
|------------------------|----------------------|
|
| E  E  E  E  E  E  E  E    E  E  E  E  E  Q.
|------------------------|----------------------|
|------------------------|----------------------|
|------------------------|----------------------|
|-9--9--9-----9--9--9----|--9--9--9--9--9--7----|
|-7--7--7-----7--7--7----|--7--7--7--7--7--5----|
|------------------------|----------------------|


  E5
  Gtr II
  PM-----|             ~~~         ~~~
  E E  E E E  E E E    Q.     S S  Q.     S S
|-------------------|-------------------------|
|-------------------|-[7]---------[8]---------|
|---------------7-9-|---------8p0---------0---|
|--------7-9-10-----|-----------------------9-|
|-7-9-10------------|-------------------------|
|-------------------|-------------------------|
|
| Gtrs III, IV
| E E  E E E  E E E    E  E E E    E  E E E
|-------------------|-------------------------|
|-------------------|-------------------------|
|-------------------|-------------------------|
|-9-9--9---9--9-9---|--9--9-9------9--9-9-----|
|-7-7--7---7--7-7---|--7--7-7------7--7-7-----|
|-------------------|-------------------------|


  C/E
   |---3---|         |--3---|
   E  E    E  E S S  E E    E   +S  S E      +E  +Q     +T  T S  S S  E +Q
|------------------------------------------|-----------------------------------|
|------------------------------------------|-----------------------------------|
|------------------------------------------|-----------------------------------|
|--9h10p===9--7-9-7----7----7b8-(7)---7b9==|=(7)-(7)r===(7)p5----5h7--5-(5)----|
|-------------------10---------------------|------------------7----------------|
|------------------------------------------|-----------------------------------|
|
|  E     E    E E    E    E      E    E       E   E   E  E       E    E  E  E
|------------------------------------------|-----------------------------------|
|------------------------------------------|-----------------------------------|
|------------------------------------------|-----------------------------------|
|-10----10---10-----10---10-----10---------|-10--10--10---------10---10-10-----|
|--7-----7----7------7----7------7---------|--7---7---7----------7----7--7-----|
|------------------------------------------|-----------------------------------|


  F#m
      Gtr II
                         ~~~~~~~~~~~                            ~~~
  |-3-| |--3--| |--3--|
  Q   E E E   E E E   E  Q      +E  E S  E   S  E      +E    E  E
|---------------7------------|------------------------------10----|
|-------------8---8-----10---|-(10)-8---10-----10b12==(10)r----10-|
|-----9-7-9-----------9------|------------------------------------|
|----------------------------|------------------------------------|
|----------------------------|------------------------------------|
|----------------------------|------------------------------------|
|
| Gtr IV
| E E   E   E   E   E    E E     E  E E    E    E       E    E  E
|----------------------------|------------------------------------|
|----------------------------|------------------------------------|
|-0-0---0-------0---0----0---|---0--0-0---------0-------0----0----|
|-7-7---7-------7---7----7---|---7--7-7---------7-------7----7----|
|-9-9---9-------9---9----9---|---9--9-9---------9-------9----9----|
|----------------------------|------------------------------------|
|
| Gtr III
| E E   E   E   E   E    E E     E  E E    E    E       E    E  E
|----------------------------|------------------------------------|
|----------------------------|------------------------------------|
|----------------------------|------------------------------------|
|-7-7---7-------7---7----7---|---7--7-7---------7-------7----7----|
|-9-9---9-------9---9----9---|---9--9-9---------9-------9----9----|
|----------------------------|------------------------------------|


  E5                                                    D5
 ~~~~~~~~~~~~~
   +Q     +E  S S S. S   e   S. S S   +S  S S S +H.
|-----------------------------------|-------------------------|
|-(10)---(10)-8---7------8---7------|-----7-8-7-(7)-----------|
|---------------------------------9-|-(9)---------------------|
|-----------------------------------|-------------------------|
|-----------------------------------|-------------------------|
|-----------------------------------|-------------------------|
|
|   E  E   E  E   E    E   E    E      E    E    E  E E Q.
|-----------------------------------|-------------------------|
|-----------------------------------|-------------------------|
|-----------------------------------|-------------------------|
|---9--9---9------9----9---9--------|--9----9----9--9-9-7-----|
|---7--7---7------7----7---7--------|--7----7----7--7-7-5-----|
|-----------------------------------|-------------------------|
|
|   E  E   E  E   E    E   E    E      E    E    E  E E Q.
|-----------------------------------|-------------------------|
|-----------------------------------|-------------------------|
|-----------------------------------|-------------------------|
|---9--9---9------9----9---9--------|--9----9----9--9-9-7-----|
|---7--7---7------7----7---7--------|--7----7----7--7-7-5-----|
|-----------------------------------|-------------------------|


  E5
  Gtr III
                                                        ~
      |--3--| |--3--| |--3--|   |--3--| |--3--| |--3--|
  Q   E E   E E E   E E E   E   E E   E E E   E E E   E Q
|---------------------7p0-----|-8p0-----7p0-----------------|
|-0---7p5p==0-8p5p==0-------0-|-------0-------0-8p5p==0-7---|
|-----------------------------|-----------------------------|
|-----------------------------|-----------------------------|
|-----------------------------|-----------------------------|
|-----------------------------|-----------------------------|
|
| Gtrs II, IV
| E E E   E   E   E   E   E     E   E   E   E   E   E   E E
|-----------------------------|-----------------------------|
|-----------------------------|-----------------------------|
|-----------------------------|-----------------------------|
|-9-9-9-------9---9---9-------|-9---9---9-------9---9---9---|
|-7-7-7-------7---7---7-------|-7---7---7-------7---7---7---|
|-----------------------------|-----------------------------|


  C/E
                                                                    ~~
         |--3--|  |--3---|  |--3--|    |--3---|  |--3--|  |--3---|
   Q     E E   E  E E    E  E E   E    E E    E  E E   E  E E    E  Q
|---------------------------7p0-----|--8p0-------7p0--------------------|
|--------7p5p==0--8p5p===0--------0-|---------0--------0--8p5p===0--7---|
|--5--------------------------------|-----------------------------------|
|-----------------------------------|-----------------------------------|
|-----------------------------------|-----------------------------------|
|-----------------------------------|-----------------------------------|
|
|  E  E  E   E    E    E    E   E      E    E    E   E    E    E    E E
|-----------------------------------|-----------------------------------|
|-----------------------------------|-----------------------------------|
|-----------------------------------|-----------------------------------|
|-10-10-10-------10---10---10-------|-10---10---10-------10---10---10---|
|--7--7--7--------7----7----7-------|--7----7----7--------7----7----7---|
|-----------------------------------|-----------------------------------|


  F#m
  Gtr III
            PM      PM  PM    PM   PM  PM
      |--3--| |--3--|
  Q   E E   E E E   E E E   E E  E E E E Q
|---------------------7---|-8---10---8---7---|
|-----7p5-----8p5---------|------------------|
|-7---------7-------7---7-|---7----7---7-----|
|-------------------------|------------------|
|-------------------------|------------------|
|-------------------------|------------------|
|
| Gtr IV
| E E E   E   E   E   E E   E E  E E E E E E
|-------------------------|------------------|
|-------------------------|------------------|
|-0-0-0-------0---0---0---|-0-0--0---0-0-0---|
|-7-7-7-------7---7---7---|-7-7--7---7-7-7---|
|-9-9-9-------9---9---9---|-9-9--9---9-9-9---|
|-------------------------|------------------|
|
| Gtr II
| E E E   E   E   E   E E   E E  E E E E E E
|-------------------------|------------------|
|-------------------------|------------------|
|-------------------------|------------------|
|-7-7-7-------7---7---7---|-7-7--7---7-7-7---|
|-9-9-9-------9---9---9---|-9-9--9---9-9-9---|
|-------------------------|------------------|


  E5                                        D5
       |--3--|     |--3--|       |--3--|
   Q   E E   E Q   E E   E   Q   E E   E Q.     E
|--------------3-----------|-3-----------3----------||
|------5p3p==0-----5p3p==0-|-----5p3p==0------------||
|-/4-----------------------|------------------------||
|--------------------------|------------------------||
|--------------------------|------------------------||
|--------------------------|------------------------||
|
|  E E E   E   E E E   E     E E E   E   E  Q.
|--------------------------|------------------------||
|--------------------------|------------------------||
|--------------------------|------------------------||
|--9-9-9-------9-9-9-------|-9-9-9---9---9--7-------||
|--7-7-7-------7-7-7-------|-7-7-7---7---7--5-------||
|--------------------------|------------------------||
|
|  E E E   E   E E E   E     E E E   E   E  Q.
|--------------------------|------------------------||
|--------------------------|------------------------||
|--------------------------|------------------------||
|--9-9-9-------9-9-9-------|-9-9-9---9---9--7-------||
|--7-7-7-------7-7-7-------|-7-7-7---7---7--5-------||
|--------------------------|------------------------||


   Outro
    E5
    Gtr V
     ~~~~~~~~~~~~~~~~~~~~~~~~~~~~~~~~~~~
     H       H         H       H
||-------------------|-----------------|
||o------------------|-----------------|
||-------------------|-----------------|
||-----------9-------|-7-------5-------|
||o-/7---------------|-----------------|
||-------------------|-----------------|
|
|   Gtrs II, III, IV
|    E E E E E E E E   E E E E E E E E
||-------------------|-----------------|
||o------------------|-----------------|
||-------------------|-----------------|
||---9-9-9---9-9-9---|-9-9-9---9-9-9---|
||o--7-7-7---7-7-7---|-7-7-7---7-7-7---|
||-------------------|-----------------|


  C/E
 ~~~~~~~~~~~~~~~~~~~~~~~~~~~~~~~~~~~~~~~
   H          H            H          H
|-----------------------|------------------------|
|-----------------------|------------------------|
|-----------------------|------------------------|
|------------10---------|--9----------7----------|
|-----------------------|------------------------|
|-/8--------------------|------------------------|
|
|  E  E  E E  E  E  E E    E  E  E E  E  E  E E
|-----------------------|------------------------|
|-----------------------|------------------------|
|-----------------------|------------------------|
|-10-10-10---10-10-10---|-10-10-10---10-10-10----|
|--7--7--7----7--7--7---|--7--7--7----7--7--7----|
|-----------------------|------------------------|


  F#m
  Gtr V
   ~~~~~~~~~~~~~~~~~~~~~~~~~~~~~~~~~~~
   H       H         H       H
|------------------|-----------------|
|------------------|-----------------|
|------------------|-----------------|
|----------7-------|-5-------4-------|
|-/5---------------|-----------------|
|------------------|-----------------|
|
| Gtr IV
|  E E E E E E E E   E E E E E E E E
|------------------|-----------------|
|------------------|-----------------|
|--0-0-0---0-0-0---|-0-0-0---0-0-0---|
|--7-7-7---7-7-7---|-7-7-7---7-7-7---|
|--9-9-9---9-9-9---|-9-9-9---9-9-9---|
|------------------|-----------------|
|
| Gtrs II, III
|  E E E E E E E E   E E E E E E E E
|------------------|-----------------|
|------------------|-----------------|
|------------------|-----------------|
|--7-7-7---7-7-7---|-7-7-7---7-7-7---|
|--9-9-9---9-9-9---|-9-9-9---9-9-9---|
|------------------|-----------------|


  E5                                       D5
 ~~~~~            PM-------|                   ~~~
                       |---3----|
  H..             E    Q   Q    Q     Q       +Q
|-------------------|------------------------------|
|-------------------|----------------[5]b6r===(5)--|
|-------------------|------4---[7]-----------------|
|-------------------|-/7---------------------------|
|-7---------------0-|------------------------------|
|-------------------|------------------------------|
|
| E   E E E E E E E    E E   E     E  E    Q.
|-------------------|------------------------------|
|-------------------|------------------------------|
|-------------------|------------------------------|
|-9---9-9---9-9-9---|--9-9---9-----9--9----7-------|
|-7---7-7---7-7-7---|--7-7---7-----7--7----5-------|
|-------------------|------------------------------|
|
| E   E E E E E E E    E E   E     E  E    Q.
|-------------------|------------------------------|
|-------------------|------------------------------|
|-------------------|------------------------------|
|-9---9-9---9-9-9---|--9-9---9-----9--9----7-------|
|-7---7-7---7-7-7---|--7-7---7-----7--7----5-------|
|-------------------|------------------------------|


  E5
  Gtr V
   ~~~~~~~~~~~~~~~~~~~~~~~~~~~~~~~~~~~
   H       H         H       H
|------------------|-----------------|
|------------------|-----------------|
|------------------|-----------------|
|----------9-------|-7-------5-------|
|-/7---------------|-----------------|
|------------------|-----------------|
|
| Gtrs II, III, IV
|  E E E E E E E E   E E E E E E E E
|------------------|-----------------|
|------------------|-----------------|
|------------------|-----------------|
|--9-9-9---9-9-9---|-9-9-9---9-9-9---|
|--7-7-7---7-7-7---|-7-7-7---7-7-7---|
|------------------|-----------------|


  C/E
 ~~~~~~~~~~~~~~~~~~~~~~~~~~~~~~~~~~~~~~~
   H          H            H          H
|-----------------------|-----------------------|
|-----------------------|-----------------------|
|-----------------------|-----------------------|
|------------10---------|--9----------7---------|
|-----------------------|-----------------------|
|-/8--------------------|-----------------------|
|
|  E  E  E E  E  E  E E    E  E  E E  E  E  E E
|-----------------------|-----------------------|
|-----------------------|-----------------------|
|-----------------------|-----------------------|
|-10-10-10---10-10-10---|-10-10-10---10-10-10---|
|--7--7--7----7--7--7---|--7--7--7----7--7--7---|
|-----------------------|-----------------------|


  F#m                                  E5                             D5
  Gtr V
   ~~~~~~~~~~~~~~~~~~~~~~~~~~~~~~~~~~~~~~~~~~~~~~~~~~~~~~~~~~~
   H       H         H       H          W                 +W
|------------------|-----------------|------------------|-------------------||
|------------------|-----------------|------------------|------------------o||
|------------------|-----------------|------------------|-------------------||
|----------7-------|-5-------4-------|------------------|-------------------||
|-/5---------------|-----------------|-/7---------------|-(7)--------------o||
|------------------|-----------------|------------------|-------------------||
|
| Gtr IV
|  E E E E E E E E   E E E E E E E E    E E E E E E E E    E  E E E E Q.
|------------------|-----------------|------------------|-------------------||
|------------------|-----------------|------------------|------------------o||
|--0-0-0---0-0-0---|-0-0-0---0-0-0---|------------------|-------------------||
|--7-7-7---7-7-7---|-7-7-7---7-7-7---|--9-9-9---9-9-9---|--9--9-9-9-9-7-----||
|--9-9-9---9-9-9---|-9-9-9---9-9-9---|--7-7-7---7-7-7---|--7--7-7-7-7-5----o||
|------------------|-----------------|------------------|-------------------||
|
| Gtrs II, III
|  E E E E E E E E   E E E E E E E E    E E E E E E E E    E  E E E E Q.
|------------------|-----------------|------------------|-------------------||
|------------------|-----------------|------------------|------------------o||
|------------------|-----------------|------------------|-------------------||
|--7-7-7---7-7-7---|-7-7-7---7-7-7---|--9-9-9---9-9-9---|--9--9-9-9-9-7-----||
|--9-9-9---9-9-9---|-9-9-9---9-9-9---|--7-7-7---7-7-7---|--7--7-7-7-7-5----o||
|------------------|-----------------|------------------|-------------------||


  E5
  Gtr V
   ~~~~~~~~~~~~~~~~~~~~~~~~~~~~~~~~~~~
   H       H         H       H
|------------------|-----------------|
|------------------|-----------------|
|------------------|-----------------|
|----------9-------|-7-------5-------|
|-/7---------------|-----------------|
|------------------|-----------------|
|
| Gtrs II, III, IV
|  E E E E E E E E   E E E E E E E E
|------------------|-----------------|
|------------------|-----------------|
|------------------|-----------------|
|--9-9-9---9-9-9---|-9-9-9---9-9-9---|
|--7-7-7---7-7-7---|-7-7-7---7-7-7---|
|------------------|-----------------|


  C/E
 ~~~~~~~~~~~~~~~~~~~~~~~~~~~~~~~~~~~~~~~
   H          H            H          H
|-----------------------|-----------------------|
|-----------------------|-----------------------|
|-----------------------|-----------------------|
|------------10---------|--9----------7---------|
|-----------------------|-----------------------|
|-/8--------------------|-----------------------|
|
|  E  E  E E  E  E  E E    E  E  E E  E  E  E E
|-----------------------|-----------------------|
|-----------------------|-----------------------|
|-----------------------|-----------------------|
|-10-10-10---10-10-10---|-10-10-10---10-10-10---|
|--7--7--7----7--7--7---|--7--7--7----7--7--7---|
|-----------------------|-----------------------|


  F#m
  Gtr V
   ~~~~~~~~~~~~~~~~~~~~~~~~~~~~~~~~~~~
   H       H         H       H
|------------------|-----------------|
|------------------|-----------------|
|------------------|-----------------|
|----------7-------|-5-------4-------|
|-/5---------------|-----------------|
|------------------|-----------------|
|
| Gtr IV
|  E E E E E E E E   E E E E E E E E
|------------------|-----------------|
|------------------|-----------------|
|--0-0-0---0-0-0---|-0-0-0---0-0-0---|
|--7-7-7---7-7-7---|-7-7-7---7-7-7---|
|--9-9-9---9-9-9---|-9-9-9---9-9-9---|
|------------------|-----------------|
|
| Gtrs II, III
|  E E E E E E E E   E E E E E E E E
|------------------|-----------------|
|------------------|-----------------|
|------------------|-----------------|
|--7-7-7---7-7-7---|-7-7-7---7-7-7---|
|--9-9-9---9-9-9---|-9-9-9---9-9-9---|
|------------------|-----------------|


  E5                                       D5
 ~~~~~            PM-------|                   ~~~
                       |---3----|
  H..             E    Q   Q    Q     Q       +Q
|-------------------|------------------------------|
|-------------------|----------------[5]b6r===(5)--|
|-------------------|------4---[7]-----------------|
|-------------------|-/7---------------------------|
|-7---------------0-|------------------------------|
|-------------------|------------------------------|
|
| E   E E E E E E E    E E   E     E  E    Q.
|-------------------|------------------------------|
|-------------------|------------------------------|
|-------------------|------------------------------|
|-9---9-9---9-9-9---|--9-9---9-----9--9----7-------|
|-7---7-7---7-7-7---|--7-7---7-----7--7----5-------|
|-------------------|------------------------------|
|
| E   E E E E E E E    E E   E     E  E    Q.
|-------------------|------------------------------|
|-------------------|------------------------------|
|-------------------|------------------------------|
|-9---9-9---9-9-9---|--9-9---9-----9--9----7-------|
|-7---7-7---7-7-7---|--7-7---7-----7--7----5-------|
|-------------------|------------------------------|


  E5
  Gtr V
   ~~~~~~~~~~~~~~~~~~~~~~~~~~~~~~~~~~~
   H       H         H       H
|------------------|-----------------|
|------------------|-----------------|
|------------------|-----------------|
|----------9-------|-7-------5-------|
|-/7---------------|-----------------|
|------------------|-----------------|
|
| Gtrs II, III, IV
|  E E E E E E E E   E E E E E E E E
|------------------|-----------------|
|------------------|-----------------|
|------------------|-----------------|
|--9-9-9---9-9-9---|-9-9-9---9-9-9---|
|--7-7-7---7-7-7---|-7-7-7---7-7-7---|
|------------------|-----------------|


  C/E
 ~~~~~~~~~~~~~~~~~~~~~~~~~~~~~~~~~~~~~~~
   H          H            H          H
|-----------------------|-----------------------|
|-----------------------|-----------------------|
|-----------------------|-----------------------|
|------------10---------|--9----------7---------|
|-----------------------|-----------------------|
|-/8--------------------|-----------------------|
|
|  E  E  E E  E  E  E E    E  E  E E  E  E  E E
|-----------------------|-----------------------|
|-----------------------|-----------------------|
|-----------------------|-----------------------|
|-10-10-10---10-10-10---|-10-10-10---10-10-10---|
|--7--7--7----7--7--7---|--7--7--7----7--7--7---|
|-----------------------|-----------------------|
comments
print report bad tab
45 comments total. Showing first comments. show 1 bad comment
+4 reply
tj4bama14 wrote on March 1 2006, 05:21 pm

holy crap dude this is INSANE!! great work man.

+1 reply
Incubus35626 wrote on March 10 2006, 04:32 pm

whoa bud, chill, I made changes where they were needed

I want to post or [tab]
guest
You may want to rate the tab now too:
select rating
Please do not post tabs as comments. Select "correction" instead!