Oops, an error
Loading. Please wait.

Welcome Home Tab

ver6
86,547 views 15 this week
14 commentsread comments
1 2 3 4 5
accurate
x 28
Autoscroll
+/-
esc
set tempo
stop
Contributor
Hey! There's an official Ultimate Guitar app which is ideal
for learning songs when you're away from computer. Get the app
WARNING: You are trying to view
                                    content from Ultimate-Guitar.com
                                    in an unauthorized application,
                                    which is prohibited.

                                    Please use an official Ultimate
                                    Guitar Tabs application for iPhone,
                                    iPad or Android to access legitimate
                                    chords, guitar, bass, and drum tabs
                                    from Ultimate-Guitar.com database.

                                    Type "ultimate guitar tabs" in Apple
                                    App Store's or Android Market's
                                    search to find the application.
XXXXXXXXXXXXXXXXXXXXXXXXXXXXXXXXXXXXXXXXXXXXXXXXXXXXXXXXXXXXXXXXXXXXXXXXXXXXXXX
XXXXXXXXXXXXXXXXXXXXXXXXXXXXXXXXXXXXXXXXXXXXXXXXXXXXXXXXXXXXXXXXXXXXXXXXXXXXXXX
XXXXXX                    Welcome Home – Coheed and Cambria             XXXXXX
XXXXXXXXXXXXXXXXXXXXXXXXXXXXXXXXXXXXXXXXXXXXXXXXXXXXXXXXXXXXXXXXXXXXXXXXXXXXXXX
XXXXXXXXXXXXXXXXXXXXXXXXXXXXXXXXXXXXXXXXXXXXXXXXXXXXXXXXXXXXXXXXXXXXXXXXXXXXXXX
Tabbed by: Gunner
Email: Jacksonrr3_guitar_ibanezrg560@hotmail.com

Tuning: Eb Ab Db Gb Bb eb
Half step down
Ok, here is my tab on Welcome Home, by Coheed and Cambria. Let me know what ya think!!
NOTE: This is my first tab. Judge Genorously. :)


   Sweep|----|                             Sweep|----|
e|-----------------------------------------|----------------------------------------|
B|-----------------------------------------|----------------------------------------|
G|---------------7~------------------------|-------------7~-------------------------|
D|----------9-10----10-9-7~-7-10-9-7-------|--------9-10----10-9---4--7--5--4-------|
A|--------7--------------------------10-9--|------7----------------5--9--7--5-------|
E|---0--0----------------------------------|-0--0-----------------------------------|
       . . .                        . .        . . .

   Sweep|----|                           Sweep |----|
e|-----------------------------------------|----------------------------------------|
B|-----------------------------------------|----------------------------------------|
G|---------------7~------------------------|-------------7~-------------------------|
D|----------9-10----10-9-7~-7-10-9-7-------|--------9-10----10-9---4--7--5--4-------|
A|--------7--------------------------10-9--|------7----------------5--9--7--5-------|
E|---0--0----------------------------------|-0--0-----------------------------------|
       . . .                        . .        . . .

  Sweep|----|                            Sweep|----|
E|-----------------------------------------|-------------------------------------|
B|-----------------------------------------|-------------------------------------|
G|---------------7~~-----------------------|-----------7~~-----------------------|
D|----------9-10-----10-9-7~--7-10-9-7-----|------9-10-----10-9--4--7--5--4------|
A|--------7----------------------------10-9|-----7---------------5--9--7--5------|
E|--0---0----------------------------------|-0--0--------------------------------|

Sweep|---|    P.h.                           Sweep|----|
e|--------------------------------------------|---------------------------------------|
B|--------------------------------------------|-----------------------0--0--0---------|
G|-------------7~~----------------------------|-----------7~--------------------------|
D|-------9--10-------10--9-7~~-7--10-9-7------|------9-10----10-9---4---7--5--4-------|
A|----7----------------------------------10-9-|-----7---------------5---9--7--5-------|
D|--0-----------------------------------------|--0------------------------------------|


e|-----------------------------------------|---------------------------------|
B|-----------------------------------------|---------------------------------|
G|-----------------------------------------|---------------------------------|
D|-----------------------------------------|---------------------------------|
A|--------9---10---9~~---------9---10—-9~~-|------9--10--12--10--9--7~~------|
E|--0--0--0----0---0----0--0---0----0--0---|--0---0---0---0---0--0--0--------|
    .  .  .    .        .  .   .    .         .   .   .   .   .  .
e|-----------------------------------|
B|-----------------------------------|
G|-----------------------------------|
D|-----------------------------------|
A|-------9--10--12--10--9--7~~~------|
E|---0---0---0---0---0--0--0---------|
     .   .   .   .   .  .

e|-----------------------------------------|---------------------------------|
B|-----------------------------------------|---------------------------------|
G|-----------------------------------------|---------------------------------|
D|-----------------------------------------|---------------------------------|
A|--------9---10---9~~---------9---10—-9~~-|------9--10--12--10--9--7~~------|
E|--0--0--0----0---0----0--0---0----0--0---|--0---0---0---0---0--0--0--------|
    .  .  .    .        .  .   .    .         .   .   .   .   .  .
e|-----------------------------------|
B|-----------------------------------|
G|-----------------------------------|
D|-----------------------------------|
A|-------9--10--12--10--9--7~~~------|
E|---0---0---0---0---0--0--0---------|
     .   .   .   .   .  .

Sweep|---|    P.h.        P.h.               Sweep|--|  P.h.
e|--------------------------------------------|----------------------------------|
B|--------------------------------------------|-----------------------0--0--0----|
G|-------------7~~----------------------------|-----------7~---------------------|
D|-------9--10-------10--9-7~~-7--10-9-7------|------9-10----10-9---4---7--5--4--|
A|----7----------------------------------10-9-|-----7---------------5---9--7--5--|
D|--0-----------------------------------------|--0-------------------------------|


                                          Sweep|--|
 Sweep|---|  P.h.                               P.h.
e|-----------------------------------------|---------------------------------|
B|-----------------------------------------|---------------------------------|
G|------------7~~--------------------------|------------7--------------------|
D|-------9-10-----10-9-7—7-10--9-7---------|------9--9-----10--9--7--5--4----|
A|-----7----------------------------10--9--|--7-x--------------------7--5----|
E|--0--------------------------------------|---------------------------------|


e|-----------------------------------------|---------------------------------|
B|-----------------------------------------|---------------------------------|
G|-----------------------------------------|---------------------------------|
D|-----------------------------------------|---------------------------------|
A|--------9---10---9~~---------9---10—-9~~-|------9--10--12--10--9--7~~------|
E|--0--0--0----0---0----0--0---0----0--0---|--0---0---0---0---0--0--0--------|
    .  .  .    .        .  .   .    .         .   .   .   .   .  .

                          P.h.
e|-----------------------------------|
B|-----------------------------------|
G|-----------------------------------|
D|-----------------------------------|
A|-------9--10--12--10--9--7~~~------|
E|---0---0---0---0---0--0------------|
     .   .   .   .   .  .

                 P.h.                P.h.                         P.h.
e|-----------------------------------------|---------------------------------|
B|-----------------------------------------|---------------------------------|
G|-----------------------------------------|---------------------------------|
D|-----------------------------------------|---------------------------------|
A|--------9---10---9~~---------9---10—-9~~-|------9--10--12--10--9--7~~------|
E|--0--0--0----0---------0--0--0----0-------------0---0---0---0--0-----------|
    .  .  .    .        .  .   .    .         .   .   .   .   .  .

                         P.h.
e|-----------------------------------|
B|-----------------------------------|
G|-----------------------------------|
D|-----------------------------------|
A|-------9--10--12--10--9--7~~~------|
E|---0---0---0---0---0--0------------|


*RHYTHYM FIGURE 3

e|----------------------------------|--------------------------------------------|
B|----------------------------------|--------------------------------------------|
G|----------------------------------|--------------------------------------------|
D|---9-9-9---9-9-9---9-9-9---9-9-9--|--10-10-10---10-10-10---10-10-10---10-10-10-|
A|---7-7-7---7-7-7---7-7-7---7-7-7--|---7--7--7----7--7--7----7--7--7----7--7--7-|
E|----------------------------------|--------------------------------------------|


e|--------------------------------------------|--------------------------------|
B|--------------------------------------------|--------------------------------|
G|--------------------------------------------|--------------------------------|
D|--12-12-12---12-12-12---12-12-12---12-12-12-|--9-9-9---9-9-9---9-9-9-9-9-9~~~|
A|---9--9--9----9--9--9----9--9--9----9--9--9-|--7-7-7---7-7-7---7-7-7-7-7-7---|
E|--------------------------------------------|--------------------------------|

e|----------------------------------|--------------------------------------------|
B|----------------------------------|--------------------------------------------|
G|----------------------------------|--------------------------------------------|
D|---9-9-9---9-9-9---9-9-9---9-9-9--|--10-10-10---10-10-10---10-10-10---10-10-10-|
A|---7-7-7---7-7-7---7-7-7---7-7-7--|---7--7--7----7--7--7----7--7--7----7--7--7-|
E|----------------------------------|--------------------------------------------|


e|--------------------------------------------|--------------------------------|
B|--------------------------------------------|--------------------------------|
G|--------------------------------------------|--------------------------------|
D|--12-12-12---12-12-12---12-12-12---12-12-12-|--9-9-9---9-9-9---9-9-9-9-9-9~~~|
A|---9--9--9----9--9--9----9--9--9----9--9--9-|--7-7-7---7-7-7---7-7-7-7-7-7---|
E|--------------------------------------------|--------------------------------|

                   *guitar 2 repeats recent (above part) during this next section

                                          Pull off the 5p4 part really fast. it almost 
like a slide. (you can also slide down to the 5)(i reccomend pulling off)
This is also called a grace note.
e|----------------------------|-------------------------------------------------|
B|----------------------------|-------------------------------------------------|
G|----------------------------|-------------------------------------------------|
D|----------------------------|-------4-5---5p4----------2-2---------4---5-5-4--|
A|----------------------------|------------------5-5-2-------2---3-3------------|
E|----------------------------|--0--0-------------------------------------------|

e|--------------------------------------------|----------------------------------|
B|--------------------------------------------|----------------------------------|
G|------------------------4-5-4-4-2-2---------|----------------------------------|
D|-----------2-2------2-2-------------5-5-4-0-|-------4-5-4-----------2-2--------|
A|---5-5-2-2-----2----------------------------|---------------5-5-2-------2------|
E|--------------------------------------------|---0-0----------------------------|

e|------------------------------------------------------------------|
B|------------------------------------------------------------------|
G|----------------------------------------4-5-4----2-2--------------|
D|------4-4--5-5--4-----------2-2-----2-2--------------5--4-4-2---2-|
A|--3-3---------------5-5-2-2-----2---------------------------------|
E|------------------------------------------------------------------|

                                        P.h.             P.h.
e|---------------------------|-----------------------------------------|
B|---------------------------|-----------------------------------------|
G|---4--5--4-4-2-2-----------|------------2~~-------------2~~----------|
D|------------------5-5-4-0--|--3-3-3--x--------3-3-3--x---------------|
A|---------------------------|--3-3-3--x--------3-3-3--x---------------|
E|---------------------------|--1-1-1--x--------1-1-1--x---------------|
                                . . .          . . .

                P.h.
e|---------------------------------------------------------------------------|
B|---------------------------------------------------------------------------|
G|---------------2~~---------------------------------------------------------|
D|--3-3-3-----x---------3-3-3-3-3-3-----3------------------------------------|
A|--3-3-3-----x---------3-3-3-3-3-3-----3------------------------------------|
E|--1-1-1--x--x---------1-1-1-1-1-1-----1------------------------------------|
    . . .              . . . . . .     .

Let Ring|-------------------------| Let Ring|----------------------------------|
e|---0---------------------------------|---0-----------------------------------|
B|---1---------------------------------|---1-----------------------------------|
G|---1---------------------------------|---0-----------------------------------|
D|---2---------------------------------|---2-----------------------------------|
A|---0---------------------------------|---3-----------------------------------|
E|-------------------------------------|---------------------------------------|

              P.h.           P.h.              P.h.
e|---------------------------------|-----------------------------------------|
B|---------------------------------|-----------------------------------------|
G|------------2~~-------------2~~--|----------2—2~~--------------------------|
D|---3-3-3--x-------3-3-3--x-------|---3-3-3-----------3-3-3-3-3-3----3------|
A|---3-3-3--x-------3-3-3--x-------|---3-3-3-----------3-3-3-3-3-3----3------|
E|---1-1-1--x-------1-1-1--x-------|---1-1-1-----------1-1-1-1-1-1----1------|
     . . .          . . .             . . .            . . . . . .    .

Let Ring|-------------------------| Let Ring|----------------------------------|
e|---0---------------------------------|---0-----------------------------------|
B|---1---------------------------------|---1-----------------------------------|
G|---1---------------------------------|---0-----------------------------------|
D|---2---------------------------------|---2-----------------------------------|
A|---0---------------------------------|---3-----------------------------------|
E|-------------------------------------|---------------------------------------|

e|----------------------------------|--------------------------------------------|
B|----------------------------------|--------------------------------------------|
G|----------------------------------|--------------------------------------------|
D|---9-9-9---9-9-9---9-9-9---9-9-9--|--10-10-10---10-10-10---10-10-10---10-10-10-|
A|---7-7-7---7-7-7---7-7-7---7-7-7--|---7--7--7----7--7--7----7--7--7----7--7--7-|
E|----------------------------------|--------------------------------------------|


e|--------------------------------------------|--------------------------------|
B|--------------------------------------------|--------------------------------|
G|--------------------------------------------|--------------------------------|
D|--12-12-12---12-12-12---12-12-12---12-12-12-|--9-9-9---9-9-9---9-9-9-9-9-9~~~|
A|---9--9--9----9--9--9----9--9--9----9--9--9-|--7-7-7---7-7-7---7-7-7-7-7-7---|
E|--------------------------------------------|--------------------------------|

e|----------------------------------|--------------------------------------------|
B|----------------------------------|--------------------------------------------|
G|----------------------------------|--------------------------------------------|
D|---9-9-9---9-9-9---9-9-9---9-9-9--|--10-10-10---10-10-10---10-10-10---10-10-10-|
A|---7-7-7---7-7-7---7-7-7---7-7-7--|---7--7--7----7--7--7----7--7--7----7--7--7-|
E|----------------------------------|--------------------------------------------|


e|--------------------------------------------|--------------------------------|
B|--------------------------------------------|--------------------------------|
G|--------------------------------------------|--------------------------------|
D|--12-12-12---12-12-12---12-12-12---12-12-12-|--9-9-9---9-9-9---9-9-9-9-9-9~~~|
A|---9--9--9----9--9--9----9--9--9----9--9--9-|--7-7-7---7-7-7---7-7-7-7-7-7---|
E|--------------------------------------------|--------------------------------|

                           *guitar 2 repeats recent (above) section during this part
*
e|----------------------------|-------------------------------------------------|
B|----------------------------|-------------------------------------------------|
G|----------------------------|-------------------------------------------------|
D|----------------------------|-------4-5---5p4----------2-2---------4---5-5-4--|
A|----------------------------|------------------5-5-2-------2---3-3------------|
E|----------------------------|--0--0-------------------------------------------|

e|--------------------------------------------|----------------------------------|
B|--------------------------------------------|----------------------------------|
G|------------------------4-5-4-4-2-2---------|----------------------------------|
D|-----------2-2------2-2-------------5-5-4-0-|-------4-5-4-----------2-2--------|
A|---5-5-2-2-----2----------------------------|---------------5-5-2-------2------|
E|--------------------------------------------|---0-0----------------------------|

e|------------------------------------------------------------------|
B|------------------------------------------------------------------|
G|----------------------------------------4-5-4----2-2--------------|
D|------4-4--5-5--4-----------2-2-----2-2--------------5--4-4-2---2-|
A|--3-3---------------5-5-2-2-----2---------------------------------|
E|------------------------------------------------------------------|*


e|---------------------------|
B|---------------------------|
G|---4--5--4-4-2-2-----------|
D|------------------5-5-4-0--|
A|---------------------------|
E|---------------------------|


             P.h.                P.h.                P.h.
e|--------------------------------------------------------------------------------|
B|--------------------------------------------------------------------------------|
G|------------2~~B(4)p0-----------2~~B(4)------------2~~B(4)p0--------------------|
D|--3-3-3--x-------------3-3-3--x----------3-3-3--x--------------3-3-3-3-3-3---3--|
A|--3-3-3--x-------------3-3-3--x----------3-3-3--x--------------3-3-3-3-3-3---3--|
E|--1-1-1--x-------------1-1-1--x----------1-1-1--x--------------1-1-1-1-1-1---1--|
                                                                     . .       .

Let Ring|-------------------------| Let Ring|----------------------------------|
e|---0---------------------------------|---0-----------------------------------|
B|---1---------------------------------|---1-----------------------------------|
G|---1---------------------------------|---0-----------------------------------|
D|---2---------------------------------|---2-----------------------------------|
A|---0---------------------------------|---3-----------------------------------|
E|-------------------------------------|---------------------------------------|

              P.h.               P.h.              P.h.
e|--------------------------------------------------------------------------------|
B|--------------------------------------------------------------------------------|
G|-------------2~~B(4)------------2~~B(4)------------2~~B(4)p0--------------------|
D|-3-3-3/7--x-----------3-3-3--x-----------3-3-3--x-------------3-3-3-3-3-3--3----|
A|-3-3-3/7--x-----------3-3-3--x-----------3-3-3--x-------------3-3-3-3-3-3--3----|
E|-1-1-1----x-----------1-1-1--x-----------1-1-1--x-------------1-1-1-1-1-1--1----|
                                                                    . .      .

Let Ring|-------------------------| Let Ring|----------------------------------|
e|---0---------------------------------|---0-----------------------------------|
B|---1---------------------------------|---1-----------------------------------|
G|---1---------------------------------|---0-----------------------------------|
D|---2---------------------------------|---2-----------------------------------|
A|---0---------------------------------|---3-----------------------------------|
E|-------------------------------------|---------------------------------------|

***This part is guitar 1 and 2, you can here guitar 2 in this part better but I will put
guitar and you can choose witch one is better sounding.
*you can also mix the 2 guitar by playing the power chords than moving the high pitched
down a string (higher) and down (towards the nut) 4 or 5 frets ( depending on the string
G string 4 all others 5)


Guitar1
e|-------------------------------------|-------------------------------------|
B|------10-------13------10------13----|--------13-------17------13-------17-|
G|-------------------------------------|-------------------------------------|
D|-------------------------------------|-------------------------------------|
A|--8-8------8-8-----8-8-----8-8-------|--12-12----12-12----12-12----12-12---|
E|-------------------------------------|-------------------------------------|
 |       .        .      .        .
 |
 |Guitar2
e|-------------------------------------|-------------------------------------|
B|-------------------------------------|-------------------------------------|
G|-------------------------------------|-------------------------------------|
D|-------------------------------------|----2--2--2-2-2---2-2-2---2-2-2--2---|
A|--3-3--3-3-3--3-3-3--3-3-3--0--------|----0--0--0-0-0---0-0-0---0-0-0--0---|
E|--1-1--1-1-1--1-1-1--1-1-1----1------|-------------------------------------|
    . .  . . .  . . .  . . .  . .           .  .  . . .   . . .   . . .  .


 Guitar1
e|--------------------------------------|------------------------------------|
B|--------12-------15-------12-------15-|------10-----13-----10-----13-------|
G|--------------------------------------|------------------------------------|
D|--------------------------------------|------------------------------------|
A|--10-10----10-10----10-10----10-10----|--8-8----8-8----8-8----8-8----------|
E|--------------------------------------|------------------------------------|
 |         .       .         .       .          .     .       .      .
 |
 |Guitar2
e|--------------------------------------|------------------------------------|
B|--------------------------------------|------------------------------------|
G|--------------------------------------|------------------------------------|
D|--------------------------------------|------------------------------------|
A|---5-5---5--5-5---5--5-5--5-5-5—5-----|--3-3---3-3-3---3-3-3--3-3-3--3-----|
E|---3-3---3--3-3---3--3-3--3-3-3-3-----|--1-1---1-1-1---1-1-1--1-1-1--1-----|
     . .   .  . .   .  . .  . . . .       . .    . . .   . . .  . . .  .


Guitar1
e|--------------------------|----------------------------|---------------------------|
B|--------------------------|----------------------------|---------------------------|
G|------2-----5-----2-----5-|-----5------9------5-----9--|------4-----7-----4------7-|
D|--------------------------|----------------------------|---------------------------|
A|--------------------------|--0-0---0-0----0-0---0-0----|---------------------------|
E|--1-1---1-1---1-1---1-1---|----------------------------|--3-3---3-3---3-3----3-3---|
 |      .     .     .     .       .      .      .     .         .     .     .      .
 |
 |Guitar2
e|--------------------------|----------------------------|---------------------------|
B|--------------------------|----------------------------|---------------------------|
G|--------------------------|-2222222222222222-----------|---------------------------|
D|---333333333333333--------|-2222222222222222-----------|--555555555555555----------|
A|---333333333333333--------|-0000000000000000-----------|--555555555555555----------|
E|---111111111111111------0-|----------------------------|--333333333333333-----0----|

Guitar solo.

***  Rhythym Firgure 3 in back

 Guitar1
e|---------------------------------------------------------------------------|
B|--15p12----15p12----15p12----15p12----15p12----15p12----15~B(17)~----------|
G|--------14-------14-------14-------14-------14-------12--------------------|
D|---------------------------------------------------------------------------|
A|---------------------------------------------------------------------------|
E|---------------------------------------------------------------------------|
 |
 |
 |Guitar2
e|---------------------------------------------------------------------------|
B|-8~B(10)R---------------------12---------------10h12-----------------------|
G|----------------------14B(16)----14B(16)R----------------------------------|
D|------------------/14------------------------------------------------------|
A|---------------------------------------------------------------------------|
E|---------------------------------------------------------------------------|


Guitar1
e|---17B(19)-17--15-15B(17)R-12-12~~~-(12)\---------12-|-12/14-17-17-14-15---|
B|------------------------------------------/12--15----|---------------------|
G|-----------------------------------------------------|---------------------|
D|-----------------------------------------------------|---------------------|
A|-----------------------------------------------------|---------------------|
E|-----------------------------------------------------|---------------------|
 |
 |
 | Guitar2
e|-------------------------------------------|-----------------------------------|
B|--10-13B(15)HB--R—10/12\10-----------------|-----------------------------------|
G|----------------------------------------11-|--12/14----11---12-----------------|
D|-------------------------------------------|--------------------12h14----------|
A|-----------------------------0------x------|-----------------------------------|
E|---------------------------------12\x------|-----------------------------------|


Guitar1
e|--15-12-14-14----12-12-----------------|-----------------------------------|
B|--------------15-------13—12h13p12-----|--12----------12--12/19------------|
G|-----------------------------------14--|-----12-14-15----------------------|
D|---------------------------------------|------------------------12/14~~~~~-|
A|---------------------------------------|-----------------------------------|
E|---------------------------------------|-----------------------------------|
 |
 |
 |Guitar2
e|----------------------------------|----------------------------------------|
B|----------------------------------|----------------------------------------|
G|----------------------------------|-----4---7\4--2-2-2-2-------------------|
D|----14---12/14\12-----------------|----------------------------------------|
A|----------------------------------|----------------------------------------|
E|----------------------------------|--0-------------------------------------|


 Guitar1
e|---------------------------------------------------------------------------|
B|---------------------------------------------------------------------------|
G|---------------------------------------------------------------------------|
D|---------------------------------------------------------------------------|
A|---------------------------------------------------------------------------|
E|---------------------------------------------------------------------------|
 |
 |
 |Guitar2
e|--------12-----------------------------------------------------------------|
B|-----12----15B(17)-15B(17)R-12----12h13—15h17------------------------------|
G|--14---------------------------15------------------------------------------|
D|---------------------------------------------------------------------------|
A|---------------------------------------------------------------------------|
E|---------------------------------------------------------------------------|
                               P.h.                              P.h.
e|---------------------------------------------------------------------------|
B|--17B(20)—17B(20)R-------------13~~----------------------------------------|
G|----------------------------12----0h16-12-16-12h14-11----------------------|
D|--------------------0h12h14-----------------------------12-(12)\-----2-----|
A|-----------------------------------------------------------------0---------|
E|-------------------------------------------------------------------4-------|


e|-------------------------------|---------7h8h10p8p7h8p7----7---------------|
B|-------------------------------|--7h8h10----------------10---10-8-7h8p7----|
G|-------------------------------|-------------------------------------------|
D|--4B(5)R\2p0-----2-4-5~--4p2p0-|-------------------------------------------|
A|-------------------------------|-------------------------------------------|
E|-------------------------------|-------------------------------------------|

e|------------------------------------------|-17B(19)-17-15-17p15------------|
B|--7h8p7-----------------------------------|----------------------17-17~----|
G|--------9B(11)R--------9B(11)R------------|--------------------------------|
D|----------------9h10p9----------9--(9)/12-|--------------------------------|
A|------------------------------------------|--------------------------------|
E|------------------------------------------|--------------------------------|

e|---------------------------------------------------------------------------|
B|--17p15--------------------------------------------------------------------|
G|--------16-16~~-16-14~~-(14)\----------------------------------------------|
D|---------------------------------------------------------------------------|
A|------------------------------7/9-9-9-9/10-10-10/12-12-12-12-14~~----------|
E|---------------------------------------------------------------------------|
                  P.h.    Semi Harm.
e|---------------------------------------------------------------------------|
B|---------------4-5~~p4—4~~~~~~---------------------------------------------|
G|-----------4-5-------x---------4-4—4h5p4p2h4p2p0h2-2-4B(5)HB—Rp2p0---------|
D|------5-7------------x---------------------------------------------2/7-5~~-|
A|--5-7----------------------------------------------------------------------|
E|---------------------------------------------------------------------------|

e|---------------------------------------------------------------------------|
B|-------------12-----------------------------15-----------------------------|
G|--0-------12----12----14~~-12--14-14B(16)HB----B(16)-R~~~-12--11-12-11-----|
D|----12-14----------14--------------------------------------------------14--|
A|---------------------------------------------------------------------------|
E|---------------------------------------------------------------------------|

e|-------------------|----2p0---3p0---7p0---8p0---7p0---3p0---2--------------|
B|-------------------|--0-----0-----0-----0-----0-----0-----0----------------|
G|--11h12p11—(11)\4--|-------------------------------------------------------|
D|-------------------|-------------------------------------------------------|
A|-------------------|-------------------------------------------------------|
E|-------------------|-------------------------------------------------------|

                                   Let ring|--|
e|-------2p0---3p0---7p0---8p0---7p0---3p0---2----|-----2p0---3p0---7p0------|
B|--1-1------1-----1-----------------------1------|-3-3-----3-----3----------|
G|-----------------------5-----5-----5------------|---------------------7----|
D|------------------------------------------------|--------------------------|
A|------------------------------------------------|--------------------------|
E|------------------------------------------------|--------------------------|

e|--10p0---8p0---7--|-----------3-------3-------3-------------|
B|-------7----------|-----5p3-----5p3-----5p3-----5~~---------|
G|-------------7----|--/4-----4-------4-------4---------------|
D|------------------|-----------------------------------------|
A|------------------|-----------------------------------------|
E|------------------|-----------------------------------------|

e|---------------------------------------------------------------------------|
B|---------------------------------------------------------------------------|
G|---------------------------------------------------------------------------|
D|--2-2-2-2--/9-9-9-9-7-7-7-7-5-5-5\----------/10-10-10-10-9-9-9-9-7-7—7\4---|
A|------------------------------------3-3-3-3--------------------------------|
E|---------------------------------------------------------------------------|

                                                   P.h.
e|---------------------------------------------------------------------------|
B|---------------------------------------------------3—5B(7)R~~~-------------|
G|---------------------------------------------------------------------------|
D|---0-0-0--/7-7-7~~~-5-5-5-~~-4-4-4-~~-2~~~---------------------2~~~-/9~~~--|
A|--------------------------------------------0-0-2--------------------------|
E|---------------------------------------------------------------------------|
                                              . .

e|---------------------------------------------------------------------------|
B|---------------------------------------------------------------------------|
G|---------------------------------------------------------------------------|
D|-7~~~~~--5~~~~~------------------------------------0-0-0-/7-7-7~~-5-5-5~~--|
A|----------------3-3-3-/10-10-10-10-9-9-9-9-7-7-7\4-------------------------|
E|---------------------------------------------------------------------------|

e|------------|--------------------------------------------------------------|
B|------------|--------------------------------------------------------------|
G|------------|--------------------------------------------------------------|
D|--4-4-4~~~~-|----2~~~~~~~~~~~~~~~~~~~~~~~~~~-------------------------------|
A|------------|--------------------------------------------------------------|
E|------------|--------------------------------------------------------------|

**** Next part is normally played on a violin, but has been arranged on a guitar, so it may
not sound 100% like it.

****With pick/fingers.

e|-----------7------7--7-|------8--------8-8-|----------10-------10-|
B|---5--5----------------|5-5----------------|----------------------|
G|--------4--4--4-4-4----|----5-5---5--5-5---|--9--9--7--7--7-7-7-7-|
D|---2--2--------------5-|2-2--------------5-|----------------------|
A|--------2-----2-2------|----3-----3--3-----|--7--7--5-----5-5-5---|
E|-----------------------|-------------------|----------------------|

e|-----------12--------12--------|
B|--------12---------------------|
G|--9--9------9--9--9---9-7------|
D|---------9---------------------|
A|--7--7---------7--7------------|
E|-------------------------------|


e|-----------7------7--7-|------8--------8-8-|----------10-------10-|
B|---5--5----------------|5-5----------------|----------------------|
G|--------4--4--4-4-4----|----5-5---5--5-5---|--9--9--7--7--7-7-7-7-|
D|---2--2--------------5-|2-2--------------5-|----------------------|
A|--------2-----2-2------|----3-----3--3-----|--7--7--5-----5-5-5---|
E|-----------------------|-------------------|----------------------|

e|-----------12--------12--------|
B|--------12---------------------|
G|--9--9------9--9--9---9-7------|
D|---------9---------------------|
A|--7--7---------7--7------------|
E|-------------------------------|

*band fades out
e|-----------7------7--7-|------8--------8-8-|----------10-------10-|
B|---5--5----------------|5-5----------------|----------------------|
G|--------4--4--4-4-4----|----5-5---5--5-5---|--9--9--7--7--7-7-7-7-|
D|---2--2--------------5-|2-2--------------5-|----------------------|
A|--------2-----2-2------|----3-----3--3-----|--7--7--5-----5-5-5---|
E|-----------------------|-------------------|----------------------|

e|-----------12--------12--------|
B|--------12---------------------|
G|--9--9------9--9--9---9-7------|
D|---------9---------------------|
A|--7--7---------7--7------------|
E|-------------------------------|


e|-----------7------7--7-|------8--------8-8-|----------10-------10-|
B|---5--5----------------|5-5----------------|----------------------|
G|--------4--4--4-4-4----|----5-5---5--5-5---|--9--9--7--7--7-7-7-7-|
D|---2--2--------------5-|2-2--------------5-|----------------------|
A|--------2-----2-2------|----3-----3--3-----|--7--7--5-----5-5-5---|
E|-----------------------|-------------------|----------------------|


e|-----------12--------12--------|
B|--------12---------------------|
G|--9--9------9--9--9---9-7------|
D|---------9---------------------|
A|--7--7---------7--7------------|
E|-------------------------------|

| HB Hold Bend
| R  Release Bend
| B  Bend Note
| .  Palm Mute
| /  Slide Up
| \  Slide Down
| h  Hammer-On
| p  Pull-Off
| ~  Vibrato
| +  Harmonic
| x  Mute note
===============================================================================

ENJOY!
comments
print report bad tab
14 comments total. Showing first comments.
+2 reply
Jackson_Ibanez wrote on August 5 2008, 02:23 am

A+++ this tab is PERFECT!

+3 reply
vo1comania wrote on August 5 2008, 10:14 am

EVERYONE READ!!! *****************

On the beggining part of the solo i accidently


Guitar1
e|--15p12----15p12----15p12----15p12----15p12----15p12----15~B(17)~-|
B|--------14-------14-------14-------14-------14-------12-----------|
G|------------------------------------------------------------------|
D|------------------------------------------------------------------|
A|------------------------------------------------------------------|
E|------------------------------------------------------------------|


should actually be on the B and G strings. Not the e and B strings.

0 reply
judgementday_1 wrote on October 9 2008, 03:36 pm

There are so many artificial harmonics.

I want to post or [tab]
guest
You may want to rate the tab now too:
select rating
Please do not post tabs as comments. Select "correction" instead!