Oops, an error
Loading. Please wait.

Welcome Home Tab

ver7
ver7
More versions @911Tabs.com
10,793 views 12 this week
no commentswrite comment
1 2 3 4 5
accurate
x 5
Autoscroll
+/-
esc
set tempo
stop
Contributor
Difficulty
Tuning
intermediate
D# G# C# F# A# D#
WARNING: You are trying to view
                                    content from Ultimate-Guitar.com
                                    in an unauthorized application,
                                    which is prohibited.

                                    Please use an official Ultimate
                                    Guitar Tabs application for iPhone,
                                    iPad or Android to access legitimate
                                    chords, guitar, bass, and drum tabs
                                    from Ultimate-Guitar.com database.

                                    Type "ultimate guitar tabs" in Apple
                                    App Store's or Android Market's
                                    search to find the application.
----------------------------------------------------------------------------
                             Welcome Home-Coheed and Cambria
----------------------------------------------------------------------------
Tabbed by: Slayer1979
Email: slayer197977@yahoo.com

Tuning:Eb
Intro: Acousitc Guitar
eb|----------------------------------------|
Bb|----------------------------------------|
Gb|-------------7--------------------------|
Db|--------9-10---10-9-7--7-10-9-7---------|
Ab|------7--------------------------10-9---|
Eb|-0--0-----------------------------------|
         . . .    .  . .  . .  . .  .  . 
eb|-------------------------------------------------------|
Bb|-------------------------------------------------------|
Gb|-------------7----------------------------4--7--5--4---|
Db|--------9-10---10-9-------------------or--5--9--7--5---|
Ab|------7---------------9--14--12---9--------------------|
Eb|-0--0----------------10--12--10--10--------------------|
         . . .    .  .            
eb|----------------------------------------|
Bb|----------------------------------------|
Gb|-------------7--------------------------|
Db|--------9-10---10-9-7--7-10-9-7---------|
Ab|------7--------------------------10-9---|
Eb|-0--0-----------------------------------|
         . . .    .  . .  .           
eb|-------------------------------------------------------|
Bb|-------------------------------------------------------|
Gb|-------------7----------------------------4--7--5--4---|
Db|--------9-10---10-9-------------------or--5--9--7--5---|
Ab|------7---------------9--14--12---9--------------------|
Eb|-0--0----------------10--12--10--10--------------------|
         . . .    .  .    
Intro 2 Heavy Distortion (Boss Mega Distortion pedal will work fine)
eb|-----------------------------------|
Bb|-----------------------------------|
Gb|--------7*~------------------------|
Db|-----10----10-9-7*--7-10-9-7-------|
Ab|---7------------------------10-9---|
Eb|-0---------------------------------|
        
eb|------------------------------------------------|
Bb|------------------------------------------------|
Gb|--------7*~------------------------4--7--5--4---|
Db|-----10-----10-9---------------or--5--9--7--5---|
Ab|---7--------------9--12-10--9-------------------|
Eb|-0---------------10--14-12--10------------------|
                    .   .  .   .      .  .  .  .
eb|-----------------------------------|
Bb|-----------------------------------|
Gb|--------7*~------------------------|
Db|-----10----10-9-7*--7-10-9-7-------|
Ab|---7------------------------10-9---|
Eb|-0---------------------------------|
eb|------------------------------------------------|
Bb|------------------------------------------------|
Gb|--------7*~------------------------4--7--5--4---|
Db|-----10-----10-9---------------or--5--9--7--5---|
Ab|---7--------------9--12-10--9-------------------|
Eb|-0---------------10--14-12--10------------------|
                    .   .  .   .      .  .  .  .
eb|------------------------------------------------------------------------|
Bb|------------------------------------------------------------------------|
Gb|------------------------------------------------------------------------|
Db|-9-11-11--12--11---9-11-11--12--11---------7------------------7---------|
Ab|-7-9--9---10--9----7-9--9---10--9--7-9-10---10-9-7*~--7-9-10---10-9-7*~-|
Eb|------------------------------------------------------------------------|
    . .  .   .        . .  .   .      . . .    .  .      . . .    .  . 
eb|------------------------------------------------------------------------|
Bb|------------------------------------------------------------------------|
Gb|------------------------------------------------------------------------|
Db|-9-11-11--12--11---9-11-11--12--11---------7------------------7---------|
Ab|-7-9--9---10--9----7-9--9---10--9--7-9-10---10-9-7*~--7-9-10---10-9-7*~-|
Eb|------------------------------------------------------------------------|
    . .  .   .        . .  .   .      . . .    .  .      . . .    .  .  
eb|-----------------------------------|
Bb|-----------------------------------|
Gb|--------7*~------------------------|
Db|-----10----10-9-7*--7-10-9-7-------|
Ab|---7-------------------------10-9--|
Eb|-0---------------------------------|

eb|------------------------------------------------|
Bb|------------------------------------------------|
Gb|--------7*~------------------------4--7--5--4---|
Db|-----10-----10-9---------------or--5--9--7--5---|
Ab|---7--------------9--12-10--9-------------------|
Eb|-0---------------10--14-12--10------------------|
                    .   .  .   .      .  .  .  .
eb|-----------------------------------|
Bb|-----------------------------------|
Gb|--------7*~------------------------|
Db|-----10----10-9-7*--7-10-9-7-------|
Ab|---7------------------------10-9---|
Eb|-0---------------------------------|

eb|------------------------------------------------|
Bb|------------------------------------------------|
Gb|--------7*~------------------------4--7--5--4---|
Db|-----10-----10-9---------------or--5--9--7--5---|
Ab|---7--------------9--12-10--9-------------------|
Eb|-0---------------10--14-12--10------------------|
                    .   .  .   .      .  .  .  .    
eb|------------------------------------------------------------------------|
Bb|------------------------------------------------------------------------|
Gb|------------------------------------------------------------------------|
Db|-9-11-11--12--11---9-11-11--12--11---------7*-----------------7*--------|
Ab|-7-9--9---10--9----7-9--9---10--9--7-9-10----10-9-7*~--7-9-10---10-9-7*~|
Eb|------------------------------------------------------------------------|
    . .  .   .        . .  .   .      . . .    .  .       . . .    .  . 

eb|------------------------------------------------------------------------|
Bb|------------------------------------------------------------------------|
Gb|------------------------------------------------------------------------|
Db|-9-11-11--12--11---9-11-11--12--11---------7------------------7---------|
Ab|-7-9--9---10--9----7-9--9---10--9--7-9-10---10-9-7*~--7-9-10---10-9-7*~-|
Eb|------------------------------------------------------------------------|
    . .  .   .        . .  .   .      . . .    .  .      . . .    .  . 
Verse Riff
eb|------------------------------------------------------------------------|
Bb|------------------------------------------------------------------------|
Gb|------------------------------------------------------------------------|
Db|-9-9-9--9-9-9--9-9-9--9-9-9----10-10-10---10-10-10---10-10-10---10-10-10|
Ab|-7-7-7--7-7-7--7-7-7--7-7-7----7--7--7----7--7--7----7--7--7----7--7--7-|
Eb|------------------------------------------------------------------------|

eb|-------------------------------------------------------------|
Bb|-------------------------------------------------------------|
Gb|-7-7-7--7-7-7--7-7-7--7-7-7----------------------------------|
Db|-7-7-7--7-7-7--7-7-7--7-7-7----9-9-9--9-9-9---7-7-7-7-7/5----|
Ab|-9-9-9--9-9-9--9-9-9--9-9-9----7-7-7--7-7-7---5-5-5-5-5/3----|
Eb|-------------------------------------------------------------|

eb|------------------------------------------------------------------------|
Bb|------------------------------------------------------------------------|
Gb|------------------------------------------------------------------------|
Db|-9-9-9--9-9-9--9-9-9--9-9-9----10-10-10---10-10-10---10-10-10---10-10-10|
Ab|-7-7-7--7-7-7--7-7-7--7-7-7----7--7--7----7--7--7----7--7--7----7--7--7-|
Eb|------------------------------------------------------------------------|

eb|-------------------------------------------------------------|
Bb|-------------------------------------------------------------|
Gb|-7-7-7--7-7-7--7-7-7--7-7-7----------------------------------|
Db|-7-7-7--7-7-7--7-7-7--7-7-7----9-9-9--9-9-9---7-7-7-7-7/5----|
Ab|-9-9-9--9-9-9--9-9-9--9-9-9----7-7-7--7-7-7---5-5-5-5-5/3----|
Eb|-------------------------------------------------------------|


Verse Riff 2 (Boss Digital Reverb Pedal)
eb|-----------------------------------------------------|
Bb|-----------------------------------------------------|
Gb|-----------------------------------------------------|
Db|-----4-5-4---------2-2-------4-5-4--------2-2--------|
Ab|-----------5--5--2-----2--3-3-------5-5-2-----2------|
Eb|-0-0-------------------------------------------------|
    . .                       . .     
eb|-----------------------------------------------|
Bb|-----------------------------------------------|
Gb|-----------------------------------------------|
Db|-----9-10-9-7---------------9-10-9-7-----------|
Ab|-7-7----------10-9-7----7-7----------10-9\5----|
Eb|-----------------------------------------------|






Chorus
eb|---------------------------------------------------|
Bb|---------------------------------------------------|
Gb|---------2*~---------2*~---------2*~---------------|
Db|-3-3-3-------3-3-3-------3-3-3-------3-3--3--3-----|
Ab|-3-3-3-------3-3-3-------3-3-3-------3-3--3--3-----|
Eb|-1-1-1-------1-1-1-------1-1-1-------1-1--1--1-----|
    . . .       . . .       . . .       . .  .  .
eb|-----0---------0-------------------------------------------------------|
Bb|-----1---------1-------------------------------------------------------|
Gb|-----2---------0---------------2*~---------2*~---------2*~-------------|
Db|-----2---------2-------3-3-3-------3-3-3-------3-3-3-------3-3--3--3-3-|
Ab|-----0---------3-------3-3-3-------3-3-3-------3-3-3-------3-3--3--3-3-|
Eb|---------------3-------1-1-1-------1-1-1-------1-1-1-------1-1--1--1-1-|
                          . . .       . . .       . . .       . .  .  . .
eb|-----0---------0-----|
Bb|-----1---------1-----|
Gb|-----2---------0-----|
Db|-----2---------2-----|
Ab|-----0---------3-----|
Eb|---------------3-----|

eb|---------------------------------------------------------------------|
Bb|---------------------------------------------------------------------|
Gb|---------------------------------------------------------------------|
Db|-9-9-9--9-9-9--9-9-9--9-9-9--10-10-10--10-10-10--10-10-10--10-10-10--|
Ab|-7-7-7--7-7-7--7-7-7--7-7-7--7--7--7---7--7--7---7--7--7---7--7--7---|
Eb|---------------------------------------------------------------------|

eb|------------------------------------------------------------|
Bb|------------------------------------------------------------|
Gb|-7-7-7--7-7-7--7-7-7--7-7-7---------------------------------|
Db|-7-7-7--7-7-7--7-7-7--7-7-7----9-9-9--9-9-9---7-7-7-7-7/5---|
Ab|-9-9-9--9-9-9--9-9-9--9-9-9----7-7-7--7-7-7---5-5-5-5-5/3---|
Eb|------------------------------------------------------------|

eb|---------------------------------------------------------------------|
Bb|---------------------------------------------------------------------|
Gb|---------------------------------------------------------------------|
Db|-9-9-9--9-9-9--9-9-9--9-9-9--10-10-10--10-10-10--10-10-10--10-10-10--|
Ab|-7-7-7--7-7-7--7-7-7--7-7-7--7--7--7---7--7--7---7--7--7---7--7--7---|
Eb|---------------------------------------------------------------------|

eb|------------------------------------------------------------|
Bb|------------------------------------------------------------|
Gb|-7-7-7--7-7-7--7-7-7--7-7-7---------------------------------|
Db|-7-7-7--7-7-7--7-7-7--7-7-7----9-9-9--9-9-9---7-7-7-7-7/5---|
Ab|-9-9-9--9-9-9--9-9-9--9-9-9----7-7-7--7-7-7---5-5-5-5-5/3---|
Eb|------------------------------------------------------------|

eb|----------------------------------------------------|
Bb|----------------------------------------------------|
Gb|----------------------------------------------------|
Db|-----4-5-4---------2-2---------4-5-4--------2-2-----|
Ab|-----------5-5--2------2---3-3--------5-5-2-----2---|
Eb|-0-0------------------------------------------------|
    . .                       . .
eb|----------------------------------------------|
Bb|----------------------------------------------|
Gb|----------------------------------------------|
Db|-----9-10-9-7---------------9-10-9-7----------|
Ab|-7-7----------10-9-7----7-7----------10-9\5---|
Eb|----------------------------------------------|

eb|-------------------------------------------------|
Bb|-------------------------------------------------|
Gb|---------2*~---------2*~---------2*~-------------|
Db|-3-3-3-------3-3-3-------3-3-3-------3-3--3--3---|
Ab|-3-3-3-------3-3-3-------3-3-3-------3-3--3--3---|
Eb|-1-1-1-------1-1-1-------1-1-1-------1-1--1--1---|
    . . .       . . .       . . .       . .  .  .
eb|-----0--------0--------------------------------------------------------|
Bb|-----1--------1--------------------------------------------------------|
Gb|-----2--------0---------------2*~---------2*~---------2*~--------------|
Db|-----2--------2-------3-3-3-------3-3-3-------3-3-3-------3-3--3--3-3--|
Ab|-----0--------3-------3-3-3-------3-3-3-------3-3-3-------3-3--3--3-3--|
Eb|--------------3-------1-1-1-------1-1-1-------1-1-1-------1-1--1--1-1--|
                         . . .       . . .       . . .       . .  .  . .
eb|-----0-----------0-----|
Bb|-----1-----------1-----|
Gb|-----2-----------0-----|
Db|-----2-----------2-----|
Ab|-----0-----------3-----|
Eb|-----------------3-----|


eb|-------5-------8-------5-------8-------8-------12-------8-------12---|
Bb|---------------------------------------------------------------------|
Gb|---------------------------------------------------------------------|
Db|---------------------------------7-7-7---7-7-7----7-7-7---7-7-7------|
Ab|-8-8-8---8-8-8---8-8-8---8-8-8---------------------------------------|
Eb|---------------------------------------------------------------------|
    . . .   . . .   . . .   . . .   . . .   . . .    . . .   . . .  
eb|-------7-------10-------7-------10-------5-------8-------5-------8---|
Bb|---------------------------------------------------------------------|
Gb|---------------------------------------------------------------------|
Db|-5-5-5---5-5-5----5-5-5---5-5-5----8-8-8---8-8-8---8-8-8---8-8-8-----|
Ab|---------------------------------------------------------------------|
Eb|---------------------------------------------------------------------|
    . . .   . . .    . . .   . . .    . . .   . . .   . . .   . . . 
eb|-------5-------8-------5-------8-------8-------12-------8-------12---|
Bb|---------------------------------------------------------------------|
Gb|---------------------------------------------------------------------|
Db|---------------------------------7-7-7---7-7-7----7-7-7---7-7-7------|
Ab|-8-8-8---8-8-8---8-8-8---8-8-8---------------------------------------|
Eb|---------------------------------------------------------------------|
    . . .   . . .   . . .   . . .   . . .   . . .    . . .   . . . 
eb|-------7-------10-------7-------10-------5-------8-------5-------8---|
Bb|---------------------------------------------------------------------|
Gb|---------------------------------------------------------------------|
Db|-5-5-5---5-5-5----5-5-5---5-5-5----8-8-8---8-8-8---8-8-8---8-8-8-----|
Ab|---------------------------------------------------------------------|
Eb|---------------------------------------------------------------------|
    . . .   . . .    . . .   . . .    . . .   . . .   . . .   . . . 
Guitar Solo
eb|----------------------------------------------------------------|
Bb|-15p12----15p12----15p12----15p12----15p12----15p12-----15b17---|
Gb|-------14-------14-------14-------14-------14-------14----------|
Db|----------------------------------------------------------------|
Ab|----------------------------------------------------------------|
Eb|----------------------------------------------------------------|

eb|-17b19-15-14b15rb14-12-12~--------------------17-17-14-15-15----14-14--|
Bb|----------------------------------15h17-17b19----------------17--------|
Gb|----------------------------14/16--------------------------------------|
Db|-----------------------------------------------------------------------|
Ab|-----------------------------------------------------------------------|
Eb|-----------------------------------------------------------------------|

eb|--------------------------------------------------------|
Bb|-15-17-17--13-12h13p12----12----10h11h12/17-------------|
Gb|-----------------------14----12-------------------------|
Db|-----------------------------------------------/14~~~---|
Ab|--------------------------------------------------------|
Eb|--------------------------------------------------------|

eb|---------------------------------------------------------------------|
Bb|-------15-15b17---15b17---15~~------------15h17-17b20--17b20--17~~---|
Gb|-14h16-------------------------14h16/17~~----------------------------|
Db|---------------------------------------------------------------------|
Ab|---------------------------------------------------------------------|
Eb|---------------------------------------------------------------------|

eb|------------------------------------------------|
Bb|------------------------12----------------------|
Gb|----------------12*~~------12-0h12h14-13--------|
Db|------------10---------------------------12~~---|
Ab|-----10-12--------------------------------------|
Eb|-10---------------------------------------------|
    .   .  .   .
eb|----------------------------------------|
Bb|----------------------------------------|
Gb|----------------------------------------|
Db|-4h5p4p2p0----------2-4-5---4h5p4p2p0---|
Ab|----------------------------------------|
Eb|----------------------------------------|

eb|--------7h8h10p8p7h8p7----7--------------------------------------------|
Bb|-7h8h10----------------10---10-8---7h8p7--7~---------------------------|
Gb|----------------------------------------------9b11rb9------9b11rb------|
Db|--------------------------------------------------------9~----------9~-|
Ab|-----------------------------------------------------------------------|
Eb|-----------------------------------------------------------------------|

eb|-17b19-17-15-17p15----------------------------------|
Bb|-------------------17-17-----17p15------------------|
Gb|-----------------------------------16-16----16-14---|
Db|----------------------------------------------------|
Ab|----------------------------------------------------|
Eb|----------------------------------------------------|

eb|-----------------------------------------------------|
Bb|-----------------------------------------------------|
Gb|-9/11-11-11---11/12-12-12---12/14-14-14---14/16~~----|
Db|-x----x---x---x-----x--x----x-----x--x----x----------|
Ab|-7/9--9--9----9/-10-10-10---10/12-12-12---12/14~~~---|
Eb|-----------------------------------------------------|

eb|---------------------------------------------------------------------|
Bb|---------------------------------------------------------------------|
Gb|------------------8-9-9*~--------------------------------------------|
Db|-------------9-10------------9/10\9-7-9p7-5-7-7b8===---5-----5h7p5---|
Ab|-------10-12-----------------------------------------7----7----------|
Eb|-10-12---------------------------------------------------------------|
    .  .  .  .  . .   
eb|----------7-----------------------------10-----------------------------|
Bb|------------8---10~~------8--10--10b12======rb10--10-8-7h8p7---7h8p7~--|
Gb|-9-0h7h9------9----------------------------------------------9---------|
Db|-----------------------------------------------------------------------|
Ab|-----------------------------------------------------------------------|
Eb|-----------------------------------------------------------------------|

eb|----------------7p0---8p0---7p0-------------|
Bb|----7p5p0-8p5p0-----0-----0-----0-8p5p0-5---|
Gb|-/4-----------------------------------------|
Db|--------------------------------------------|
Ab|--------------------------------------------|
Eb|--------------------------------------------|

eb|---------------7p0---8p0---7p0---------------|
Bb|---7p5p0-8p5p0-----0-----0-----0-8p5p0-7~~---|
Gb|-5-------------------------------------------|
Db|---------------------------------------------|
Ab|---------------------------------------------|
Eb|---------------------------------------------|

eb|-------------7---8---9---8---7---------------3--------3--------3--|
Bb|---8p5---7-----------------------------5p3p0----5p3p0----5p3p0----|
Gb|-7-----7----7---7---7---7---7-------/4----------------------------|
Db|------------------------------------------------------------------|
Ab|------------------------------------------------------------------|
Eb|------------------------------------------------------------------|
               .   .   .   .   .
Outro You can figure out the fill in between riffs, I’m not sure how it goes.
eb|----------------------------------------------------|
Bb|----------------------------------------------------|
Gb|----------------------------------------------------|
Db|-----/9--7--5-----/10--9--7-------/7--5--4----------|
Ab|-/7--------------------------/5-------------/7~~~---|
Eb|--------------/8------------------------------------| Repeat until fade

| /  slide up
| \  slide down
| h  hammer-on
| p  pull-off
| ~  vibrato
| +  harmonic
| x  Mute note
| *  Pinch/Artificial Harmonic

comments
print report bad tab
I want to post or [tab]
guest
You may want to rate the tab now too:
select rating
Please do not post tabs as comments. Select "correction" instead!