Oops, an error
Loading. Please wait.

World Of Lines Tab

ver1
ver1

Whole song

Interactive

More versions @911Tabs.com
7,798 views 9 this week
no commentswrite comment
1 2 3 4 5
excellent!
x 3
Autoscroll
+/-
esc
set tempo
stop
Contributor
Difficulty
intermediate
WARNING: You are trying to view
                                    content from Ultimate-Guitar.com
                                    in an unauthorized application,
                                    which is prohibited.

                                    Please use an official Ultimate
                                    Guitar Tabs application for iPhone,
                                    iPad or Android to access legitimate
                                    chords, guitar, bass, and drum tabs
                                    from Ultimate-Guitar.com database.

                                    Type "ultimate guitar tabs" in Apple
                                    App Store's or Android Market's
                                    search to find the application.
Artist: Coheed and Cambria
Track: "World of Lines" v 3.0
Album: The Year of the Black Rainbow
Tuning: Standard

Tabbed by Larry Jones

There are some alternate parts on here showing the way Coheed plays 
live; this information was gathered from Coheed playing Coachella.  
See the link below.

http://www.youtube.com/watch?v=55uTDLnQwSw

Key:
/ - slide
. - palm mute
v - vibrato
p - pull off
h - hammer on
~ - let ring
b - bend to sound like the following note
r - release bend
* - natural harmonic
x - muted notes

Intro: (0:00 - 0:22)

Claudio Guitar x 4
e-----------------------------------------------------------------|
B-----------------------------------------------------------------|
G-----------------------------------------------------------------|
D---7------7-------------------------2-------2--------------------|
A-5---8--5---8---5-7-8---5-7-8---3-5-----3-5------------3---------|
E-----------------------------------------------0h3h5-5---5-3-5---|


Travis Guitar x 2

e-----------------------------------------------------------------------------|
B-----------------------------------------------------------------------------|
G-----------------------------------------------------------------------------|
D-77-777----------77-777------------------------------------------------------|
A-55-555----------55-555----------88-888----------55-555--xxxxxxxxxxxx--------|
E---------------------------------66-666----------33-333--xxxxxxxxxxxx--------|
Note:  The last few notes of the above are muted notes played around the 5th
fret.

Travis Guitar Alt. Live x 2
e----------------------------------------------------------------------------------|
B----------------------------------------------------------------------------------|
G----------------------------------------------------------------------------------|
D-77-777x-x-x-xxxxxxxx77-777x-x-x-xxxxxxxx-----------------------------------------|
A-55-555x-x-x-xxxxxxxx55-555x-x-x-xxxxxxxx88-888x-x-x-xxxxxxxx55-555x-x-x-xxxxxxxx-|
E-----------------------------------------66-666x-x-x-xxxxxxxx33-333x-x-x-xxxxxxxx-|
Note: All above mutes are played in the same position as the power chord, except
that you are not fretting the strings, you are muting them.

Synth Lead

e---------------------------------------------------|
B-10-11-10-----------------10-11-10-----------------|
G----------10-12-14v----------------10-12-----------|
D-----------------------------------------12v-------|
A---------------------------------------------------|
E---------------------------------------------------|

1st Verse: (0:22 - 0:55)

"This is the hidden truth, the world between the lines..."

Claudio Guitar:

First time through
e----------------------------------------------------------------------------|
B----------------------------------------------------------------------------|
G----------------------------------------------------------------------------|
D---7-----7----------------77-777-777-777-7----------------------------------|
A-5---8-5---8-5-7-8--5-7-8-55-555-555-555-5-88-888-888-888-855-555-555-555---|
E-------------------------------------------66-666-666-666-633-333-333-333---|
                           ................................................

Next time through x 2
e-----------------------------------------------------------|
B-----------------------------------------------------------|
G-----------------------------------------------------------|
D---7------7---------------------7-7---7-7-7-7---7-7p5-5-5--|
A-5---8--5---8---5-7-8-5-7-8---5----------------------------|
E-----------------------------------------------------------|

Next time through x 1
e-----------------------------------------------------------------|
B-----------------------------------------------------------------|
G-----------------------------------------------------------------|
D---7------7-------------------------2-------2--------------------|
A-5---8--5---8---5-7-8---5-7-8---3-5-----3-5------------3---------|
E-----------------------------------------------0h3h5-5---5-3-5---|

last time through x 1
e-----------------------------------------------------------------|
B-----------------------------------------------------------------|
G-----------------------------------------------------------------|
D---7------7-------------------------2-------2--------------------|
A-5---8--5---8---5-7-8---5-7-8---3-5-----3-5----xxxxxxxxxxxxxxxx--|
E-----------------------------------------------xxxxxxxxxxxxxxxx--|
Note: On the end of the above measure Claudio slides his fingers
starting from the around the 5th fret up to the about the 12th fret
and then slides back down to play the first few notes of the chorus.
The whole time, he is muting the strings, touching not fretting,
and picking the first two strings rapidly.

last time through live x 1
e-----------------------------------------------------------------|
B-----------------------------------------------------------------|
G-----------------------------------------------------------------|
D---7------7------------------------------------------------------|
A-5---8--5---8---5-7-8---5-7-8---xxxxxxxxxxxxxxxxxxxxxxxxxxxxxxx--|
E--------------------------------xxxxxxxxxxxxxxxxxxxxxxxxxxxxxxx--|
Note: The muted part at the end is played pretty much the same as above,
but now it's down over an extra portion of the verse ending.


Travis Guitar:

First time through
e---------------------------------------------------------------------------|
B---------------------------------------------------------------------------|
G---------------------------------------------------------------------------|
D--------------------------77-777-777-777-7---------------------------------|
A--------------------------55-555-555-555-588-888-888-888-855-555-555-555-5-|
E------------------------------------------66-666-666-666-633-333-333-333-3-|
                           ................................................

Second time through
e------------------------------------------------------------------|
B------------------------------------------------------------------|
G------------------------------------------------------------------|
D-77-777-777-777-777-777-777-777-7---------------------------------|
A-55-555-555-555-555-555-555-555-588-888-888-888-855-555-555-555-5-|
E---------------------------------66-666-666-666-633-333-333-333-3-|
  ................................................................

Third time through
e------------------------------------------------------------------|
B------------------------------------------------------------------|
G------------------------------------------------------------------|
D-77-788-877-733-377-788-877-733-3---------------------------------|
A-55-555-555-555-555-555-555-555-588-888-888-888-85555555555555555-|
E---------------------------------66-666-666-666-63333333333333333-|
                                  ................

Chorus: (0:55 - 1:17)

"Just leave us alone..."

Claudio Guitar: x 2
e--------------------------------------------------------------------|
B--------------------------------------------------------------------|
G--------------------------------------------------------------------|
D-77777777777777757777777777777770-----------------------------------|
A-55555555555555535555555555555550-8888888888888880-5555555555555550-|
E----------------------------------6666666666666660-3333333333333330-|


Travis Guitar:

First time through
e--------------------------------------------------------------------|
B--------------------------------------------------------------------|
G--------------------------------------------------------------------|
D-77777777777777757777777777777770-----------------------------------|
A-55555555555555535555555555555550-8888888888888880-5555555555555550-|
E----------------------------------6666666666666660-3333333333333330-|


second time through
e-8----------8-----------8---------8----------------|
B----8--10v----8--10-------8--10v----8--10----------|
G--------------------7v--------------------7v-------|
D---------------------------------------------------|
A---------------------------------------------------|
E---------------------------------------------------|

third time through
e-8----------8-----------8---------8----------------|
B----8--10v----8--10-------8--10v----8--------------|
G--------------------7v-----------------------------|
D---------------------------------------------------|
A---------------------------------------------------|
E---------------------------------------------------|

2nd Verse: (1:17 - 1:39)

"Communications breaking, the static hoarding the lines..."

Claudio Guitar: x 3
e-----------------------------------------------------------------|
B-----------------------------------------------------------------|
G-----------------------------------------------------------------|
D---7------7------------------------------------------------------|
A-5---8--5---8---5-7-8---5-7-8---3-5-7---3-5-7----------3---------|
E-----------------------------------------------0h3h5-5---5-3-5---|

Claudio last time: x 1
e-----------------------------------------------------------------|
B-----------------------------------------------------------------|
G-----------------------------------------------------------------|
D---7------7-------------------------2-------2--------------------|
A-5---8--5---8---5-7-8---5-7-8---3-5-----3-5----xxxxxxxxxxxxxxxx--|
E-----------------------------------------------xxxxxxxxxxxxxxxx--|
Note: On the end of the above measure Claudio slides his fingers
starting from the around the 5th fret up to the about the 12th fret
and then slides back down to play the first few notes of the chorus.
The whole time, he is muting the strings, touching not fretting,
and picking the first two strings rapidly.

last time through live x 1
e-----------------------------------------------------------------|
B-----------------------------------------------------------------|
G-----------------------------------------------------------------|
D---7------7------------------------------------------------------|
A-5---8--5---8---5-7-8---5-7-8---xxxxxxxxxxxxxxxxxxxxxxxxxxxxxxx--|
E--------------------------------xxxxxxxxxxxxxxxxxxxxxxxxxxxxxxx--|
Note: The muted part at the end is played pretty much the same as above,
but now it's down over an extra portion of the verse ending.

Travis Guitar:

first time through
e---------------------------------------------------|
B---------------------------------------------------|
G-7b8r7v--------------------------------------------|
D---------------------------------------------------|
A---------------------------------------------------|
E---------------------------------------------------|
Note: The above notes are actually played starting at the
end of the first chorus, then this bend plays over the first
measure of the second verse.


second time through
e---------------------------------------------------|
B---------------------------------------------------|
G--8r7v---------------------------------------------|
D---------------------------------------------------|
A---------------------------------------------------|
E---------------------------------------------------|
Note: The above note is a pre-bend.  Bend the 7th fret to
sound like an 8 before you ever play it.

second time through x 1
e------------------------------------------------------------------|
B------------------------------------------------------------------|
G------------------------------------------------------------------|
D-77-788-877-733-377-788-877-733-3---------------------------------|
A-55-555-555-555-555-555-555-555-588-888-888-888-855-555-555-555-5-|
E---------------------------------66-666-666-666-633-333-333-333-3-|


2nd Chorus: (1:39 - 2:01)

"Just leave us alone..."

Claudio Guitar:

first time through
e--------------------------------------------------------------------|
B--------------------------------------------------------------------|
G--------------------------------------------------------------------|
D-77777777777777757777777777777770-----------------------------------|
A-55555555555555535555555555555550-8888888888888880-5555555555555550-|
E----------------------------------6666666666666660-3333333333333330-|


second time through
e--------------------------------------------------------------------|
B--------------------------------------------------------------------|
G--------------------------------------------------------------------|
D-77777777777777757777777777777770-----------------------------------|
A-55555555555555535555555555555550-8888888888888880-5555555577777770-|
E----------------------------------6666666666666660-3333333355555550-|


Travis Guitar: x 3
e-8----------8-----------8---------8----------------|
B----8--10v----8--10-------8--10v----8--10----------|
G--------------------7v--------------------7v-------|
D---------------------------------------------------|
A---------------------------------------------------|
E---------------------------------------------------|

e-8----------8-----------8---------8----------------|
B----8--10v----8--10-------8--10v----8--10----------|
G--------------------7v--------------------7v-------|
D---------------------------------------------------|
A---------------------------------------------------|
E---------------------------------------------------|

last time:
e-8----------8-----------8---------8----------------|
B----8--10v----8--10-------8--10v----8--------------|
G--------------------7v-----------------------------|
D---------------------------------------------------|
A---------------------------------------------------|
E---------------------------------------------------|

Bridge: (2:01 - 2:28)
"I'll stay at your pace and go hide..."

Claudio Guitar: x 2
e----------------------------------------------------------------------|
B----------------------------------------------------------------------|
G----------------------------------------------------------------------|
D---------------------------------------------3----77-77-7-5-3-5-3-2---|
A-88-88---5p0---5p0---5-----55-55---3-----3-----5v-55-55-------------3-|
E-66-66-6-----6-----6---6-5-33-33-5---3h5---5--------------------------|

end on
e---------------------------------------------------|
B---------------------------------------------------|
G---------------------------------------------------|
D---------------------------------------------------|
A-8~------10~---------------------------------------|
E-6~------8-~---------------------------------------|


Travis Guitar (As recorded on the album): x 1
e---------------------------------------------------|
B----------5v-6-------------------------------------|
G-7b8r7v---------7----------------------------------|
D---------------------------------------------------|
A---------------------------------3-----------------|
E---------------------5-3-1-3-1-0-------------------|

e---------------------------------------------------|
B------5----6-----10--------------------------------|
G-7------------7------------------------------------|
D---------------------------------------------------|
A---------------------------------3-----------------|
E---------------------5-3-1-3-1-0-------------------|

end on
e-13V---13V---13v---13v---13v---13v---13v---13v---13v---13v---13v-------|
B----17v---17v---17v---17v---17v---17v---17v---17v---17v---17V---17V----|
G-----------------------------------------------------------------------|
D-----------------------------------------------------------------------|
A-----------------------------------------------------------------------|
E-----------------------------------------------------------------------|
let the above notes ring together while doing heavy vibrato to simulate that creepy sound

Travis Guitar (As played live at Coachella in linked video): x 2
e---------------------------------------------------|
B-11v--11v-10v--10v-11v-13v--11v--------------------|
G---------------------------------------------------|
D---------------------------------------------------|
A---------------------------------------------------|
E---------------------------------------------------|

end on
e---------------------------------------------------|
B---------------------------------------------------|
G-10v------12v--------------------------------------|
D-10v------12v--------------------------------------|
A---------------------------------------------------|
E---------------------------------------------------|


Outro: (2:28 - 3:15)

"Just leave us alone..."

Claudio Guitar (As recorded on the album): x 4
e--------------------------------------------------------------------|
B--------------------------------------------------------------------|
G--------------------------------------------------------------------|
D-77777777777777757777777777777770-----------------------------------|
A-55555555555555535555555555555550-8888888888888880-5555555555555550-|
E----------------------------------6666666666666660-3333333333333330-|

Claudio Guitar (As played live at Coachella in the linked video):

e-15-15-15-12-12-12-13-13-13----------12-12--------------------------|
B----------------------------15-15-15-------13-13--------------------|
G--------------------------------------------------------------------|
D--------------------------------------------------------------------|
A--------------------------------------------------------------------|
E--------------------------------------------------------------------|

e--------------------------------------------------------------------|
B-15-15-15-15-15-15-13-13-13-13-13-13-13-13-13-13--------------------|
G--------------------------------------------------------------------|
D--------------------------------------------------------------------|
A--------------------------------------------------------------------|
E--------------------------------------------------------------------|

e-------------------------------------------------------------------------------------|
B-13b15r13-13b15r13-13b15r13-13b15r13-13-13-13-13-13-13-13-13-13-13-13-13-13-13-13-13-|
G-------------------------------------------------------------------------------------|
D-------------------------------------------------------------------------------------|
A-------------------------------------------------------------------------------------|
E-------------------------------------------------------------------------------------|

e-15-15-15-12-12-12-13-13-13----------12-12--------------------------|
B----------------------------15-15-15-------13-13--------------------|
G--------------------------------------------------------------------|
D--------------------------------------------------------------------|
A--------------------------------------------------------------------|
E--------------------------------------------------------------------|

e--------------------------------------------------------------------|
B-15-15-15-15-15-15-13-13-13-13-13-13-13-13-13-13--------------------|
G--------------------------------------------------------------------|
D--------------------------------------------------------------------|
A--------------------------------------------------------------------|
E--------------------------------------------------------------------|

e-------------------------------------|
B-13b15r13-13b15r13-13b15r13-13b15r13-|
G-------------------------------------|
D-------------------------------------|
A-------------------------------------|
E-------------------------------------|

e-1515151515151515151515151515151515151515151515151515151515151515151515151515151515--|
B-------------------------------------------------------------------------------------|
G-------------------------------------------------------------------------------------|
D-------------------------------------------------------------------------------------|
A-------------------------------------------------------------------------------------|
E-------------------------------------------------------------------------------------|

then Chorus Chords x3
e--------------------------------------------------------------------|
B--------------------------------------------------------------------|
G--------------------------------------------------------------------|
D-77777777777777757777777777777770-----------------------------------|
A-55555555555555535555555555555550-8888888888888880-5555555555555550-|
E----------------------------------6666666666666660-3333333333333330-|

Travis Guitar:
e--------------------------------------------------------------------|
B-13~--------------15~--------------13~------------------------------|
G----14~---------------14~-------------14~----------------------12---|
D-------14~---------------14b15r14--------14~----12--14--15--15------|
A----------15~-------------------------------15~---------------------|
E--------------------------------------------------------------------|
comments
We did not receive enough feedback on this tab! Please rate:
print report bad tab
1 2 3 4 5
I want to post or [tab]
guest
You may want to rate the tab now too:
select rating
Please do not post tabs as comments. Select "correction" instead!