Oops, an error
Loading. Please wait.

Year Of The Black Rainbow Tab

ver1
ver1

Album

Whole song

More versions @911Tabs.com
3,047 views 12 this week
no commentswrite comment
1 2 3 4 5
excellent!
x 3
Autoscroll
+/-
esc
set tempo
stop
Contributor
Difficulty
advanced
Hey! There's an official Ultimate Guitar app which is ideal
for learning songs when you're away from computer. Get the app
WARNING: You are trying to view
                                    content from Ultimate-Guitar.com
                                    in an unauthorized application,
                                    which is prohibited.

                                    Please use an official Ultimate
                                    Guitar Tabs application for iPhone,
                                    iPad or Android to access legitimate
                                    chords, guitar, bass, and drum tabs
                                    from Ultimate-Guitar.com database.

                                    Type "ultimate guitar tabs" in Apple
                                    App Store's or Android Market's
                                    search to find the application.
Artist: Coheed and Cambria
Album: The Year Of The Black Rainbow


As tabbed by Lawrence Jones


Here are the full album tabs for 'The Year Of The Black Rainbow.'  If interested I have 
made Guitar Pro tabs for each of these songs; simply browse through the tabs on UG and 
pick 'em up.

The tracks listed below in sequential order as follows:

1. One
2. The Broken
3. Guns of Summer
4. Here We Are Juggernaut
5. Far
6. This Shattered Symphony
7. World of Lines
8. Made Out of Nothing (All That I Am)
9. Pearl of the Stars
10. In the Flame of Error
11. When Skeletons Live
12. The Black Rainbow
13. Chamberlain (Demo)
14. The Lost Shepherd (Demo)
15. Hush

Tab Symbol Key:
/ - slide
. - palm mute
v - vibrato
p - pull off
t - tap
h - hammer on
~ - let ring
b - bend to sound like the following note
r - release bend
* - natural harmonic

__________________________________________________________________________________


Track: "One"
Tuning: Standard

There is some random noise on this track; obviously that can not be tabbed out.
What is here is all of the main piano/synth themes transcribed for guitar.

Key:
/ - slide
. - palm mute
v - vibrato
p - pull off
h - hammer on
~ - let ring
b - bend to sound like the following note
r - release bend
* - natural harmonic

Piano Theme I: x 1

(0:27 - 0:37)

e-10----------------------------------------------------------16-15-13-15-------|
B----13-------13-------------------11----------------10-12-13-------------------|
G-------10-12-------10-13-12----------13-12-10----10----------------------------|
D----------------12----------13-10-------------13-------------------------------|
A-------------------------------------------------------------------------------|
E-------------------------------------------------------------------------------|

(0:37 - 0:48)

e----------10-13-16-15-11-10----------------------------------------------------|
B-10-12-13----------------------------13-------------------11-------------------|
G----------------------------------12-------10-13-12----------13-12-10----10----|
D----------------------------10-13-------12----------13-10-------------13-------|
A-------------------------------------------------------------------------------|
E-------------------------------------------------------------------------------|

(0:48 - 0:56)

e----------16-15-13-15----------10-13-16-15-11----------------------------------|
B-10-12-13-------------10-12-13-------------------------------------------------|
G-------------------------------------------------------------------------------|
D-------------------------------------------------------------------------------|
A-------------------------------------------------------------------------------|
E-------------------------------------------------------------------------------|

Piano Theme II: x 6

(1:12 - 1:54)

e----------------------------------------|
B------8------8-----------8------8-------|
G----8------8------8----8------8------8--|
D-10-----10-----10---10-----10-----10----|
A----------------------------------------|
E----------------------------------------|

(1:12 - 1:54)


Piano Theme III:

First time

e---------------17---19------------------|
B----------------------------------------|
G----------------------------------------|
D----------------------------------------|
A----------------------------------------|
E----------------------------------------|

Next five times

e-20------------17---19------------------|
B----------------------------------------|
G----------------------------------------|
D----------------------------------------|
A----------------------------------------|
E----------------------------------------|

Piano Theme IV: x 5

(1:20 - 1:54)

e-------11----------------------11------------------|
B----13----13----13----13----13----13----13----13---|
G-12------------------------------------------------|
D---------------------------------------------------|
A---------------------------------------------------|
E---------------------------------------------------|
  ................................................

Piano Theme V: x 1

(1:34 - 1:54)

e------------------------------------------------|
B------------------------------------------------|
G------------------5-------2---------------------|
D-0---1---3---5----5---1---3------0---1---3---5--|
A------------------------------------------------|
E------------------------------------------------|

________________________________________________________________________________


Track: "The Broken"
Tuning: Standard

This tab was substantiated with live videos to confirm hand positioning and notes.

Live Videos:
http://www.youtube.com/watch?v=VOrKJ3Dyk4c
http://www.youtube.com/watch?v=Zz7QWBKhXw8


Claudio Live Intro: x 1

e-------------------------------------------------------------------------|
B-------------------------------------------------------------------------|
G-------------------------------------------------------------------------|
D-------------------------------------------------------------------------|
A-///13b15r15-------------------------------------------------------------|
E-------------------------------------------------------------------------|


Verse I:


Claudio Verse Riff: x 2

e-------------------------------------------------------------------------|
B-------------------------------------------------------------------------|
G-------------------------------------------------------------------------|
D-5-5-x-x-x---5-5-------5---5/3-0-----------------------------------------|
A-3-3-x-x-x---3-3----/6---6--------5-6-5-3-----1-3-----5---5-8-6-5--------|
E------------------------------------------10/------/6---6----------------|

e-------------------------------------------------------------------------|
B-------------------------------------------------------------------------|
G---------------------------------------------------7-10-8p7---7/5p0------|
D------------------------------------------------/8----------8------------|
A-6-6-x-x-x----6-6------------3-3-x-x-x---3-3-----------------------------|
E-4-4-x-x-x----4-4---6-4-3-4--1-1-x-x-x---1-1-----------------------------|

Claudio 1st Verse/Chorus Transition: x 1

e-------------------------------------------------------------------------|
B-------------------------------------------------------------------------|
G-------------------------------------------------------------------------|
D-5-5-x-x-x---5-5-------5---5/3-0-----------------------------------------|
A-3-3-x-x-x---3-3----/6---6-------5-6-5-3-----1-3-----5---5-8-6-5---------|
E-----------------------------------------10/------/6---6-----------------|

e---------------------------------------------5*--------------------------|
B---------------------------------------------5*--------------------------|
G-------------------------------------------------------------------------|
D-------------------------------------------------------------------------|
A-6-6-x-x-x----6-6------------3-3-x-x-x---3-3-----12///-------------------|
E-4-4-x-x-x----4-4---6-4-3-4--1-1-x-x-x---1-1-----12///----0-0------------|
							   . .
Travis Verse Riff: x 2

e-------------------------------------------------------------------------|
B-------------------------------------------------------------------------|
G-------------------------------------------------------------------------|
D-5-5-----1-1------------------5-3----x-1-3-------------------------------|
A-----3-3-----3~-------13/------------------3~--------13/-----------------|
E-------------------------------------------------------------------------|

e-------------------------------------------------------------------------|
B-8-6-4-4-3-3h4p3---------------------------------------------------------|
G-----------------------------------8------8------------------------------|
D---------------------------------8---8-10---10---------------------------|
A-----------------------------/10-----------------------------------------|
E-------------------------------------------------------------------------|


1st Chorus:


Claudio Chorus Chords: x 1

e-------------------------------------------------------------------------|
B-------------------------------------------------------------------------|
G-------------------------------------------------------------------------|
D-------------------------------------------------------------------------|
A-6-6-6-6-6-6-6-6-6-6-6-6-6-6-0-0-3-3-3-3-3-3-3-3-3-3-3-3-3-3-3-0---------|
E-4-4-4-4-4-4-4-4-4-4-4-4-4-4-0-0-1-1-1-1-1-1-1-1-1-1-1-1-1-1-1-0---------|

e-------------------------------------------------------------------------|
B-------------------------------------------------------------------------|
G-------------------------------------------------------------------------|
D-5-5-5-5-5-5-5-5-5-5-5-5-5-5-5-0-3-3-3-3-3-3-3-3-3-3-3-3~--3-3-0---------|
A-3-3-3-3-3-3-3-3-3-3-3-3-3-3-3-0-1-1-1-1-1-1-1-1-1-1-1-1~--1-1-0---------|
E-------------------------------------------------------------------------|

e-------------------------------------------------------------------------|
B-------------------------------------------------------------------------|
G-------------------------------------------------------------------------|
D-------------------------------------------------------------------------|
A-6-6-6-6-6-6-6-6-6-6-6-6-6-6-6-0-8-8-8-8-8-8-8-8-8-8-8-8-8---------------|
E-4-4-4-4-4-4-4-4-4-4-4-4-4-4-4-0-6-6-6-6-6-6-6-6-6-6-6-6-6-12/-0-0-------|
                                                                . .

Travis Chorus Lead: x 1

e-------------------------------------------------------------------------|
B-------------------------------------------------------------------------|
G-8-----10-----12-----15----------8------10------12------15---------------|
D-------------------------------------------------------------------------|
A-------------------------------------------------------------------------|
E-------------------------------------------------------------------------|

e-------------------------------------------------------------------------|
B-------------------------------------------------------------------------|
G-12-----------12-----------------10-------------10-----------------------|
D-------------------------------------------------------------------------|
A-------------------------------------------------------------------------|
E-------------------------------------------------------------------------|

e-------------------------------------------------------------------------|
B-------------------------------------------------------------------------|
G-8-----10-----12-----15----------17-----------17b19r17b19r17-------------|
D-------------------------------------------------------------------------|
A-------------------------------------------------------------------------|
E-------------------------------------------------------------------------|
	Note:  In the above lead, Travis tremolo picks all of the notes
	       except that last bend


Verse Break:


Claudio Verse Riff x 1
Travis Verse Lead x 1


2nd Verse:


Claudio 2nd Verse/Chorus Transition: x 1

e-------------------------------------------------------------------------|
B-------------------------------------------------------------------------|
G-------------------------------------------------------------------------|
D-5-5-x-x-x---5-5-------5---5/3-0-----------------------------------------|
A-3-3-x-x-x---3-3----/6---6-------5-6-5-3-----1-3-----5---5-8-6-5---------|
E-----------------------------------------10/------/6---6-----------------|

e-------------------------------------------------------------------------|
B-------------------------------------------------------------------------|
G---------------------------------------------5*--------------------------|
D-------------------------------------------------------------------------|
A-6-6-x-x-x----6-6------------3-3-x-x-x---3-3-----12///-------------------|
E-4-4-x-x-x----4-4---6-4-3-4--1-1-x-x-x---1-1-----12///----0-0------------|
							   . .

Travis Verse Lead x 1


2nd Chorus:


Claudio Chorus Chords x 1
Travis Chorus Lead x 1


Bridge I:


Claudio Bridge I Riff: x 2

e-------------------------------------------------------------------------|
B-------------------------------------------------------------------------|
G-------------------------------------------------------------------------|
D-6/5-5-x-x-6/5-5---5-8-6-5---------6/5-5--x-X--6/5-5-5-----5----5--------|
A-4/3-3-x-x-4/3-3-6---------8-6-5/3-4/3-3--x-x--4/3-3---6-----6----6------|
E---------------------------------------------------------8-----8----8----|

e---------------------------------------------------------------------------|
B---------------------------------------------------------------------------|
G---------------------------------------------------------------------------|
D-6/5-5-x-x-6/5-5---5-8-6-5-----------------3-------------------------------|
A-4/3-3-x-x-4/3-3-6---------8-6-5/3-------4---4-3/1---1-3-4-3p1---1-3-4-3/\-|
E-----------------------------------0h3h6-----------4-----------4-----------|

Travis Bridge I Lead: x 2

e-------------------------------------------------------------------------|
B-20-20-18-18-16-16-20-20-18-18-16-16-20-20-18-18-16-16-------------------|
G-------------------------------------------------------20-20-20-20-------|
D-------------------------------------------------------------------------|
A-------------------------------------------------------------------------|
E-------------------------------------------------------------------------|

e---------------------------------|
B---------------------------------|
G-19-19-19-19-17-----15-----17v---|
D---------------------------------|
A---------------------------------|
E---------------------------------|

e-------------------------------------------------------------------------|
B-20-20-18-18-16-16-20-20-18-18-16-16-20-20-18-18-16-16-------------------|
G-------------------------------------------------------20-20-20-20-------|
D-------------------------------------------------------------------------|
A-------------------------------------------------------------------------|
E-------------------------------------------------------------------------|

e---------------------------------|
B---------------------------------|
G-19-19-19-19-17-----15-----17v---|
D---------------------------------|
A---------------------------------|
E---------------------------------|

e-------------------------------------------------------------------------|
B-20-20-18-18-16-16-20-20-18-18-16-16-20-20-18-18-16-16-------------------|
G-------------------------------------------------------20-20-20-20-------|
D-------------------------------------------------------------------------|
A-------------------------------------------------------------------------|
E-------------------------------------------------------------------------|

e---------------------------------|
B---------------------------------|
G-19-19-19-19-17-----15-----17v---|
D---------------------------------|
A---------------------------------|
E---------------------------------|

e-------------------------------------------------------------------------|
B-------------------------------------------------------------------------|
G-18v---------------20v------------------------------17v------------------|
D-------------------------------------------------------------------------|
A-------------------------------------------------------------------------|
E-------------------------------------------------------------------------|
	Note: Travis picks the majority of the first three measures of this
	      really really fast (64th notes) and then ends in sixteenth
	      notes

Travis Bridge I Lead (Alt. Live): x 2
e-------------------------------------------------------------------------|
B-20-18-16-20-18-16-20-18-16----------------------------------------------|
G----------------------------20-20-19---17-/-15---17v---------------------|
D-------------------------------------------------------------------------|
A-------------------------------------------------------------------------|
E-------------------------------------------------------------------------|

e-------------------------------------------------------------------------|
B-20-18-16-20-18-16-20-18-16----------------------------------------------|
G----------------------------20-20-19---17-/-15---17v---------------------|
D-------------------------------------------------------------------------|
A-------------------------------------------------------------------------|
E-------------------------------------------------------------------------|

e-------------------------------------------------------------------------|
B-20-18-16-20-18-16-20-18-16----------------------------------------------|
G----------------------------20-20-19---17-/-15---17v---------------------|
D-------------------------------------------------------------------------|
A-------------------------------------------------------------------------|
E-------------------------------------------------------------------------|

e-------------------------------------------------------------------------|
B-------------------------------------------------------------------------|
G-18v---------------20v------------------------------17v------------------|
D-------------------------------------------------------------------------|
A-------------------------------------------------------------------------|
E-------------------------------------------------------------------------|
	Note: Well, if you couldn't play the version on the CD, this is the
	      version for you!  When played live, Travis picks this part
	      half as slow as on the CD.


Bridge II:


Claudio Bridge II Riff: x 2

e-------------------------------------------------------------------------|
B-------------------------------------------------------------------------|
G-------------------------------------------------------------------------|
D-6~----------6-3~----5-5-5-5-5-5-------------6-5-3-----------------------|
A-4~----------4-1~----3-3-3-3-3-3-6-5-3-6-5-3-------6-5-3-----------------|
E-------------------------------------------------------------------------|
		        . . . . .

Travis Bridge II Lead: x 1

e-------------------------------------------------------------------------|
B-------------------------------------------------------------------------|
G--18---18------18h20-------17----------17-------17-----------------------|
D-------------------------------------------------------------------------|
A-------------------------------------------------------------------------|
E-------------------------------------------------------------------------|

e-------------------------------------------------------------------------|
B-------------------------------------------------------------------------|
G--18---18#-----20#---------17#---------19#------20#--------19v-----------|
D-------------------------------------------------------------------------|
A-------------------------------------------------------------------------|
E-------------------------------------------------------------------------|
	Note:  For all notes followed by a # sign, tremolo pick those
	       as 16th notes.


Bridge III:


Claudio Bridge III Chords: x 1

e-------------------------------------------------------------------------|
B-------------------------------------------------------------------------|
G-------------------------------------------------------------------------|
D-------------------------------------------------------------------------|
A-6-6666-6-6-666666666666-6---------5-5555-5-5-555555555555-5-------------|
E-4-4444-4-4-444444444444-4/11-0000-3-3333-3-3-333333333333-3/11-0000-----|
    ....     ............      ....   ....     ............      ....

e-------------------------------------------------------------------------|
B-------------------------------------------------------------------------|
G-------------------------------------------------------------------------|
D--------------------------------------------8-10----------8-10-----------|
A-8-8888-8-8-888888888888-8-------------8-10----------8-10----------8-10--|
E-6-6666-6-6-666666666666-6/14---0--6-8-----------6-8-----------6-8-------|
    ....     ............

e-------------------------------------------------------------------------|
B-------------------------------------------------------------------------|
G-------------------------------------------------------------------------|
D-------------------------------------------------------------------------|
A-6-6666-6-6-666666666666-6---------5-5555-5-5-555555555555-5-------------|
E-4-4444-4-4-444444444444-4/11-0000-3-3333-3-3-333333333333-3/11-0000-----|
    ....     ............      ....   ....     ............      ....

e-------------------------------------------------------------------------|
B-------------------------------------------------------------------------|
G-------------------------------------------------------------------------|
D--------------------------------------------8-10----------8-10b12r10-----|
A-8-8888-8-8-888888888888-8-------------8-10----------8-10----------------|
E-6-6666-6-6-666666666666-6/14---0--6-8-----------6-8---------------------|

Travis Bridge III Lead: x 1

e-------------------------------------------------------------------------|
B-------------------------------------------------------------------------|
G-6p0---6p0---6p0---6p0---6p0----5p0---5p0---5p0---5p0---5p0--------------|
D-----6-----6-----6-----6-----6------5-----5-----5-----5-----5------------|
A-------------------------------------------------------------------------|
E-------------------------------------------------------------------------|

e-------------------------------------------------------------------------|
B-----------------------------------------6-----------6-------------------|
G-8p0---8p0---8p0---8p0---8p0-------3-5-8-------3-5-8-------3-5-----------|
D-----8-----8-----8-----8-----8-3-5---------3-5---------3-5---------------|
A-------------------------------------------------------------------------|
E-------------------------------------------------------------------------|

e-------------------------------------------------------------------------|
B-------------------------------------------------------------------------|
G-6p0---6p0---6p0---6p0---6p0----5p0---5p0---5p0---5p0---5p0--------------|
D-----6-----6-----6-----6-----6------5-----5-----5-----5-----5------------|
A-------------------------------------------------------------------------|
E-------------------------------------------------------------------------|

e-------------------------------------------------------------------------|
B-----------------------------------------6-----------6-------------------|
G-8p0---8p0---8p0---8p0---8p0-------3-5-8-------3-5-8---------------------|
D-----8-----8-----8-----8-----8-3-5---------3-5---------------------------|
A-------------------------------------------------------12//--0-0---------|
E-------------------------------------------------------12//--0-0---------|


Guitar Solo:


Claudio Solo: x 1

e-------------------18b20-------18-16-------------------------------------|
B-------------16-18--------------------20b21r20---------16-16b18r16-15----|
G-17v---------------------------------------------------------------------|
D-------------------------------------------------------------------------|
A-------------------------------------------------------------------------|
E-------------------------------------------------------------------------|

e-------------------------------------------------------------------------------|
B-/16-13-15--------------------/16-13-15----------------------------------------|
G-----------12b13r12---------------------12b13r12-------13-13h15-13p12-13p12-10-|
D-------------------------------------------------------------------------------|
A-------------------------------------------------------------------------------|
E-------------------------------------------------------------------------------|

Travis Chords: x 1

e-------------------------------------------------------------------------|
B-------------------------------------------------------------------------|
G-------------------------------------------------------------------------|
D-------------------------------------------------------------------------|
A-6-6-6-6-6-6-6-6-6-6-6-6-6-6-6-0-3-3-3-3-3-3-3-3-3-3-3-3-3-3-3-0---------|
E-4-4-4-4-4-4-4-4-4-4-4-4-4-4-4-0-1-1-1-1-1-1-1-1-1-1-1-1-1-1-1-0---------|

e-------------------------------------------------------------------------|
B-------------------------------------------------------------------------|
G-------------------------------------------------------------------------|
D-5-5-5-5-5-5-5-5-5-5-5-5-5-5-5-0-3-3-3-3-3-3-3-3-3-3-3-3~--3-3-0---------|
A-3-3-3-3-3-3-3-3-3-3-3-3-3-3-3-0-1-1-1-1-1-1-1-1-1-1-1-1~--1-1-0---------|
E-------------------------------------------------------------------------|
	Note: This is essentially the chorus chord progression

Guitar Overdub: x 1

e-------------------------------------------------------------------------|
B-------------------------------------------------------------------------|
G-8-----10-----12-----15----------8------10------12------15---------------|
D-------------------------------------------------------------------------|
A-------------------------------------------------------------------------|
E-------------------------------------------------------------------------|

e-------------------------------------------------------------------------|
B-------------------------------------------------------------------------|
G-12-----------12-----------------10-------------10-----------------------|
D-------------------------------------------------------------------------|
A-------------------------------------------------------------------------|
E-------------------------------------------------------------------------|
	Note: Tremolo pick the above notes.  This is essentially Travis'
	      chorus riff.

Double Chorus:


Claudio Double Chorus Chords: x 1

e-------------------------------------------------------------------------|
B-------------------------------------------------------------------------|
G-------------------------------------------------------------------------|
D-------------------------------------------------------------------------|
A-6-6-6-6-6-6-6-6-6-6-6-6-6-6-0-0-3-3-3-3-3-3-3-3-3-3-3-3-3-3-3-0---------|
E-4-4-4-4-4-4-4-4-4-4-4-4-4-4-0-0-1-1-1-1-1-1-1-1-1-1-1-1-1-1-1-0---------|

e-------------------------------------------------------------------------|
B-------------------------------------------------------------------------|
G-------------------------------------------------------------------------|
D-5-5-5-5-5-5-5-5-5-5-5-5-5-5-5-0-3-3-3-3-3-3-3-3-3-3-3-3~--3-3-0---------|
A-3-3-3-3-3-3-3-3-3-3-3-3-3-3-3-0-1-1-1-1-1-1-1-1-1-1-1-1~--1-1-0---------|
E-------------------------------------------------------------------------|

e-------------------------------------------------------------------------|
B-------------------------------------------------------------------------|
G-------------------------------------------------------------------------|
D-------------------------------------------------------------------------|
A-6-6-6-6-6-6-6-6-6-6-6-6-6-6-6-0-3-3-3-3-3-3-3-3-3-3-3-3-3-3-3-0---------|
E-4-4-4-4-4-4-4-4-4-4-4-4-4-4-4-0-1-1-1-1-1-1-1-1-1-1-1-1-1-1-1-0---------|

e-------------------------------------------------------------------------|
B-------------------------------------------------------------------------|
G-------------------------------------------------------------------------|
D-5-5-5-5-5-5-5-5-5-5-5-5-5-5-5-0-3-3-3-3-3-3-3-3-3-3-3-3-3-3-3-0---------|
A-3-3-3-3-3-3-3-3-3-3-3-3-3-3-3-0-1-1-1-1-1-1-1-1-1-1-1-1-1-1-1-0---------|
E-------------------------------------------------------------------------|

e-------------------------------------------------------------------------|
B-------------------------------------------------------------------------|
G-------------------------------------------------------------------------|
D-------------------------------------------------------------------------|
A-6-6-6-6-6-6-6-6-6-6-6-6-6-6-6-0-8-8-8-8-8-8-8-8-8-8-8-8-8---------------|
E-4-4-4-4-4-4-4-4-4-4-4-4-4-4-4-0-6-6-6-6-6-6-6-6-6-6-6-6-6-12/-0-0-------|
                                                                . .

Travis Double Chorus Lead: x 1

e-------------------------------------------------------------------------|
B-------------------------------------------------------------------------|
G-8-----10-----12-----15----------8------10------12------15---------------|
D-------------------------------------------------------------------------|
A-------------------------------------------------------------------------|
E-------------------------------------------------------------------------|

e-------------------------------------------------------------------------|
B-------------------------------------------------------------------------|
G-12---------12-------------------10------------10------------------------|
D-------------------------------------------------------------------------|
A-------------------------------------------------------------------------|
E-------------------------------------------------------------------------|

e-------------------------------------------------------------------------|
B-------------------------------------------------------------------------|
G-8----------10----------12----------15---------17---------17-------------|
D-------------------------------------------------------------------------|
A-------------------------------------------------------------------------|
E-------------------------------------------------------------------------|

e-------------------------------------------------------------------------|
B-------------------------------------------------------------------------|
G-8----------10----------12----------15---------12---------10-------------|
D-------------------------------------------------------------------------|
A-------------------------------------------------------------------------|
E-------------------------------------------------------------------------|

e-------------------------------------------------------------------------|
B-------------------------------------------------------------------------|
G-8-----10-----12-----15----------17-----------17b19r17-------------------|
D-------------------------------------------------------------------------|
A-------------------------------------------------------------------------|
E-------------------------------------------------------------------------|


Outro:


Claudio Outro Riff: x 1

e---------------------------------------------|
B---------------------------------------------|
G---------------------------------------------|
D-5-5-x-x-x-5-5----------3--------------------|
A-3-3-x-x-x-3-3--------4---4-3/1p0-1----------|
E----------------0h3h6------------------------|

e---------------------------------------------|
B---------------------------------------------|
G---------------------------------------------|
D-5-5-x-x-x-5-5----------3--------------------|
A-3-3-x-x-x-3-3--------4---4-3/1p0-1----------|
E----------------0h3h6------------------------|

e---------------------------------------------|
B---------------------------------------------|
G---------------------------------------------|
D-5-5-x-x-x-5-5----------3--------------------|
A-3-3-x-x-x-3-3--------4---4-3/1p0-1----------|
E----------------0h3h6------------------------|

e---------------------------------------------|
B---------------------------------------------|
G---------------------------------------------|
D-5-5-x-x-x-5-5-------------------------------|
A-3-3-x-x-x-3-3-------------------------------|
E---------------------------------------------|

Travis Outro Lead: x 1

e---------------------------------------------|
B---------------------------------------------|
G---------------------------------------------|
D-5-5-----1-1---------------------------------|
A-----3-3-----3-3~-----------13/--------------|
E---------------------------------------------|

e---------------------------------------------|
B---------------------------------------------|
G---------------------------------------------|
D-5-3-----1-3---------------------------------|
A-----3-3-----3-3~-----------13/--------------|
E---------------------------------------------|

e---------------------------------------------|
B---------------------------------------------|
G---------------------------------------------|
D-5-5-----1-1---------------------------------|
A-----3-3-----3-3~-----------13/--------------|
E---------------------------------------------|

e---------------------------------------------|
B---------------------------------------------|
G---------------------------------------------|
D-5-5-x-x-x-5-5-------------------------------|
A-3-3-x-x-x-3-3-------------------------------|
E---------------------------------------------|


_________________________________________________________________________________________


Track: "Guns of Summer"
Tuning: Drop D w/ the G string tuned down 1/2 step (F#)

Travis' Solo & Last Chorus Overdub Lead tabbed by Chaperoni

To finally get this one right, I slowed down a live video to be able to tell
what Claudio was doing.  See the links below.

Live Videos:
http://www.roxwel.com/player/coheedandcambriagunsofsummerlive.html?1=1&detect_bitrate=_2000
http://www.youtube.com/watch?v=ASzp1-YpIcc&feature=mh_lolz&list=HL1318912120
http://www.youtube.com/watch?v=gOVY2h_7IhE


Intro:


Claudio Verse Riff: x 2

e |------------------------------------------------------------------|
B |------------------------------------------------------------------|
F#|------------------------------------------------------------------|
D |----------7-----------7-----------7-----------7--------0h7p0------|
A |--------8-----------8-----------8-----------8----0h7h8-------8p0--|
D |-0h7h10------0h7h10------0h7h10------0h7h10-----------------------|

Travis Verse Lead I: x 1

e |------------------------------------------------------------------|
B |------------------------------------------------------------------|
G |-7-7-7-7-5-5-7-7-7-7-5-5-7-7-7-7-5-5-7-7-7-7-5-5-7-7-7-7-7b9r7----|   x 3
D |------------------------------------------------------------------|
A |------------------------------------------------------------------|
D |------------------------------------------------------------------|
    . . . . . . . . . . . . . . . . . . . . . . . . . . . .

e |------------------------------------------------------------------|
B |------------------------------------------------------------------|
G |-7-7-7-7-5-5-7-7-7-7-7-7-7-7-7-7-7-7-6-6-5-5-4-4-3-3-2-2-1-1-0-0--|
D |------------------------------------------------------------------|
A |------------------------------------------------------------------|
D |------------------------------------------------------------------|
    . . . . . . . . . . . . . . . .
	Note: The very end of the above lead is pretty much Travis
	      sliding from the 7th fret to the open note as he's
	      tremolo picking.


1st Verse:


Claudio Verse Riff Lead: x 6

Travis Verse Lead II: x 1

e |------------------------------------------------------------------|
B |-8-8-8-8-8-8-8-8-8-8-8-8-8-8-8-8-8-8-8-8-8-8-8-8-8-8-8-8-8-8-8-8--|
G |------------------------------------------------------------------|
D |------------------------------------------------------------------|
A |------------------------------------------------------------------|
D |------------------------------------------------------------------|
    . . . . . . . . . . . . . . . . . . . . . . . . . . . . . . . .

e |------------------------------------------------------------------|
B |-8-8-8-8-8-8-8-8-8-8-8-8-8-8-8-8-8-8-8-8-8-8-8-8-7-7-6-6-5-5-4-3--|
G |------------------------------------------------------------------|
D |------------------------------------------------------------------|
A |------------------------------------------------------------------|
D |------------------------------------------------------------------|
    . . . . . . . . . . . . . . . . . . . . . . . . . . . . . . . .

e |------------------------------------------------------------------|
B |-8-8-8-8-8-8-8-8-8-8-8-8-8-8-8-8-8-8-8-8-8-8-8-8-8-8-8-8-8-8-8-8--|
G |------------------------------------------------------------------|
D |------------------------------------------------------------------|
A |------------------------------------------------------------------|
D |------------------------------------------------------------------|
    . . . . . . . . . . . . . . . . . . . . . . . . . . . . . . . .

e |------------------------------------------------------------------|
B |-8-8-8-8-8-8-8-8-8-8-8-8-8-8-8-8-8-8-8-8-8-8-8-8-7-7-6-6-5-5-4-3--|
G |------------------------------------------------------------------|
D |------------------------------------------------------------------|
A |------------------------------------------------------------------|
D |------------------------------------------------------------------|
    . . . . . . . . . . . . . . . . . . . . . . . . . . . . . . . .

e |------------------------------------------------------------------|
B |------------------------------------------------------------------|
G |-7-7-7-7-5-5-7-7-7-7-5-5-7-7-7-7-5-5-7-7-7-7-5-5-7-7-7-7-7b9r7----|   x 3
D |------------------------------------------------------------------|
A |------------------------------------------------------------------|
D |------------------------------------------------------------------|
    . . . . . . . . . . . . . . . . . . . . . . . . . . . .

e |------------------------------------------------------------------|
B |------------------------------------------------------------------|
G |-7-7-7-7-5-5-7-7-7-7-7-7-7-7-7-7-7-7-6-6-5-5-4-4-3-3-2-2-1-1-0-0--|
D |------------------------------------------------------------------|
A |------------------------------------------------------------------|
D |------------------------------------------------------------------|
    . . . . . . . . . . . . . . . .

e |------------------------------------------------------------------|
B |-8-8-8-8-8-8-8-8-8-8-8-8-8-8-8-8-8-8-8-8-8-8-8-8-8-8-8-8-8-8-8-8--|
G |------------------------------------------------------------------|
D |------------------------------------------------------------------|
A |------------------------------------------------------------------|
D |------------------------------------------------------------------|
    . . . . . . . . . . . . . . . . . . . . . . . . . . . . . . . .

e |------------------------------------------------------------------|
B |-8-8-8-8-8-8-8-8-8-8-8-8-8-8-8-8-8-8-8-8-8-8-8-8-7-7-6-6-5-5-4-3--|
G |------------------------------------------------------------------|
D |------------------------------------------------------------------|
A |------------------------------------------------------------------|
D |------------------------------------------------------------------|
    . . . . . . . . . . . . . . . . . . . . . . . . . . . . . . . .

e |------------------------------------------------------------------|
B |-8-8-8-8-8-8-8-8-8-8-8-8-8-8-8-8-8-8-8-8-8-8-8-8-8-8-8-8-8-8-8-8--|
G |------------------------------------------------------------------|
D |------------------------------------------------------------------|
A |------------------------------------------------------------------|
D |------------------------------------------------------------------|
    . . . . . . . . . . . . . . . . . . . . . . . . . . . . . . . .

e |------------------------------------------------------------------|
B |-8-8-8-8-8-8-8-8-8-8-8-8-8-8-8-8-8-8-8-8-8-8-8-8-7-7-6-6-5-5-4-3--|
G |------------------------------------------------------------------|
D |------------------------------------------------------------------|
A |------------------------------------------------------------------|
D |------------------------------------------------------------------|
    . . . . . . . . . . . . . . . . . . . . . . . . . . . . . . . .


1st Pre-Chorus I:


Claudio Pre-Chorus I Riff: x 8

e |----------------------------|
B |----------------------------|
F#|----------------------------|
D |-----------------0h5--------|
A |---0-3-5-----3-5----t6------|
D |-0-------3-0----------------|

Travis Pre-Chorus I Lead: x 2

e |-------------------------------------------------------------|
B |-5-2-------5-7--------------5-2------5-7------5-7p5----------|
G |-----3-0-------5-7--5\3-0-------3-0------5-7-----------------|
D |-------------------------------------------------------------|
A |-------------------------------------------------------------|
D |-------------------------------------------------------------|

e |-------------------------------------------------------------|
B |-5-2------5-7------------------------------------------------|
F#|-----3-0------5-7--5\3-0---7----5--3--2--0-2--3--5-----------|
D |-------------------------------------------------------------|
A |-------------------------------------------------------------|
D |-------------------------------------------------------------|


1st Pre-Chorus II:


Claudio Pre-Chorus II Riff: x 3

e |--------------------------------------------------------------------|
B |--------------------------------------------------------------------|
F#|-0h7---0-0h7---0-0h7---0-0h7---0-0h8---0-0h8---0-0h8---0-0h8---0----|
D |----t8------t8------t8------t8------t9------t9------t9------t9------|
A |--------------------------------------------------------------------|
D |--------------------------------------------------------------------|

Travis Pre-Chorus II Lead: x 3

e |--------------------------------------------------------------------|
B |--------------------------------------------------------------------|
G |--------------------------------------------------------------------|
D |-4-4-4-4-4-4-4-4-4-4-4-4-4-4-4-5-5-5-5-5-5-5-5-5-5-5-5-5-5-5-5------|
A |--------------------------------------------------------------------|
D |--------------------------------------------------------------------|


1st Chorus:


Claudio Chorus Chords: x 2

e |---------------------------------------------------------------------|
B |---------------------------------------------------------------------|
F#|-------------------------------------------------------------3b5r3---|
D |-0---0-0-0-0-0-0-0-2-2---2-2-2-2---0---0-0-0-0-0-0-0-2-2-2-2---------|
A |-0---0-0-0-0-0-0-0-2-2---2-2-2-2---0---0-0-0-0-0-0-0-2-2-2-2---------|
D |-0---0-0-0-0-0-0-0-2-2---2-2-2-2---0---0-0-0-0-0-0-0-2-2-2-2---------|

Travis Chorus Chords: x 2

e |---------------------------------------------------------------------|
B |---------------------------------------------------------------------|
G |---------------------------------------------------------------------|
D |-0---0-0-0-0-0-0-0-2-2---2-2-2-2---0---0-0-0-0-0-0-0-2-2-2-2-7b9r7---|
A |-0---0-0-0-0-0-0-0-2-2---2-2-2-2---0---0-0-0-0-0-0-0-2-2-2-2---------|
D |-0---0-0-0-0-0-0-0-2-2---2-2-2-2---0---0-0-0-0-0-0-0-2-2-2-2---------|


Break:


Claudio Verse Riff x 2

Travis Verse Lead III x 1

e |------------------------------------------------------------------|
B |------------------------------------------------------------------|
G |-7-7-7-7-5-5-7-7-7-7-5-5-7-7-7-7-5-5-7-7-7-7-5-5-7-7-7-7-7b9r7----|   x 2
D |------------------------------------------------------------------|
A |------------------------------------------------------------------|
D |------------------------------------------------------------------|
    . . . . . . . . . . . . . . . . . . . . . . . . . . . .


2nd Verse:


Claudio Verse Riff x 4

Travis Verse Lead IV x 1

e |------------------------------------------------------------------|
B |-8-8-8-8-8-8-8-8-8-8-8-8-8-8-8-8-8-8-8-8-8-8-8-8-8-8-8-8-8-8-8-8--|
G |------------------------------------------------------------------|
D |------------------------------------------------------------------|
A |------------------------------------------------------------------|
D |------------------------------------------------------------------|
    . . . . . . . . . . . . . . . . . . . . . . . . . . . . . . . .

e |------------------------------------------------------------------|
B |-8-8-8-8-8-8-8-8-8-8-8-8-8-8-8-8-8-8-8-8-8-8-8-8-7-7-6-6-5-5-4-3--|
G |------------------------------------------------------------------|
D |------------------------------------------------------------------|
A |------------------------------------------------------------------|
D |------------------------------------------------------------------|
    . . . . . . . . . . . . . . . . . . . . . . . . . . . . . . . .

e |------------------------------------------------------------------|
B |-8-8-8-8-8-8-8-8-8-8-8-8-8-8-8-8-8-8-8-8-8-8-8-8-8-8-8-8-8-8-8-8--|
G |------------------------------------------------------------------|
D |------------------------------------------------------------------|
A |------------------------------------------------------------------|
D |------------------------------------------------------------------|
    . . . . . . . . . . . . . . . . . . . . . . . . . . . . . . . .

e |------------------------------------------------------------------|
B |-8-8-8-8-8-8-8-8-8-8-8-8-8-8-8-8-8-8-8-8-8-8-8-8-7-7-6-6-5-5-4-3--|
G |------------------------------------------------------------------|
D |------------------------------------------------------------------|
A |------------------------------------------------------------------|
D |------------------------------------------------------------------|
    . . . . . . . . . . . . . . . . . . . . . . . . . . . . . . . .

e |------------------------------------------------------------------|
B |------------------------------------------------------------------|
G |-7-7-7-7-5-5-7-7-7-7-5-5-7-7-7-7-5-5-7-7-7-7-5-5-7-7-7-7-7b9r7----|   x 3
D |------------------------------------------------------------------|
A |------------------------------------------------------------------|
D |------------------------------------------------------------------|
    . . . . . . . . . . . . . . . . . . . . . . . . . . . .

e |------------------------------------------------------------------|
B |------------------------------------------------------------------|
G |-7-7-7-7-5-5-7-7-7-7-7-7-7-7-7-7-7-7-6-6-5-5-4-4-3-3-2-2-1-1-0-0--|
D |------------------------------------------------------------------|
A |------------------------------------------------------------------|
D |------------------------------------------------------------------|
    . . . . . . . . . . . . . . . .


2nd Pre-Chorus I:


Claudio Pre-Chorus I Riff x 8

Travis Pre-Chorus I Lead x 2


2nd Pre-Chorus II:


Claudio Pre-Chorus II Riff x 3

Travis Pre-Chorus II Lead x 3


2nd Chorus:


Claudio Chorus Chords x 2

Travis Chorus Chords x 2


Bridge:


Claudio Bridge Riff: x 2

e |----10-------10----10-12----12--------12----12-13----13-------13----13---|
B |-------10-10----10-------10----10-10-----10-------10----10-10----10------|
F#|-------------------------------------------------------------------------|
D |-0~----------------------------------------------------------------------|
A |-0~----------------------------------------------------------------------|
D |-0~----------------------------------------------------------------------|

e |-12----12-------12----12--|
B |----10----10-10----10-----|
F#|--------------------------|
D |--------------------------|
A |--------------------------|
D |--------------------------|
	Note: Let that open D chord ring throughout the lead notes.

Travis Bridge Chords: x 1

e |---------------------------------------------------------------|
B |---------------------------------------------------------------|
G |-------------------7~----------------7~------------------------|
D |-0~----------------x-----------------x-----------------0~------|
A |-0~----------------5~----------------5~----------------0~------|
D |-0~----------------0~----------------0~----------------0~------|

e |-15~---------------15~-----------------------------------------|
B |----17~---------------17~--------------------------------------|
G |-------17~---------------17~---------7~------------------------|
D |-------------------------------------x-----------------0~------|
A |-------------------------------------5~----------------0~------|
D |-------------------------------------0~----------------0~------|


Pre-Solo:

Claudio Pre-Chorus I Riff x 2 (palm-muted)

Travis does not play anything over this part


Solo Section I:


Claudio Pre-Chorus I Riff x 4

Travis Solo: x 1

e |---------------------------13-13-13-13-----------------------------------------|
B |-10----10----13------------------------15-15-15-------13----------------13h15~-|
G |-12b14-12b14----r12-10--------------------------14-14----14-14-12----12--------|
D |-----------------------12-----------------------------------------15-----------|
A |-------------------------------------------------------------------------------|
D |-------------------------------------------------------------------------------|

e |-------------------------------------------------------------------------------|
B |-------------------------------------------------------------------------------|
G |-13-------------------------------12-13-12----12------------13-----------------|
D |----15p14-12-15p14----14p12-14-15----------15----15-12-15-------15--14--15--14-|
A |-------------------15----------------------------------------------------------|
D |-------------------------------------------------------------------------------|

Solo Section II:


Claudio Solo:
I am not going to attempt to put what he's doing into tab form.  Really, you cannot.
Claudio has a bunch of effects going and he is essentially just picking muted strings
combined with some open notes, actual notes, and harmonics.  If you want to get a feel
for what he's doing, watch some of the live videos linked in this tab.  Just do
whatever random stuff comes to mind essentially.


Travis Pre-Chorus I Riff: x 4

e |---------------------------------|
B |---------------------------------|
G |---------------------------------|
D |-------------------------0h5-----|
A |----0~-3~-5~-------3~-5~----t6~--|
D |-0~----------3~-0~---------------|
	Note: This is the same as Claudio's Pre-Chorus I Riff, except that
	      you let all the notes ring.


3rd Pre-Chorus II:


Claudio Pre-Chorus II Riff x 3

Travis Pre-Chorus II Lead x 3


3rd & 4th Chorus:


Claudio Chorus Chords x 4

Travis Chorus Chords x 4

Last Chorus Overdub Lead: x 4

e |-----------------------------------|
B |-5~---7-----5-----7-----5-----7----|
G |--------7-----6-----7-----6-----7~-|
D |----------9-----7-----9-----7------|
A |-----------------------------------|
D |-----------------------------------|


Outro:


Claudio Outro Chords: x 1

e |---------------------------------------------------------------------|
B |---------------------------------------------------------------------|
F#|---------------------------------------------------------------------|
D |-0---0-0-0-0-0-0-0-2-2---2-2-2-2---0---0-0-0-0-0-0-0-2-2--2-2-2-2----| x 3
A |-0---0-0-0-0-0-0-0-2-2---2-2-2-2---0---0-0-0-0-0-0-0-2-2--2-2-2-2----|
D |-0---0-0-0-0-0-0-0-2-2---2-2-2-2---0---0-0-0-0-0-0-0-2-2--2-2-2-2----|

e |---------------------------------------------------------------------|
B |---------------------------------------------------------------------|
F#|-------------------------------------------------------------3b5r3---|
D |-0---0-0-0-0-0-0-0-2-2---2-2-2-2---0---0-0-0-0-0-0-0-2-2-2-2---------|
A |-0---0-0-0-0-0-0-0-2-2---2-2-2-2---0---0-0-0-0-0-0-0-2-2-2-2---------|
D |-0---0-0-0-0-0-0-0-2-2---2-2-2-2---0---0-0-0-0-0-0-0-2-2-2-2---------|

Travis Outro Lead: x 1

e |-----------------------------------------------|
B |-----------------------------------------------|
G |--------7b9r7----------------------------------| x 2
D |-----------------------------------------------|
A |-5v-----------7b8r7--5v------9h10-9h10-9-5-----|
D |-----------------------------------------------|

e |-----------------------------------------------|
B |--------8/10-8-7-8-7h8p7-----------------------|
G |-----------------------------------------------|
D |-----------------------------------------------|
A |-5v--------------------------9h10-9h10-9-5-----|
D |-----------------------------------------------|

e |-----------------------------------------------|
B |-----------------------------------------------|
G |--------7b9r7----------------------------------|
D |-----------------------------------------------|
A |-5v-----------7b8r7--5v------9h10-9h10-9-------|
D |-----------------------------------------------|
	Note: When Travis' plays this lead, he has his phase shifter effects on.


_________________________________________________________________________________


Track: "Here We Are Juggernaut"
Tuning: Standard

This tab was substantiated with live videos
to confirm hand positioning and notes.

Live Videos:
http://www.youtube.com/watch?v=M5DQXTxFJeQ
http://www.youtube.com/watch?v=nxYGT9QQAKA


Intro:


Claudio Verse Riff I: x 2

e-------------------------------------------------------------------------|
B-------------------------------------------------------------------------|
G-------------------------------------------------------------------------|
D-------2-----------------x-x-----------2---------------------------------|
A-2-4-4---4-4-2-4-4-4---------x-x-2-4-4---4-4-2-4-4-4--------7/-----------|
E---------------------0-------------------------------0----x--------------|

Travis Verse Riff: x 2

e-------------------------------------------------------------------------|
B-------------------------------------------------------------------------|
G-------------------------------------------------------------------------|
D------------------------------------------------------------6/-----------|
A-4~---------------------------------------------------------7/-----------|
E----------------------------------------------------------x--------------|
	Note: Travis plays this using a talkbox live.


1st Verse:


"Keep your secrets in the dark..."


Claudio Verse Riff I x 2

Claudio Verse Riff II: x 1

e-------------------------------------------------------------------------|
B-------------------------------------------------------------------------|
G-------------------------------------------------------------------------|
D---6---4-----4-6-7-6-4---6-4-------6---4-----4-6-7-6-4---6-4-------------|
A-4---7---6-7-----------7-----7-6-4---7---6-7-----------7-----7-6---------|
E-------------------------------------------------------------------------|

Claudio Verse Riff III x 1

e-------------------------------------------------------------------------|
B-------------------------------------------------------------------------|
G-------------------------------------------------------------------------|
D-------2-----------------x-x-----------2---------------------------------|
A-2-4-4---4-4-2-4-4-4---------x-x-2-4-4---4-4-2-4--5/12\0-----------------|
E---------------------0----------------------------5/12\0-----------------|
	On the end of this riff, Claudio slides his hand up the fretboard
	and then back down the fretboard leading into the chorus

Travis Verse Riff x 4


1st Chorus:


"Heart, we were stupid, we got caught..."


Claudio Chorus Chords: x 1

e-------------------------------------------------------------------------|
B-------------------------------------------------------------------------|
G-------------------------------------------------------------------------|
D-------------------------------------------------------------------------|
A-5-5-5-5-5-5-5-5-5-5-5-5-5-5-5-5-5-5-5-5-5-5-5-5-5-5-5-5-5-5-5-0---------|
E-7-7-7-7-7-7-7-7-7-7-7-7-7-7-7-7-7-7-7-7-7-7-7-7-7-7-7-7-7-7-7-0---------|

e-------------------------------------------------------------------------|
B-------------------------------------------------------------------------|
G-------------------------------------------------------------------------|
D-------------------------------------------------------------------------|
A-2-2-2-2-2-2-2-2-2-2-2-2-2-2-2-2-2-2-2-2-2-2-2-2-2-2-2-2-2-2-2-0---------|
E-0-0-0-0-0-0-0-0-0-0-0-0-0-0-0-0-0-0-0-0-0-0-0-0-0-0-0-0-0-0-0-0---------|

e-------------------------------------------------------------------------|
B-------------------------------------------------------------------------|
G-------------------------------------------------------------------------|
D-------------------------------------------------------------------------|
A-5-5-5-5-5-5-5-5-5-5-5-5-5-5-5-5-5-5-5-5-5-5-5-5-5-5-5-5-5-5-5-0---------|
E-7-7-7-7-7-7-7-7-7-7-7-7-7-7-7-7-7-7-7-7-7-7-7-7-7-7-7-7-7-7-7-0---------|

Travis Verse Lead: x 1

Part I: x 2

e-------------------------------------------------------------------------|
B-------------------------------------------------------------------------|
G-------------------------------------------------------------------------|
D-14-------16-14-13-------14-------16-14-13-------------------------------|
A----14-16----------16-14----14-16----------16-14-------------------------|
E-------------------------------------------------------------------------|

Part II: x 2

e-------------------------------------------------------------------------|
B-------------------------------------------------------------------------|
G----16-----------------16------------------------------------------------|
D-14------16----14-16---------16----14-16---------------------------------|
A-------------------------------------------------------------------------|
E-------------------------------------------------------------------------|

Part I x 2


Interlude:


Claudio Verse Riff x 1

Travis Lead: x 1

e-------------------------------------------------------------------------|
B-------------------------------------------------------------------------|
G-------------------------------------------------------------------------|
D--------------6------9--------------------6------9-----------------------|
A-4-----7--------------------4------7-------------------------------------|
E-------------------------------------------------------------------------|
	Note: Travis plays this with a phase shifter pedal.


2nd Verse:


"Courage broken lashed to scars..."


Claudio Verse Riff I x 2

Claudio Verse Riff III x 1

Travis Verse Riff x 3


2nd Chorus:

Same as 1st Chorus


Bridge I:


"So let's hang us a hangman..."


Claudio Bridge I Riff: x 3

e-------------------------------------------------------------------------|
B-------------------------------------------------------------------------|
G-------------------------------------------------------------------------|
D-0h6-6-6-6-6-6-6-6-6-6-6-6-6-6-6-0h4-4-4-4-4-4-4-4-4-4-4-4-4-4-4---------|
A-0h4-4-4-4-4-4-4-4-4-4-4-4-4-4-4-0h2-2-2-2-2-2-2-2-2-2-2-2-2-2-2---------|
E-------------------------------------------------------------------------|
      . . . . . . . . . . . . . .     . . . . . . . . . . . . . .

e-------------------------------------------------------------------------|
B-----------------5-5-5-5-5-5-5-5-4-4-4-4-4-4-4-4-2-2-2-2-2-2-2-2---------|
G-----------------x-x-x-x-x-x-x-x-x-x-x-x-x-x-x-x-x-x-x-x-x-x-x-x---------|
D-0h2-2-2-2-2-2-2-2-2-2-2-2-2-2-2-2-2-2-2-2-2-2-2-2-2-2-2-2-2-2-2---------|
A-0-0-0-0-0-0-0-0-0-0-0-0-0-0-0-0-0-0-0-0-0-0-0-0-0-0-0-0-0-0-0-0---------|
E-------------------------------------------------------------------------|
      . . . . . .

Travis Bridge I Lead: x 3

e----4---------------------------------2----------------------------------|
B-5-----5---4----------------------2--------4------2----------------------|
G-------------------------------------------------------------------------|
D-------------------------------------------------------------------------|
A-------------------------------------------------------------------------|
E-------------------------------------------------------------------------|

e-----------------0-0-0-0-0-0-0-0-0-0-0-0-0-0-0-0-0-0-0-0-0-0-0-0---------|
B-0---------------5-5-5-5-5-5-5-5-4-4-4-4-4-4-4-4-2-2-2-2-2-2-2-2---------|
G-------------------------------------------------------------------------|
D-------------------------------------------------------------------------|
A-------------------------------------------------------------------------|
E-------------------------------------------------------------------------|

Travis Bridge I Lead Alt. Live: x 3
e----4-----------------------------------2--------------------------------|
B-5-----5---4----------------------2--4------4------2---------------------|
G-------------------------------------------------------------------------|
D-------------------------------------------------------------------------|
A-------------------------------------------------------------------------|
E-------------------------------------------------------------------------|

e-----------------0-0-0-0-0-0-0-0-0-0-0-0-0-0-0-0-0-0-0-0-0-0-0-0---------|
B-0---------------5-5-5-5-5-5-5-5-4-4-4-4-4-4-4-4-2-2-2-2-2-2-2-2---------|
G-------------------------------------------------------------------------|
D-------------------------------------------------------------------------|
A-------------------------------------------------------------------------|
E-------------------------------------------------------------------------|
	Note: As played live, Travis can be seen playing the above section.
	      Only the difference of one note compared to what was
	      recorded on YotBR.

Bridge II:


"Answer me, did we take this to far..."


Claudio Bridge II Riff: x 4

e-------------------------------------------------------------------------|
B-------------------------------------------------------------------------|
G-------------------------------------------------------------------------|
D-6-6-6-6-6-6-6-6-7-7-7-7-7-7-7-7-9-9-9-9-9-9-9-9-7-7-7-7-6---4-----------|
A-4-4-4-4-4-4-4-4-4-4-4-4-4-4-4-4-0-0-0-0-0-0-0-0-0-0-0-0-0-0-0-0---------|
E-------------------------------------------------------------------------|
    . . . . . . .   . . . . . . .   . . . . . . .   . . .   .   .


Travis Bridge II Lead: x 1

e-7---------------7-------------------------------------------------------|
B-5-----------------5------------10--10--10--9--9-------------------------|
G-6-------------------6-4-6------------------------9----------------------|
D-------------------------------------------------------------------------|
A-------------------------------------------------------------------------|
E-------------------------------------------------------------------------|

e-----------------7-------------------------------------------------------|
B-------------------5------------10--10--10--9--9-------------------------|
G-8-------------------6-4-6------------------------9----------------------|
D-------------------------------------------------------------------------|
A-------------------------------------------------------------------------|
E-------------------------------------------------------------------------|

e-7---------------7-------------------------------------------------------|
B-5-----------------5------------10--10--10--9--9-------------------------|
G-6-------------------6-4-6------------------------9----------------------|
D-------------------------------------------------------------------------|
A-------------------------------------------------------------------------|
E-------------------------------------------------------------------------|

e-------------------------------------------------------------------------|
B-------------------------------------------------------------------------|
G-11-11-11-9-9-9-8-9-8-9-8-9-8-9-8-9-11-11-11-9-9-9-8-9-8-9-8-9-8~--------|
D-------------------------------------------------------------------------|
A-------------------------------------------------------------------------|
E-------------------------------------------------------------------------|


3rd Chorus:


Same as 1st Chorus


Chorus Hold:


"Here we are juggernaut..."


Claudio: x 6

e------------------------------------|
B------------------------------------|
G------------------------------------|
D------------------------------------|
A-7-7-7-7-7-7-7-7-7-7-7-7-7-7-7-7----|
E-5-5-5-5-5-5-5-5-5-5-5-5-5-5-5-5----|

Travis: x 6

e--------------------------------------------------|
B--------------------------------------------------|
G--------------------------------------------------|
D-14-------16-14-13-------14-------16-14-13--------|
A----14-16----------16-14----14-16----------16-14--|
E--------------------------------------------------|


End:


Claudio:

e---------------------------------|
B---------------------------------|
G---------------------------------|
D---------------------------------|
A-2~------------------------------|
E-0~------------------------------|

Travis:

e---------------------------------|
B---------------------------------|
G---------------------------------|
D---------------------------------|
A-14~-----------------------------|
E---------------------------------|


_________________________________________________________________________________


Track: "Far"
Tuning: E flat
v 2.0

This tab was substantiated with a live video
to confirm hand positioning and notes.

Live Video: http://www.youtube.com/watch?v=WzeB-y1LBDg


Intro: (0:00 - 0:16)


Travis Verse Lead: x 1
eb-----------10----9-------------7---------------------------------------9-----------|
Bb-----10-------10----------10-----10-9~------7---9---10---9---7------10----10---12~-|
Gb--11----11--------------9----9------------7---7---7----7---7------9----------------|
Db-----------------------------------------------------------------------------------|
Ab-----------------------------------------------------------------------------------|
Eb-----------------------------------------------------------------------------------|


1st Verse: (0:16 - 0:48)


"I welcome this pain..."

Claudio Verse Chords: x 2

eb-----------------------------------------------------------------------------------|
Bb-----------------------------------------------------------------------------------|
Gb-----------------------------------------------------------------------------------|
Db-11-11-11-11-11-11-11-11-11-11-11-11-11-11-11-0-9-9-9-9-9-9-9-9-9-9-9-9-9-9-9-0----|
Ab-9--9--9--9--9--9--9--9--9--9--9--9--9--9--9--0-7-7-7-7-7-7-7-7-7-7-7-7-7-7-7-0----|
Eb-----------------------------------------------------------------------------------|

eb-------------------------------------------------------------------|
Bb-------------------------------------------------------------------|
Gb-------------------------------------------------------------------|
Db-7-7-7-7-7-7-7-7-7-7-7-7-7-7-7-7-0-----------------------------0---|
Ab-5-5-5-5-5-5-5-5-5-5-5-5-5-5-5-5-0-7-7-7-7-7-7-7-7-7-7-7-7-7-7-0---|
Eb-----------------------------------5-5-5-5-5-5-5-5-5-5-5-5-5-5-----|

Travis Verse Lead x 2

Keyboard Verse Riff: x 2
eb-------------------------------------------------------------------------------|
Bb-----10--9b10r9b10r9b10r9----------7~----------10~----------10-----------------|
Gb-11--------------------------9~------------7~-------6b7r6b7-----9---9---9---9--|
Db------------------------------------------------------------------9---9---9---9|
Ab-------------------------------------------------------------------------------|
Eb-------------------------------------------------------------------------------|
The second half of the above part is very hard to hear, but you can clearly hear
it at the end of the song


1st Chorus: (0:48 - 1:23)


"Please, this is what I can give..."

Claudio Chorus Chords: x 3
eb---------------------------------------------------------------------------------|
Bb---------------------------------------------------------------------------------|
Gb---------------------------------------------------------------------------------|
Db-7-7-7-7-7-7-7-7-7-7-7-7-7-7-7-0---------------0-9-9-9-9-9-9-9-0-----------------|
Ab-5-5-5-5-5-5-5-5-5-5-5-5-5-5-5-0-7-7-7-7-7-7-7-0-7-7-7-7-7-7-7-0-----------------|
Eb---------------------------------5-5-5-5-5-5-5-----------------------------------|

Claudio Chorus Finish: x 1
eb---------------------------------------------------------------------------------|
Bb---------------------------------------------------------------------------------|
Gb---------------------------------------------------------------------------------|
Db-7-7-7-7-7-7-7-7-7-7-7-7-7-7-7-0---------------0-9-9-9-9-9-9-9-9-9-9-9-9-9-9-9-0-|
Ab-5-5-5-5-5-5-5-5-5-5-5-5-5-5-5-0-7-7-7-7-7-7-7-0-7-7-7-7-7-7-7-7-7-7-7-7-7-7-7-0-|
Eb---------------------------------5-5-5-5-5-5-5-----------------------------------|


Travis Chorus Lead: x 4
eb---------------------------------------------------------------------------------|
Bb---------------------------------------------------------------------------------|
Gb----11-13-14--------11-13-14-----------------11-13-14--------11-13-14------------|
Db-11----------11--11----------11-x-11-9~---11----------11--11----------11-9-11-7~-|
Ab---------------------------------------------------------------------------------|
Eb---------------------------------------------------------------------------------|


Interlude: (1:23 - 1:38)


Claudio Verse Chords x 1
Travis Verse Lead x 1


2nd Verse: (1:38 - 1:54)


"I buried this hurt..."

Claudio Verse Chords x 1
Travis Verse Lead x 1
Keyboard Verse Riff x 1


2nd Chorus: (1:54 - 2:29)


"Please, this is what I can give..."

Claudio Chorus Chords x 3
Claudio Chorus Finish x 1
Travis Chorus Lead x 4


Bridge: (2:29 - 2:44)


"No matter how far"

Claudio Bridge Riff: x 2
eb-----------------------------------------------------------------|
Bb-----------------------------------------------------------------|
Gb-----------------------------------------------------------------|
Db----------------------9-9-6-7------------------------------------|
Ab-----4----------4-----7-7-4-5----------4----------4-2-0-2-0------|
Eb-2-5---5-2--2-5---5-2--------------2-5---5-2--2-5-----------0-2--|

Travis Bridge Lead: x 2
eb--14-----12-----------------------14------12---------------------|
Bb------14-----12--15--14b15r14---------14------12-----------------|
Gb--------------------------------------------------14~------------|
Db-----------------------------------------------------------------|
Ab-----------------------------------------------------------------|
Eb-----------------------------------------------------------------|


Break: (2:44 - 2:52)


"Far"


Solo: (2:52 - 3:25)


Claudio Solo: x 2

eb--17b19717-16--------------------------------------------------------------------|
Bb--------------14-17b19r17-15-14------14-17b19r17-14-17-----14-17b19r17-14-17-----|
Gb--------------------------------16/--------------------14~-------------------13~-|
Db---------------------------------------------------------------------------------|
Ab---------------------------------------------------------------------------------|
Eb---------------------------------------------------------------------------------|

Travis Alt. Lead: x 2
eb---------------------------------------------------------------------------------|
Bb---------------------------------------------------------------------------------|
Gb----11-13-14--------11-13-14-----------------11-13-14--------11-13-14------------|
Db-11----------11--11----------11-----------11----------11--11----------11---------|
Ab---------------------------------------------------------------------------------|
Eb---------------------------------------------------------------------------------|

eb---------------------------------------------------------------------------------|
Bb---------------------------------------------------------------------------------|
Gb----11-13-14--------11-13-14-----------------11-13-14--------11-13-14------------|
Db-11----------11--11----------11-----------11----------11--11----------11-9-11-7~-|
Ab---------------------------------------------------------------------------------|
Eb---------------------------------------------------------------------------------|

Note: As played live, during Claudio's solo, Travis plays his regular Chorus lead.


3rd Chorus: (3:25 - 3:59)


"Please, this is what I can give..."

Claudio Chorus Chords x 4
Travis Chorus Lead x 4


Outro: (3:59 - 4:32)


"No oh, oh oh, No matter how far..."

Claudio Chorus Chords x 3
Claudio Chorus Finish x 1
Travis Chorus Lead x 4

Piano Accent: x 4
eb-21--21--21--21--21---21--21--21--21--21---------|
Bb-x---x---x---x---x----x---x---x---x---x----------|
Gb-18--18--18--18--18---18--18--18--18--18---------|
Db-------------------------------------------------|
Ab-------------------------------------------------|
Eb-------------------------------------------------|

Keyboard Finish:


Keyboard Verse Riff x 1


___________________________________________________________________________________


Track: "This Shattered Symphony"
Tuning: Standard

I worked this based off of a live video (linked directly below).
See below for a link of my guitar cover of it.

http://www.youtube.com/watch?v=extKZLQEOew (Live Video)
http://www.youtube.com/watch?v=55Iu3inU1Go (My cover)


Intro: (0:00 - 0:12)


Claudio Intro Riff: x 4

e----------------------------------------------------|
B----------------------------------------------------|
G----------------------------------------------------|
D----------------------------------------------------|
A-4-----4-----8-6-4----------------------------------|
E---6-6---6-6-------8-6\4-0-4-6p4--------------------|
    . .   . . . . . .     . .

Alt. Live - Claudio plays the following on the last one:

e----------------------------------------------------|
B----------------------------------------------------|
G----------------------------------------------------|
D----------------------------------------------------|
A-4-----4-----8-6-4----------------------------------|
E---6-6---6-6-------8-6\\\\\\\\----------------------|
    . .   . . . . . .

Travis Intro Lead: x 2

e----------------------------------------------------|
B-6v-------------------------------------------------|
G----------------------------------------------------|
D----------------------------------------------------|
A----------------------------------------------------|
E----------------------------------------------------|

Travis does not play anything over the first 2 measures of the intro.

1st Pre-Verse: (0:12 - 0:24)

Claudio Verse Riff: x 2

e-------------------------------------------------------------------|
B-------------------------------------------------------------------|
G-------------------------------------------------------------------|
D-------------------------------------------------------------------|
A---6p0---6p0-9-6---6p0---8-6-------8---0-0p4p0-----------------4p0-|
E-8-----8---------8-----8-----9-8-6---9---------4-6h8p6-4p0-4-6-----|
  .     .     . . .     . . . . . . . . .       . .   .     . .

Travis Pre-Verse Lead: x 2

e-14-14-14-14-13-13-13-13-13-13-13-13-11-13----------|
B-x--x--x--x--x--x--x--x--x--x--x--x--x--x--14-14----|
G-11-11-11-11-10-10-10-10-10-10-10-10-10-10-10-10----|
D----------------------------------------------------|
A----------------------------------------------------|
E----------------------------------------------------|

1st Verse: (0:24 - 0:47)

"Oh, I’m giving up the one I love..."

Claudio Verse Riff x 4

Claudio Over-Dub: x 2

e----------------------------------------------------|
B----------------------------------------------------|
G----8------8---11-8----8------10-8------------------|
D-10---7-10---7------10---7-10------11-10------------|
A----------------------------------------------------|
E----------------------------------------------------|
  .  . . .  . . .  . .  . . .  .  . .  .

e----------------------------------------------------|
B----------------------------------------------------|
G---10------------------------------6----------------|
D-8----11-7-7h11p7-6-8h10p8-6---6-8---7--------------|
A-----------------------------7----------------------|
E----------------------------------------------------|
  . .  .  . . .  . .    . . . . . . .

The above is played over the last two measures of the verse.

Travis Verse Lead: x 1

e-13-11------------------14--------13-11------------------------------|
B-------14-13v---------------------------14-13v-----------------------|
G------------------10/11~---10v---------------------10b11r10b11r10v---|
D---------------------------------------------------------------------|
A---------------------------------------------------------------------|
E---------------------------------------------------------------------|

Travis does not play anything over the first 2 measures of the Verse.

1st Pre-Chorus (0:47 - 1:11)

"They offered their hearts, And we tore them apart..."

Claudio Pre-Chorus: x 1
e-------------------------------------------------------------------|
B-------------------------------------------------------------------|
G-------------------------------------------------------------------|
D-----6-----6-----6-----6-----6-------6-----6-----6-----6-----6-----|
A---4-----4-----4-----4-----4-------4-----4-----4-----4-----4-------|
E-2-----2-----2-----2-----2-----2-2-----2-----2-----2-----2-----2---|
  ...............................................................

e-------------------------------------------------------------------|
B-------------------------------------------------------------------|
G-------------------------------------------------------------------|
D-----10----10----10----10----10------8-----8-----8-----8-----8-----|
A---8-----8-----8-----8-----8-------6-----6-----6-----6-----6-------|
E-6-----6-----6-----6-----6-----6-4-----4-----4-----4-----4-----4---|
  ...............................................................

e-------------------------------------------------------------------|
B-------------------------------------------------------------------|
G-------------------------------------------------------------------|
D-----6-----6-----6-----6-----6-------6-----6-----6-----6-----6-----|
A---4-----4-----4-----4-----4-------4-----4-----4-----4-----4-------|
E-2-----2-----2-----2-----2-----2-2-----2-----2-----2-----2-----2---|
  ...............................................................

e----------------------------------------------------|
B----------------------------------------------------|
G----------------------------------------------------|
D----------------------------------------------------|
A---3-4-4/6-4-4p3---3-4-6b///////\\\\\\--------------|
E-1---------------1----------------------------------|

Travis 1st Pre-Chorus Lead: x 1

e-------------------------------------------------------------------|
B-9-9-----------------------------9-9-------------------------------|
G-----6-6-------------6-6-------------6-6-------------6-6-----------|
D---------8-8-6-6-8-8-----8-8-8-8---------8-8-6-6-8-8-----8-8-8-8---|
A-------------------------------------------------------------------|
E-------------------------------------------------------------------|

e-------------------------------------------------------------------|
B-----6-------------------------------6-----------------------------|
G-------------8-------6-------6---------------8-------6-------8-----|
D-8-8---8-8-8---8-8-8---8-8-8---8-6-6---6-6-6---6-6-6---6-6-6---6---|
A-------------------------------------------------------------------|
E-------------------------------------------------------------------|

e-------------------------------------------------------------------|
B-9-9-----------------------------9-9-------------------------------|
G-----6-6-------------6-6-------------6-6-------------6-6-----------|
D---------8-8-6-6-8-8-----8-8-8-8---------8-8-6-6-8-8-----8-8-8-8---|
A-------------------------------------------------------------------|
E-------------------------------------------------------------------|

e----------------------------------------------------|
B----------------------------------------------------|
G----------------------------------------------------|
D-10v----------------10v-----------------------------|
A----------------------------------------------------|
E----------------------------------------------------|

Alt. Live - Travis Tremolo picks that last note and then
            slides up and down the neck leading into the Chorus.

1st Chorus: (1:11 - 1:35)

"Go on and give me the gun..."

Claudio Chorus Chords: x 2

e----------------------------------------------------|
B----------------------------------------------------|
G----------------------------------------------------|
D----------------------------------------------------|
A-8--8888-8888-888-88-88--4-44-44--------------------|
E-6--6666-6666-665-55-55--2-22-22--------------------|

e----------------------------------------------------|
B----------------------------------------------------|
G----------------------------------------------------|
D-8888888888888888-----------------------------------|
A-6666666666666666-9v9v9v9v9v9v9v9v-888--888---------|
E-----------------------------------555--555---------|

Travis Chorus Lead: x 2

e--------------------------------------------------------|
B----6-----------6---------------6-----------6-----------|
G-/5---5-8-6v-/5---5-8-6-5-3--/5---5-8-6v-/5---5-8-6-5-3-|
D--------------------------------------------------------|
A--------------------------------------------------------|
E--------------------------------------------------------|

e--------------------------------------------------------|
B-///14-14-14-14-14-14-14-14-14-14-14-14-14-14-14-14-----|
G--------------------------------------------------------|
D--------------------------------------------------------|
A--------------------------------------------------------|
E--------------------------------------------------------|

e-16-16-16-16-16-16-16-16-13-13-13-13-13-13-13-13--------|
B--------------------------------------------------------|
G--------------------------------------------------------|
D--------------------------------------------------------|
A--------------------------------------------------------|
E--------------------------------------------------------|

Vibrato those last 3 notes as you play them.

During the 2nd & 3rd choruses in the recording you can hear Travis
playing the following variation on that first part of the chorus lead:

e--------------------------------------------------------|
B----6-----------------------6---------------------------|
G-/5---5-8-6v-5v-8-6-5-3--/5---5-8-6v-5v-8-6-5-3---------|
D--------------------------------------------------------|
A--------------------------------------------------------|
E--------------------------------------------------------|

2nd Pre-Verse: (1:35 - 1:47)

"I don’t want to say, that with mercy we decay."

Claudio Verse Riff x 2

Travis Pre-verse Lead x 2

2nd Verse: (1:47 - 1:59)

"Converging closer and faster..."

Claudio Verse Riff x 2

Claudio Over Dub x 2

Travis Verse Lead x 2

2nd Pre-Chorus: (1:59 - 2:22)

"And she confessed her love, Only I shut her up..."

Claudio Pre-Chorus x 1

Travis 2nd Pre-Chorus Lead: x 1

e-------------------------------------------------------------------|
B-9-9-----------------------------9-9-------------------------------|
G-----6-6-------------6-6-------------6-6-------------6-6-----------|
D---------8-8-6-6-8-8-----8-8-8-8---------8-8-6-6-8-8-----8-8-8-8---|
A-------------------------------------------------------------------|
E-------------------------------------------------------------------|

e-------------------------------------------------------------------|
B-----6-6-----------------------------6-6---------------------------|
G-------------8-8-----6-6-----6-6-------------8-8-----6-6-----8-8---|
D-8-8-----8-8-----8-8-----8-8-----6-6-----6-6-----6-6-----6-6-------|
A-------------------------------------------------------------------|
E-------------------------------------------------------------------|

e-------------------------------------------------------------------|
B-9-9-----------------------------9-9-------------------------------|
G-----6-6-------------6-6-------------6-6-------------6-6-----------|
D---------8-8-6-6-8-8-----8-8-8-8---------8-8-6-6-8-8-----8-8-8-8---|
A-------------------------------------------------------------------|
E-------------------------------------------------------------------|

e----------------------------------------------------|
B----------------------------------------------------|
G----------------------------------------------------|
D-10v----------------10v-----------------------------|
A----------------------------------------------------|
E----------------------------------------------------|

Alt. Live - Travis Tremolo picks that last note and then
            slides up and down the neck leading into the Chorus.

2nd Chorus (2:22 - 2:46)

Claudio Chorus Chords x 2

Travis Chorus Lead: x 2

Bridge: (2:46 - 3:10)

"Little have they learned anything about me..."

Claudio Bridge: x 1

e----------------------------------------------------|
B----------------------------------------------------|
G----------------------------------------------------|
D----------------------------------------------------|
A-4-4444-4444-4--4-----4-----8-6-4-------------------|
E-2-2222-2222-2----6-6---6-6-------8-6/4-0-4-6p4-----|
                 . . . . . . . . . .     . .

e----------------------------------------------------|
B----------------------------------------------------|
G----------------------------------------------------|
D-----------------------6-66666----------------------|
A-4-4444-4444-4-8-88888-4-44444----------------------|
E-2-2222-2222-2-6-66666------------------------------|

e----------------------------------------------------|
B----------------------------------------------------|
G----------------------------------------------------|
D----------------------------------------------------|
A-4-4444-4444-4--4-----4-----8-6-4-------------------|
E-2-2222-2222-2----6-6---6-6-------8-6/4-0-4-6p4-----|
                 . . . . . . . . . .     . .

e----------------------------------------------------|
B----------------------------------------------------|
G----------------------------------------------------|
D----------------------------------------------------|
A-4-4444-4444-4-3-333333-888--888--------------------|
E-2-2222-2222-2-1-111111-555--555--------------------|
                  ......

Travis Bridge Lead: x 1

e----------------------------------------------------|
B-/9----9----9---------------------------------------|
G----10---10---10------------------------------------|
D----------------------------------------------------|
A-----------------4-----4------8-6-4-----------------|
E-------------------6-6---6-6--------8-6/4-0-4-6p4---|

e----------------------------------------------------|
B-/9----9----9---------------------------------------|
G----10---10---10------------------------------------|
D--------------------------66666666------------------|
A-----------------88888888-44444444------------------|
E-----------------66666666---------------------------|

e----------------------------------------------------|
B-/9----9----9---------------------------------------|
G----10---10---10------------------------------------|
D----------------------------------------------------|
A-----------------4-----4------8-6-4-----------------|
E-------------------6-6---6-6--------8-6/4-0-4-6p4---|

e----------------------------------------------------|
B-/9----9----9---------------------------------------|
G----10---10---10------------------------------------|
D-----------------10v--------------------------------|
A----------------------------------------------------|
E----------------------------------------------------|

There are some weird noises over the bridge, but I do not believe
that Travis makes them.  In the live videos, you can see him
playing the above.

3rd Chorus: (3:10 - 3:33)

Claudio Chorus Chords x 2

Travis chorus Lead x 2

Outro Chorus: (3:33 - 3:57)

"Ooh, in this shattered symphony."

Claudio Chorus Chords x 2

Travis Outro Chorus Lead: x 1

e----------------------------------------------------|
B----------------------------------------------------|
G----------------------------------------------------|
D----------------------------------------------------|
A-13v----------15b1615----13v------------------------|
E----------------------------------------------------|

e--------------------------------------------------------------------|
B--------------------------------------------------------------------|
G---------------------------------------------------------13v----15v-|
D-13-13-13-13-13-13-13-13-13-13-13-13-13-13-13-13-15v----------------|
A--------------------------------------------------------------------|
E--------------------------------------------------------------------|

e----------------------------------------------------|
B----------------------------------------------------|
G----------------------------------------------------|
D----------------------------------------------------|
A-13v----------15b1615----13v------------------------|
E----------------------------------------------------|

e-------------------------------------------------------------------------------------------|
B-------------------------------------------------------------------------------11----11----|
G-------------------------------------------------13-10-10-13-10-10-13-10-10-13-14b15-14b15-|
D-13-13-13-13-13-13-13-13-13-13-13-13-13-13-13-13-------------------------------------------|
A-------------------------------------------------------------------------------------------|
E-------------------------------------------------------------------------------------------|

Outro: (3:57 - 4:09)

"Go on and give me the gun..."

Claudio Intro Riff x 4

Travis Outro Lead: x 2

e----------------------------------------------------|
B-9----9----9-11-9----9----9-------------------------|
G---10---10--------10---10---10----------------------|
D-------------------------------11-------------------|
A----------------------------------------------------|
E----------------------------------------------------|

Both guitars end on:

e----------------------------------------------------|
B----------------------------------------------------|
G----------------------------------------------------|
D----------------------------------------------------|
A-88-------------------------------------------------|
E-66-------------------------------------------------|


___________________________________________________________________


Track: "World of Lines" v 2.0
Tuning: Standard

There are some alternate parts on here showing the way Coheed plays
live; this information was gathered from Coheed playing at Coachella.
See the link below.

http://www.youtube.com/watch?v=55uTDLnQwSw


Intro: (0:00 - 0:22)


Claudio Guitar: x 4

e-----------------------------------------------------------------|
B-----------------------------------------------------------------|
G-----------------------------------------------------------------|
D---7------7-------------------------2-------2--------------------|
A-5---8--5---8---5-7-8---5-7-8---3-5-----3-5------------3---------|
E-----------------------------------------------0h3h5-5---5-3-5---|


Travis Guitar: x 2

e-----------------------------------------------------------------------------|
B-----------------------------------------------------------------------------|
G-----------------------------------------------------------------------------|
D-77-777----------77-777------------------------------------------------------|
A-55-555----------55-555----------88-888----------55-555--xxxxxxxxxxxx--------|
E---------------------------------66-666----------33-333--xxxxxxxxxxxx--------|
Note:  The last few notes of the above are muted notes played around the 5th
fret.

Travis Guitar Alt. Live: x 2

e----------------------------------------------------------------------------------|
B----------------------------------------------------------------------------------|
G----------------------------------------------------------------------------------|
D-77-777x-x-x-xxxxxxxx77-777x-x-x-xxxxxxxx-----------------------------------------|
A-55-555x-x-x-xxxxxxxx55-555x-x-x-xxxxxxxx88-888x-x-x-xxxxxxxx55-555x-x-x-xxxxxxxx-|
E-----------------------------------------66-666x-x-x-xxxxxxxx33-333x-x-x-xxxxxxxx-|
Note: All above mutes are played in the same position as the power chord, except
that you are not fretting the strings, you are muting them.

Synth Lead: x 1

e---------------------------------------------------|
B-10-11-10-----------------10-11-10-----------------|
G----------10-12-14v----------------10-12-----------|
D-----------------------------------------12v-------|
A---------------------------------------------------|
E---------------------------------------------------|


1st Verse: (0:22 - 0:55)


"This is the hidden truth, the world between the lines..."

Claudio Guitar:

First time through
e----------------------------------------------------------------------------|
B----------------------------------------------------------------------------|
G----------------------------------------------------------------------------|
D---7-----7----------------77-777-777-777-7----------------------------------|
A-5---8-5---8-5-7-8--5-7-8-55-555-555-555-5-88-888-888-888-855-555-555-555---|
E-------------------------------------------66-666-666-666-633-333-333-333---|
			   ................................................

Next time through x 2
e-----------------------------------------------------------|
B-----------------------------------------------------------|
G-----------------------------------------------------------|
D---7------7---------------------7-7---7-7-7-7---7-7p5-5-5--|
A-5---8--5---8---5-7-8-5-7-8---5----------------------------|
E-----------------------------------------------------------|

Next time through x 1
e-----------------------------------------------------------------|
B-----------------------------------------------------------------|
G-----------------------------------------------------------------|
D---7------7-------------------------2-------2--------------------|
A-5---8--5---8---5-7-8---5-7-8---3-5-----3-5------------3---------|
E-----------------------------------------------0h3h5-5---5-3-5---|

last time through x 1
e-----------------------------------------------------------------|
B-----------------------------------------------------------------|
G-----------------------------------------------------------------|
D---7------7-------------------------2-------2--------------------|
A-5---8--5---8---5-7-8---5-7-8---3-5-----3-5----xxxxxxxxxxxxxxxx--|
E-----------------------------------------------xxxxxxxxxxxxxxxx--|
Note: On the end of the above measure Claudio slides his fingers
starting from the around the 5th fret up to the about the 12th fret
and then slides back down to play the first few notes of the chorus.
The whole time, he is muting the strings, touching not fretting,
and picking the first two strings rapidly.

last time through live x 1
e-----------------------------------------------------------------|
B-----------------------------------------------------------------|
G-----------------------------------------------------------------|
D---7------7------------------------------------------------------|
A-5---8--5---8---5-7-8---5-7-8---xxxxxxxxxxxxxxxxxxxxxxxxxxxxxxx--|
E--------------------------------xxxxxxxxxxxxxxxxxxxxxxxxxxxxxxx--|
Note: The muted part at the end is played pretty much the same as above,
but now it's down over an extra portion of the verse ending.


Travis Guitar:

First time through
e---------------------------------------------------------------------------|
B---------------------------------------------------------------------------|
G---------------------------------------------------------------------------|
D--------------------------77-777-777-777-7---------------------------------|
A--------------------------55-555-555-555-588-888-888-888-855-555-555-555-5-|
E------------------------------------------66-666-666-666-633-333-333-333-3-|
                           ................................................

Second time through
e------------------------------------------------------------------|
B------------------------------------------------------------------|
G------------------------------------------------------------------|
D-77-777-777-777-777-777-777-777-7---------------------------------|
A-55-555-555-555-555-555-555-555-588-888-888-888-855-555-555-555-5-|
E---------------------------------66-666-666-666-633-333-333-333-3-|
  ................................................................

Third time through
e------------------------------------------------------------------|
B------------------------------------------------------------------|
G------------------------------------------------------------------|
D-77-788-877-733-377-788-877-733-3---------------------------------|
A-55-555-555-555-555-555-555-555-588-888-888-888-85555555555555555-|
E---------------------------------66-666-666-666-63333333333333333-|
                                  ................

Chorus: (0:55 - 1:17)


"Just leave us alone..."

Claudio Guitar: x 2
e--------------------------------------------------------------------|
B--------------------------------------------------------------------|
G--------------------------------------------------------------------|
D-77777777777777757777777777777770-----------------------------------|
A-55555555555555535555555555555550-8888888888888880-5555555555555550-|
E----------------------------------6666666666666660-3333333333333330-|


Travis Guitar:

First time through
e--------------------------------------------------------------------|
B--------------------------------------------------------------------|
G--------------------------------------------------------------------|
D-77777777777777757777777777777770-----------------------------------|
A-55555555555555535555555555555550-8888888888888880-5555555555555550-|
E----------------------------------6666666666666660-3333333333333330-|


second time through
e-8----------8-----------8---------8----------------|
B----8--10v----8--10-------8--10v----8--10----------|
G--------------------7v--------------------7v-------|
D---------------------------------------------------|
A---------------------------------------------------|
E---------------------------------------------------|

third time through
e-8----------8-----------8---------8----------------|
B----8--10v----8--10-------8--10v----8--------------|
G--------------------7v-----------------------------|
D---------------------------------------------------|
A---------------------------------------------------|
E---------------------------------------------------|


2nd Verse: (1:17 - 1:39)


"Communications breaking, the static hoarding the lines..."

Claudio Guitar: x 3
e-----------------------------------------------------------------|
B-----------------------------------------------------------------|
G-----------------------------------------------------------------|
D---7------7------------------------------------------------------|
A-5---8--5---8---5-7-8---5-7-8---3-5-7---3-5-7----------3---------|
E-----------------------------------------------0h3h5-5---5-3-5---|

Claudio last time: x 1
e-----------------------------------------------------------------|
B-----------------------------------------------------------------|
G-----------------------------------------------------------------|
D---7------7-------------------------2-------2--------------------|
A-5---8--5---8---5-7-8---5-7-8---3-5-----3-5----xxxxxxxxxxxxxxxx--|
E-----------------------------------------------xxxxxxxxxxxxxxxx--|
Note: On the end of the above measure Claudio slides his fingers
starting from the around the 5th fret up to the about the 12th fret
and then slides back down to play the first few notes of the chorus.
The whole time, he is muting the strings, touching not fretting,
and picking the first two strings rapidly.

last time through live x 1
e-----------------------------------------------------------------|
B-----------------------------------------------------------------|
G-----------------------------------------------------------------|
D---7------7------------------------------------------------------|
A-5---8--5---8---5-7-8---5-7-8---xxxxxxxxxxxxxxxxxxxxxxxxxxxxxxx--|
E--------------------------------xxxxxxxxxxxxxxxxxxxxxxxxxxxxxxx--|
Note: The muted part at the end is played pretty much the same as above,
but now it's down over an extra portion of the verse ending.

Travis Guitar:

first time through
e---------------------------------------------------|
B---------------------------------------------------|
G-7b8r7v--------------------------------------------|
D---------------------------------------------------|
A---------------------------------------------------|
E---------------------------------------------------|
Note: The above notes are actually played starting at the
end of the first chorus, then this bend plays over the first
measure of the second verse.


second time through
e---------------------------------------------------|
B---------------------------------------------------|
G--8r7v---------------------------------------------|
D---------------------------------------------------|
A---------------------------------------------------|
E---------------------------------------------------|
Note: The above note is a pre-bend.  Bend the 7th fret to
sound like an 8 before you ever play it.

second time through x 1
e------------------------------------------------------------------|
B------------------------------------------------------------------|
G------------------------------------------------------------------|
D-77-788-877-733-377-788-877-733-3---------------------------------|
A-55-555-555-555-555-555-555-555-588-888-888-888-855-555-555-555-5-|
E---------------------------------66-666-666-666-633-333-333-333-3-|


2nd Chorus: (1:39 - 2:01)


"Just leave us alone..."

Claudio Guitar:

first time through
e--------------------------------------------------------------------|
B--------------------------------------------------------------------|
G--------------------------------------------------------------------|
D-77777777777777757777777777777770-----------------------------------|
A-55555555555555535555555555555550-8888888888888880-5555555555555550-|
E----------------------------------6666666666666660-3333333333333330-|


second time through
e--------------------------------------------------------------------|
B--------------------------------------------------------------------|
G--------------------------------------------------------------------|
D-77777777777777757777777777777770-----------------------------------|
A-55555555555555535555555555555550-8888888888888880-5555555577777770-|
E----------------------------------6666666666666660-3333333355555550-|


Travis Guitar: x 3
e-8----------8-----------8---------8----------------|
B----8--10v----8--10-------8--10v----8--10----------|
G--------------------7v--------------------7v-------|
D---------------------------------------------------|
A---------------------------------------------------|
E---------------------------------------------------|

e-8----------8-----------8---------8----------------|
B----8--10v----8--10-------8--10v----8--10----------|
G--------------------7v--------------------7v-------|
D---------------------------------------------------|
A---------------------------------------------------|
E---------------------------------------------------|

last time:
e-8----------8-----------8---------8----------------|
B----8--10v----8--10-------8--10v----8--------------|
G--------------------7v-----------------------------|
D---------------------------------------------------|
A---------------------------------------------------|
E---------------------------------------------------|


Bridge: (2:01 - 2:28)


"I'll stay at your pace and go hide..."

Claudio Guitar: x 2
e----------------------------------------------------------------------|
B----------------------------------------------------------------------|
G----------------------------------------------------------------------|
D---------------------------------------------3----77-77-7-5-3-5-3-2---|
A-88-88---5p0---5p0---5-----55-55---3-----3-----5v-55-55-------------3-|
E-66-66-6-----6-----6---6-5-33-33-5---3h5---5--------------------------|

end on
e---------------------------------------------------|
B---------------------------------------------------|
G---------------------------------------------------|
D---------------------------------------------------|
A-8~------10~---------------------------------------|
E-6~------8-~---------------------------------------|


Travis Guitar (As recorded on the album): x 1
e---------------------------------------------------|
B----------5v-6-------------------------------------|
G-7b8r7v---------7----------------------------------|
D---------------------------------------------------|
A---------------------------------3-----------------|
E---------------------5-3-1-3-1-0-------------------|

e---------------------------------------------------|
B------5----6-----10--------------------------------|
G-7------------7------------------------------------|
D---------------------------------------------------|
A---------------------------------3-----------------|
E---------------------5-3-1-3-1-0-------------------|

end on
e-13V---13V---13v---13v---13v---13v---13v---13v---13v---13v---13v-------|
B----17v---17v---17v---17v---17v---17v---17v---17v---17v---17V---17V----|
G-----------------------------------------------------------------------|
D-----------------------------------------------------------------------|
A-----------------------------------------------------------------------|
E-----------------------------------------------------------------------|
let the above notes ring together while doing heavy vibrato to simulate that creepy sound

Travis Guitar (As played live at Coachella in linked video): x 2
e---------------------------------------------------|
B-11v--11v-10v--10v-11v-13v--11v--------------------|
G---------------------------------------------------|
D---------------------------------------------------|
A---------------------------------------------------|
E---------------------------------------------------|

end on
e---------------------------------------------------|
B---------------------------------------------------|
G-10v------12v--------------------------------------|
D-10v------12v--------------------------------------|
A---------------------------------------------------|
E---------------------------------------------------|


Outro: (2:28 - 3:15)


"Just leave us alone..."

Claudio Guitar (As recorded on the album): x 4
e--------------------------------------------------------------------|
B--------------------------------------------------------------------|
G--------------------------------------------------------------------|
D-77777777777777757777777777777770-----------------------------------|
A-55555555555555535555555555555550-8888888888888880-5555555555555550-|
E----------------------------------6666666666666660-3333333333333330-|

Claudio Guitar (As played live at Coachella in the linked video):

e-15-15-15-12-12-12-13-13-13----------12-12--------------------------|
B----------------------------15-15-15-------13-13--------------------|
G--------------------------------------------------------------------|
D--------------------------------------------------------------------|
A--------------------------------------------------------------------|
E--------------------------------------------------------------------|

e--------------------------------------------------------------------|
B-15-15-15-15-15-15-13-13-13-13-13-13-13-13-13-13--------------------|
G--------------------------------------------------------------------|
D--------------------------------------------------------------------|
A--------------------------------------------------------------------|
E--------------------------------------------------------------------|

e-------------------------------------------------------------------------------------|
B-13b15r13-13b15r13-13b15r13-13b15r13-13-13-13-13-13-13-13-13-13-13-13-13-13-13-13-13-|
G-------------------------------------------------------------------------------------|
D-------------------------------------------------------------------------------------|
A-------------------------------------------------------------------------------------|
E-------------------------------------------------------------------------------------|

e-15-15-15-12-12-12-13-13-13----------12-12--------------------------|
B----------------------------15-15-15-------13-13--------------------|
G--------------------------------------------------------------------|
D--------------------------------------------------------------------|
A--------------------------------------------------------------------|
E--------------------------------------------------------------------|

e--------------------------------------------------------------------|
B-15-15-15-15-15-15-13-13-13-13-13-13-13-13-13-13--------------------|
G--------------------------------------------------------------------|
D--------------------------------------------------------------------|
A--------------------------------------------------------------------|
E--------------------------------------------------------------------|

e-------------------------------------|
B-13b15r13-13b15r13-13b15r13-13b15r13-|
G-------------------------------------|
D-------------------------------------|
A-------------------------------------|
E-------------------------------------|

e-1515151515151515151515151515151515151515151515151515151515151515151515151515151515--|
B-------------------------------------------------------------------------------------|
G-------------------------------------------------------------------------------------|
D-------------------------------------------------------------------------------------|
A-------------------------------------------------------------------------------------|
E-------------------------------------------------------------------------------------|

then Chorus Chords x3
e--------------------------------------------------------------------|
B--------------------------------------------------------------------|
G--------------------------------------------------------------------|
D-77777777777777757777777777777770-----------------------------------|
A-55555555555555535555555555555550-8888888888888880-5555555555555550-|
E----------------------------------6666666666666660-3333333333333330-|

Travis Guitar:
e--------------------------------------------------------------------|
B-13~--------------15~--------------13~------------------------------|
G----14~---------------14~-------------14~----------------------12---|
D-------14~---------------14b15r14--------14~----12--14--15--15------|
A----------15~-------------------------------15~---------------------|
E--------------------------------------------------------------------|


______________________________________________________________________________________


Track: "Made Out of Nothing (All That I Am)" v 2.0
Tuning: Standard

This is an extremely accurate representation of what the guitars are
doing on this track.

Link to live video: http://www.youtube.com/watch?v=VqyuRVd2uMU


Intro: (0:00 - 0:14)


Claudio Intro: x 1

e--------------------------------------------------|
B--------------------------------------------------|
G--------------------------------------------------|
D--------------------------------------------------|
A--555555555555553535555555555555355---------------|
E--333333333333331313333333333333133---------------|
   .................................

e--------------------------------------------------|
B--------------------------------------------------|
G--------------------------------------------------|
D--------------------------------------------------|
A--6/55555555555553535555555555555355--------------|
E--4/33333333333331313333333333333133--------------|
     .................................

Travis Intro Lead: x 2

e--------------------------------------------------|
B--6~--------------4~------3~----------------------|
G----7~------------3~------3~----------------------|
D------5~-5~---------------------------------------|
A--------------------------------------------------|
E--------------------------------------------------|


1st Verse: (0:14 - 0:40)


"Never mind all the lines I'm coming..."

Claudio Verse Chords: x 2
e-------------------------------------------------------------------------------|
B-------------------------------------------------------------------------------|
G-------------------------------------------------------------------------------|
D------------------------------------88888888888888888888888888888888-----------|
A--6/5555555555555353555555555555555-66666666666666666666666666666666-----------|
E--4/3333333333331313333333333333333--------------------------------------------|
     .................................................................

Travis Verse Chords + Lead: x 2
e-------------------------------------------------------------------------------|
B-------------------------------------------------------------------------------|
G-------------------------------------------------------------------------------|
D-------------------------------------------------------------------------------|
A-------------------------------------1--------------------1--------------------|
E--33333131333331313333313133333131-----3--1--3--3-1-3--------3--1--3-----------|
   ................................


Pre-Chorus: (0:40 - 0:53)


"The laughing feels so good..."

Claudio Pre-Chorus Chords: x 1
(Play each power chord below 8 times)
e-----------------------------------------------------------------|
B-----------------------------------------------------------------|
G-----------------------------------------------------------------|
D---------------------------------3---------------8---------------|
A-5---------------3---------------1---------------6---------------|
E-3---------------1-----------------------------------------------|

e-----------------------------------------------------------------|
B-----------------------------------------------------------------|
G-----------------------------------------------------------------|
D---------------------------------8---------------8---------------|
A-10--------------10--------------6---------------6---------------|
E-8---------------8-----------------------------------------------|


Travis Pre-Chorus Lead: x 1

e------------------------------------------------------------------------|
B------------------------------------------------------------------------|
G------------------------------------------------------------------------|
D-8-7------10-8-7----8-7------10-8-7----8-7------10-8-7----8-7------7----|
A-----10-8--------10-----10-8--------10-----10-8--------10-----10-8---8--|
E------------------------------------------------------------------------|

e-----------------------------------------------------------------|
B-------6~------------------------------3~------------------------|
G---3~------------------------------3~----------------------------|
D-5~--5~--------------------------5~--5~--------------------------|
A-----------------------------------------------------------------|
E-----------------------------------------------------------------|


1st Chorus: (0:53 - 1:19)


"Someone please come shelter me from, all that I am..."

Claudio Chorus Chords: x 2
(Play each power chord below 8 times)
e------------------------------------------------------------------------------|
B------------------------------------------------------------------------------|
G------------------------------------------------------------------------------|
D-----------------------------------------------------------------8-------8----|
A-8-----------8-----------8-----------8-----------5-------3-------6-------6----|
E-6-----------6-----------5-----------5-----------3-------1--------------------|

Travis Chorus Lead: x 2
e--------------------------------------------------------------------|
B-11--11--11--11--11--11--11--11--10--10--10--10--10--10--10--10-----|
G---10--10--10--10--10--10--10--10--10--10--10--10--10--10--10--10---|
D--------------------------------------------------------------------|
A--------------------------------------------------------------------|
E--------------------------------------------------------------------|

e---------------------------------------------------|
B-8--8--8--8--6--6--6--6--4--4--4--4--4--4--4--4----|
G---7--7--7--7--5--5--5--5--3--3--3--3--3--3--3--3--|
D---------------------------------------------------|
A---------------------------------------------------|
E---------------------------------------------------|


Interlude: (1:19 - 1:26)


Claudio Intro x 1

Travis Interlude Lead: x 1
e---------------------------------------------------|
B---------------------------------------------------|
G--3-2-----------3-2----3-2-------------------------|
D------3-5-----------3------3-5---------------------|
A---------------------------------------------------|
E---------------------------------------------------|


2nd Verse: (1:26 - 1:52)


"I've given up on all I love, for an honest moment of clarity..."

Claudio Verse Chords x 2
Travis Verse Chords + Lead x 2

Synth Lead: x 4
e-------------------------------------------------------------------------------|
B-------------------------------------------------------------------------------|
G--3p2-----------2-3p2----2-3p2-5p2-----------3p2----------2-3p2---2-3p2-5p2----|
D------5-5-------------5--------------------------5-5------------5--------------|
A-------------------------------------------------------------------------------|
E-------------------------------------------------------------------------------|


2nd Pre-Chorus: (1:52 - 2:05)


"Will the latter half be as good..."

Claudio Pre-Chorus Chords x 1
Travis Pre-Chorus Lead x 1


2nd Chorus: (2:05 - 2:32)


Claudio Chorus Chords x 2
Travis Chorus Lead x 2


Bridge: (2:32 - 3:00)


"I failed, you, I failed..."

Claudio Bridge Chords: x 1
(Play each power chord 8 times)
e------------------------------------------------------------------------------|
B------------------------------------------------------------------------------|
G------------------------------------------------------------------------------|
D------------------8-------8-------5---------------8-------8-------------------|
A--5-------3-------6-------6-------3-------5-------6-------6-------------------|
E--3-------1-------------------------------3-----------------------------------|

e------------------------------------------------------------------------------|
B------------------------------------------------------------------------------|
G------------------------------------------------------------------------------|
D------------------3-------8-------8-----------------------8-------8-----------|
A--5-------3-------1-------6-------6-------10------10------6-------6-----------|
E--3-------1-------------------------------8-------8---------------------------|

Travis Bridge Octave Lead Pt. 1: x 6
e------------------------------------------------------------|
B------------------------------------------------------------|
G--1010108-8-8-7-7-8-8-8-6-6-6-3-3---------------------------|
D--x-x-x-x-x-x-x-x-x-x-x-x-x-x-x-x---------------------------|
A--8-8-8-6-6-6-5-5-6-6-6-5-5-5-1-1---------------------------|
E------------------------------------------------------------|

Travis Bridge Octave Lead Pt. 2: x 1
e------------------------------------------------|
B------------------------------------------------|
G--1010108-8-7---1010108-8-8-7-7-8-8-8-7-7-7-3-3-|
D--x-x-x-x-x-x---x-x-x-x-x-x-x-x-x-x-x-x-x-x-x-x-|
A--8-8-8-6-6-5---8-8-8-6-6-6-5-5-6-6-6-5-5-5-1-1-|
E------------------------------------------------|

e---------------------------------------------------|
B---------------------------------------------------|
G--8-8-8-8-10101010-12-12-12-12-15-15-15-15---------|
D--x-x-x-x-x-x-x-x--x--x--x--x--x--x--x--x----------|
A--6-6-6-6-8-8-8-8--10-10-10-10-13-13-13-13---------|
E---------------------------------------------------|


Third Chorus: (3:00 - 3:26)


Claudio Chorus Chords x 2
Travis Chorus Lead x 2


Outro: (3:26 - 4:19)


"It eats us like cancer, we're hoping for something..."

Claudio Chorus Chords x 4
Travis Chorus Lead x 4


End:


Claudio:
e-----------------------|
B-----------------------|
G-----------------------|
D-----------------------|
A--8~-------------------|
E--6~-------------------|

Travis:
e-----------------------|
B--11~------------------|
G--10~------------------|
D-----------------------|
A-----------------------|
E-----------------------|


______________________________________________________________________


Track: "Pearl of the Stars"
Tuning: E Flat Tuning

This tab contains parts for both studio and live versions.

Video Links:
http://www.youtube.com/watch?v=EZVNpHNdbik


Intro: (0:00 - 0:17)


Claudio Verse Riff x 2

eb-------0~--------------0~------------0~----------------------------|
Bb-0~------0~--------0~----0~--------0~--0~------5~------3~----------|
Gb---5~------5~----7~--7~----7~----5~------5p0-----0~------0~--------|
Db-----7~------0-5~------------0-3~------------------0~------0~------|
Ab-0~------------------------------------------0-3~----0-2~----0-----|
Eb-------------------------------------------------------------------|


Travis does not play anything


First Verse: (0:17 - 0:52)


"Each night I wish to God he'd let her rest..."


Claudio Verse Riff x 3

Then,

Claudio Verse End I x 1 (as shown in live videos)
eb-------0~--------------0~------------0~----------------0~--0~------------0~-|
Bb-0~------0~--------0~----0~--------0~--0~------------0~--0~--0~--------0~---|
Gb---5~------5~----7~--7~----7~----5~------5p0-------2~----------2~----2~-----|
Db-----7~------0-5~------------0-3~------------0-2h3~--------------2h3~-------|
Ab-0~-------------------------------------------------------------------------|
Eb----------------------------------------------------------------------------|

OR

Claudio Verse End II x 1 (as heard on the album)
eb-------0~--------------0~------------0~--------3~------3~------3~------3~-----|
Bb-0~------0~--------0~----0~--------0~--0~--------1~------1~------1~------2~---|
Gb---5~------5~----7~--7~----7~----5~------5p0-------2~------2~------2~------1~-|
Db-----7~------0-5~------------0-3~------------0-------3~------3~------3~-------|
Ab-0~---------------------------------------------------------------------------|
Eb------------------------------------------------------------------------------|


Travis plays nothing over the first 2 bars

Then,

Travis Verse Lead x 2

eb-7~----10~----8~----7~----5~------------0~-----------------------|
Bb---8~-----8~----8~----8~----5~--------0~-------------------------|
Gb-----7~-----7~----7~----7~----5~----5~---------------------------|
Db--------------------------------5h7~-----------------------------|
Ab-----------------------------------------------------------------|
Eb-----------------------------------------------------------------|

eb-7~----10~----8~----7~----5~------------0~---------0~------------|
Bb---8~-----8~----8~----8~----5~--------0~---------0~--------------|
Gb-----7~-----7~----7~----7~----5~----5~---------5~----------------|
Db--------------------------------5h7~-------5h7~------------------|
Ab-----------------------------------------------------------------|
Eb-----------------------------------------------------------------|


First Chorus: (0:52 - 1:32)


"When you go, I will know..."


Claudio Chorus Riff x 4

eb-----------------------------------------------------------------|
Bb--------------------------------------0~-------------------------|
Gb---------0~------------0~-----------5~--5~----------0~-----------|
Db-------3~--3~--------7~--7~-------5~------5/------3~--3~---------|
Ab-----3~------3/----7~------7~-0-3~--------------3~------3~-------|
Eb-0-1~----------0-5~-------------------------0-1~-----------------|

Claudio Chorus End x 1

eb-------------------------------------------------|
Bb-------------------------------------------------|
Gb-------0~------------0~-------------0------------|
Db-----3~--3~--------3~--3~---------3--------------|
Ab---3~------3~----3~------3~-----3----------------|
Eb-1~----------1-1~-----------1-1------------------|

Travis Chorus Lead x 1

eb-----3-1---------0------------10-8----------------------------|
Bb---------1---------0---------------8------1p0----0------------|
Gb---2----------5------5------9-----------2------2--------------|
Db-3----------7------------10-----------3-----------------------|
Ab--------------------------------------------------------------|
Eb--------------------------------------------------------------|

eb-----3-1---------0------------10-8----------------------------|
Bb-1-------1---------0---------------8------1p0----0------------|
Gb---2----------5------5------9-----------2------2--------------|
Db------------7------------10-----------3-----------------------|
Ab--------------------------------------------------------------|
Eb--------------------------------------------------------------|

eb-----3-1--------7p5----------10-8-----------------------------|
Bb-1-------1----------5-------------8------1p0----0-------------|
Gb---2----------5------------9-----------2------2---------------|
Db------------7-----------10-----------3------------------------|
Ab--------------------------------------------------------------|
Eb--------------------------------------------------------------|

eb-----3-1---------0------------10-8----------------------------|
Bb-1-------1---------0---------------8------1p0----0------------|
Gb---2----------5------5------9-----------2------2--------------|
Db------------7------------10-----------3-----------------------|
Ab--------------------------------------------------------------|
Eb--------------------------------------------------------------|

Travis Chorus Lead End x 1
eb-----------------------------------------------------|
Bb-1----1p0----0-1----1p0---0-1---1p0------------------|
Gb---2-------2------2-----2-----2----------------------|
Db-----------------------------------------------------|
Ab-----------------------------------------------------|
Eb-----------------------------------------------------|

Chorus Piano x 2

Plays over the first two measures of the chorus

eb------12--------15---12--------12--------------------|
Bb-15-------------------------15--------12--13---------|
Gb-----------14----------------------------------------|
Db-----------------------------------------------------|
Ab-----------------------------------------------------|
Eb-----------------------------------------------------|


Chorus Strings Lead x 1 (Begins at 1:09)

Plays over the last two measures of the chorus

eb-----------------------------------------------------------------|
Bb-----------------------------------------------------------------|
Gb-----------------------------------------------------------------|
Db---3~------------7~-------------10~-----------3~-----------------|
Ab-----------------------------------------------------------------|
Eb-----------------------------------------------------------------|

eb-----------------------------------------------------------------|
Bb-----------------------------------------------------------------|
Gb-----------------------------------------------------------------|
Db---3~------------7~-------------10~---12~-----3~-----------------|
Ab-----------------------------------------------------------------|
Eb-----------------------------------------------------------------|

eb-----------------------------------------------------------------|
Bb-----------------------------------------------------------------|
Gb-----------------------------------------------------------------|
Db---3~------------2~-------------0~-------------------------------|
Ab-----------------------------------------------------------------|
Eb-----------------------------------------------------------------|


Interlude: (1:32 - 1:49)


Claudio Verse Riff x 2


Travis does not play anything


Interlude Synth Lead x 1

eb-----------------------------------------------------------------|
Bb-----------------------------------------------------------------|
Gb-----------------------------------------------------------------|
Db-2-----------------2b3-2-----------------------------------------|
Ab-----------------------------------------------------------------|
Eb-----------------------------------------------------------------|


Second Verse: (1:49 - 2:25)


"The pill she takes, the pain of which she drowns..."


Claudio - Same as 1st Verse


Travis - Same as 1st Verse


Second Chorus: (2:25 - 3:05)


Claudio - Same as 1st Chorus


Travis - Same as 1st Chorus


Piano - Same as 1st Chorus


Strings - Same as 1st Chorus


Synth Lead I x 11 (Begins at 2:43)

eb----8-10-12----8-10-12----8-10-12--------------------------------|
Bb-10---------10---------10----------------------------------------|
Gb-----------------------------------------------------------------|
Db-----------------------------------------------------------------|
Ab-----------------------------------------------------------------|
Eb-----------------------------------------------------------------|


Solo: (3:05 - 3:39)


Claudio Solo Chords x 3

eb-0~----0~-0~------0~----0~--0~-----0~------0~-----0~-----0~--0--0--0~---|
Bb-1~----1~-0~------3~----1~--0~-----0~------0~-----0~-----0~--0--0~-0~---|
Gb-2~----2~-2~------2~----2~--2~-----2~------2~-----2~-----2~--2~-2~-2~---|
Db-2~----2~-2~------2~----2~--2~-----3~------3~-----3~-----3~--3~-3~-3~---|
Ab-0~--0-0~-0~----0-0~--0-0~--0~-0---3~------3~-----3------3~--3~-3~-3~-0-|
Eb-----------------------------------1~----1-1~---1-1----1-1~--1~-1--1~-0-|

Claudio Solo Chords End x 1

eb-0~----0~-0~------0~----0~--0~-----0~----|
Bb-1~----1~-0~------3~----1~--0~-----0~----|
Gb-2~----2~-2~------2~----2~--2~-----2~----|
Db-2~----2~-2~------2~----2~--2~-----3~----|
Ab-0~--0-0~-0~----0-0~--0-0~--0~-0---3~----|
Eb-----------------------------------1~----|


Claudio Solo Chords Alt. Live: x 1

eb-0~----0~-0~------0~----0~--0~-----0~------0~-----0~-----0~--0--0--0~---|
Bb-1~----1~-0~------3~----1~--0~-----0~------0~-----0~-----0~--0--0~-0~---|
Gb-2~----2~-2~------2~----2~--2~-----2~------2~-----2~-----2~--2~-2~-2~---|
Db-2~----2~-2~------2~----2~--2~-----3~------3~-----3~-----3~--3~-3~-3~---|
Ab-0~--0-0~-0~----0-0~--0-0~--0~-0---3~------3~-----3------3~--3~-3~-3~-0-|
Eb-----------------------------------1~----1-1~---1-1----1-1~--1~-1--1~-0-|

eb-0~----0~-0~------0~----0~--0~-----0~-----------------------------------|
Bb-1~----1~-0~------3~----1~--0~-----0~------------1~-------------1~------|
Gb-2~----2~-2~------2~----2~--2~-----2~---------2~-------------2~---------|
Db-2~----2~-2~------2~----2~--2~-----3~---0--3~----------0--3~------------|
Ab-0~--0-0~-0~----0-0~--0-0~--0~-0---3~-----------------------------------|
Eb-----------------------------------1~-----------------------------------|

eb-0~----0~-0~------0~----0~--0~-----0~-----------------------------------|
Bb-1~----1~-0~------3~----1~--0~-----0~------------1~-------------1~------|
Gb-2~----2~-2~------2~----2~--2~-----2~---------2~-------------2~---------|
Db-2~----2~-2~------2~----2~--2~-----3~---0--3~----------0--3~------------|
Ab-0~--0-0~-0~----0-0~--0-0~--0~-0---3~-----------------------------------|
Eb-----------------------------------1~-----------------------------------|

eb-0~----0~-0~------0~----0~--0~-----0~----|
Bb-1~----1~-0~------3~----1~--0~-----0~----|
Gb-2~----2~-2~------2~----2~--2~-----2~----|
Db-2~----2~-2~------2~----2~--2~-----3~----|
Ab-0~--0-0~-0~----0-0~--0-0~--0~-0---3~----|
Eb-----------------------------------1~----|

Travis Solo x 1

eb-----------------------------------------------------------------|
Bb----8-10v---10b12r10-10-8------------------8---------------------|
Gb-/9-----------------------9--------------9---8v------------------|
Db----------------------------10-9h10-9h10-------------10-9-7/5----|
Ab-----------------------------------------------------------------|
Eb-----------------------------------------------------------------|

eb-----------------------------------------------------------------|
Bb--------------------------------------------10---10p8p0----------|
Gb-------------7b9r7--5---5h7-5v----------7h9----9-----------------|
Db-7b-------------------7------------------------------------------|
Ab-----------------------------------------------------------------|
Eb-----------------------------------------------------------------|

eb---------------------8-8b10--8--7-8---------------15b17----------|
Bb-8b10-----8b10-----8-----------------8b10------------------------|
Gb-----------------------------------------------------------------|
Db-----------------------------------------------------------------|
Ab-----------------------------------------------------------------|
Eb-----------------------------------------------------------------|

eb-12-12v---19-15-17-----------------------------------------------|
Bb-------------------17--------------------------------------------|
Gb---------------------------12-12v--------------------------------|
Db-----------------------------------------------------------------|
Ab-----------------------------------------------------------------|
Eb-----------------------------------------------------------------|


Solo Synth: x 1

eb---------------------------------------------|
Bb---------------------------------------------|
Gb----------------------------9---12-----------|
Db-7---9------------10---12--------------------|
Ab---------10---7------------------------------|
Eb---------------------------------------------|

eb---------------------------------------------|
Bb---------------------------------------------|
Gb---------------------------------------------|
Db-7---9------------7---9---10---12------------|
Ab---------10---7------------------------------|
Eb---------------------------------------------|

eb---------------------------------------------|
Bb---------------------------------------------|
Gb----------------------------9---12-----------|
Db-7---9------------10---12--------------------|
Ab---------10---7------------------------------|
Eb---------------------------------------------|

eb---------------------------------------------|
Bb---------------------------------------------|
Gb----------------------------12---------------|
Db-7---9------------7--------------------------|
Ab---------10---7------------------------------|
Eb---------------------------------------------|

Third Chorus: (3:39 - 4:14)


Claudio Chorus Riff x 3

Then,

Claudio Chorus End x 1

eb-------------------------------------------------------|
Bb--------------------------------------0~---------------|
Gb---------0~------------0~-----------5~--5~-------------|
Db-------3~--3~--------7~--7~-------5~------5/-----------|
Ab-----3~------3/----7~------7~-0-3~---------------------|
Eb-0-1~----------0-5~-------------------------0-1~-------|


Travis does not play anything over the third chorus


Synth Lead II x 1 (Begins at 3:57)

eb-------------------------------------------------------|
Bb--8----------------------------------------------------|
Gb----------------9---------------9----------------------|
Db-----------------------------------------------10------|
Ab-------------------------------------------------------|
Eb-------------------------------------------------------|

eb-------------------------------------------------------|
Bb-------------------------------------------------------|
Gb----------------9---------------9----------------------|
Db--10-------------------------------------------10------|
Ab-------------------------------------------------------|
Eb-------------------------------------------------------|


Fourth Chorus: (4:14 - 4:55)


Claudio - Same as 1st Chorus


Travis - Same as 1st Chorus


Synth Lead III x 4

eb---------------------------------------------------------|
Bb-----------------------------------------------12-10-----|
Gb--------------------------------9------------------------|
Db-3-------------7-----------------------------------------|
Ab----------3----------------------------------------------|
Eb---------------------------------------------------------|


Synth Lead I x 15 (Begins at 4:23)


Synth Lead IV x 1

eb-----------------------------------------------|
Bb-12v-10v-12v-10v-12v-10v-----------------------|
Gb-----------------------------------------------|
Db-----------------------------------------------|
Ab-----------------------------------------------|
Eb-----------------------------------------------|

Both Guitars End: (4:55)

eb-0~-----------------------|
Bb-0~-----------------------|
Gb-5~-----------------------|
Db-7~-----------------------|
Ab-0~-----------------------|
Eb--------------------------|


____________________________________________________________________


Track: "In the Flame of Error"
Tuning: Dropped D Flat

The verse riff and bridges in this song can be very
difficult to hear.  I used Audacity (freeware) to
manipulate this track so that those parts could clearly
be heard.


Pre-Guitar Noise:


Keys: x 1

eb----------------------------------------------------|
Bb----------------------------------------------------|
Gb----------------------------------------------------|
Db-9b10r9~--------------------------------------------|
Ab----------------------------------------------------|
Db----------------------------------------------------|
	Note: This can be heard just before the guitar
	      starts.  It almost sounds like a scream.


Guitar Intro:


Claudio Intro Chords: x 2

eb-------------------------------------------------------|
Bb-------------------------------------------------------|
Gb-------------------------------------------------------|
Db---------------------------/10---9---------------------|
Ab-7------9----10--------12--/8----7---8----10----8------|
Db-7------9----10--------12------------8----10----8------|

Travis Intro Lead: x 2

eb-------------------------------------------------------|
Bb-------------------------------------------------------|
Gb-------------7---------7---10----9---------------------|
Db-7-5-7--9------10-9-10--------------8----10----8-------|
Ab-------------------------------------------------------|
Db-------------------------------------------------------|

Guitar Overdub I: x 1

eb-------------------------------------------------------|
Bb-10---~-----------------------------------13---~-------|
Gb-13b14~-----------------------------------16b17~-------|
Db-------------------------------------------------------|
Ab-------------------------------------------------------|
Db-------------------------------------------------------|

eb-------------------------------------------------------|
Bb-------------------------------------------------------|
Gb---------10---~----------------------------------------|
Db---------13b14~----------------------------------------|
Ab-------------------------------------------------------|
Db-------------------------------------------------------|


1st Verse:


Claudio Verse Riff: x 3

eb---------------------------------------------------------|
Bb-------------8---------------------------8---------------|
Gb---9------10---9----9-7--------9------10---9----9-7------|
Db-7---10-9--------10-----9----7---10-9--------10-----9----|
Ab--------------------------10--------------------------10-|
Db---------------------------------------------------------|
   . . .  . .  . . .  . . . .  . . .  . .  . . .  . . . .

eb---------------------------------------------------------|
Bb---------------------------------------------------------|
Gb---------------------------------------------------------|
Db---10---7-------7----------------------------------------|
Ab-8----8---8-7-5---5-8-7-0-7-7-7-7-7-7-8-8-8-8-8-10-------|
Db---------------------------------------------------------|
   . .  . . . . . . . . . . . . . . . . . . . . . .

Claudio Verse Riff End: x 1

eb---------------------------------------------------------|
Bb-------------8---------------------------8---------------|
Gb---9------10---9----9-7--------9------10---9----9-7------|
Db-7---10-9--------10-----9----7---10-9--------10-----9----|
Ab--------------------------10--------------------------10-|
Db---------------------------------------------------------|
   . . .  . .  . . .  . . . .  . . .  . .  . . .  . . . .

eb---------------------------------------------------------|
Bb---------------------------------------------------------|
Gb---------------------------------------------------------|
Db---10---7-------7----------------------------------------|
Ab-8----8---8-7-5---5-8-7-0-7-7-7-7-7-7-8-8-8-10\\--0------|
Db--------------------------------------------------0------|
   . .  . . . . . . . . . . . . . . . .

Travis Verse Lead I: x 1

eb----------------------------------------------------|
Bb-10---~---------------------------------------------|
Gb-13b14~---------------------------------------------|
Db----------------------------------------------------|
Ab----------------------------------------------------|
Db----------------------------------------------------|
	Note: Let these notes sustain over the first
	      measure of the Verse.

Travis Verse Lead II: x 1

eb----------------------------------------------------|
Bb----------------------------------------------------|
Gb----------------------------------------------------|
Db----------------------------------------------------|
Ab----------------------------------------------------|
Db----------------------------------------------------|
	Note: Over the second measure of the verse,
	      Travis does not play anything.


Travis Verse Lead III: x 2

eb-------------------15-------------------------------|
Bb-------17----18----------18----17~------------------|
Gb-14-14----14----14----14----14----------------------| x 2
Db----------------------------------------------------|
Ab----------------------------------------------------|
Db----------------------------------------------------|

eb----------------------------------------------------|
Bb-----17-15-------------------17-15------------------|
Gb-14--------17-16-17-16-14----------17-16-17-16-14---|
Db--------------------------17------------------------|
Ab----------------------------------------------------|
Db----------------------------------------------------|


1st Chorus:


Claudio Chorus Chords: x 1

eb----------------------------------------------------|
Bb----------------------------------------------------|
Gb----------------------------------------------------|
Db----------------------------------------------------|
Ab-7-7-7-7~--5-7-7-7-7-7-0-7-7-7-7~--5-7-7-7-7-7-0----|
Db-7-7-7-7~--5-7-7-7-7-7-0-7-7-7-7~--5-7-7-7-7-7-0----|

eb----------------------------------------------------|
Bb----------------------------------------------------|
Gb----------------------------------------------------|
Db----------------------------------------------------|
Ab-3--3-3-3-3--0--0-0-0-0--2--2-2-2-2--3--3-5--5------|
Db-3--3-3-3-3--0--0-0-0-0--2--2-2-2-2--3--3-5--5------|

eb----------------------------------------------------|
Bb----------------------------------------------------|
Gb----------------------------------------------------|
Db----------------------------------------------------|
Ab-7-7-7-7~--5-7-7-7-7-7-0-7-7-7-7~--5-7-7-7-12\\\----|
Db-7-7-7-7~--5-7-7-7-7-7-0-7-7-7-7~--5-7-7-7-12\\\----|

eb----------------------------------------------------|
Bb----------------------------------------------------|
Gb----------------------------------------------------|
Db----------------------------------------------------|
Ab-3--3-3-3-3--0--0-0-0-0--2--2-2-2-2--3--3-5--5------|
Db-3--3-3-3-3--0--0-0-0-0--2--2-2-2-2--3--3-5--5------|

Travis Chorus Lead I: x 1

eb----------------------------------------------------|
Bb----------------------------------------------------|
Gb-------12------------------12----14/----------------|
Db-12h14----14---------12h14----14--------------------|
Ab-------------12-12~---------------------------------|
Db----------------------------------------------------|

eb----------------------------------------------------|
Bb----------------------------------------------------|
Gb----------------------------------------------------|
Db--------------------------------------14------------|
Ab-12-------14-------------15--------------15-14-15---|
Db----------------------------------------------------|

eb----------------------------------------------------|
Bb----------------------------------------------------|
Gb-------12------------------12----------14/----------|
Db-12h14----14---------12h14----14-12-----------------|
Ab-------------12-12~-----------------15--------------|
Db----------------------------------------------------|

eb----------------------------------------------------|
Bb----------------------------------------------------|
Gb----------------------------------------------------|
Db--------------------------------------14------------|
Ab-12-------14-------------15--------------15-14-15---|
Db----------------------------------------------------|

2nd Verse:


Claudio Alt. Verse Riff: x 1

eb---------------------------------------------------------|
Bb---------------------------------------------------------|
Gb---------------------------------------------------------|
Db---------------------------------------------------------|
Ab-7\\\-------------------------------------------------10-|
Db-7\\\----------------------------------------------------|
   							.

eb---------------------------------------------------------|
Bb---------------------------------------------------------|
Gb---------------------------------------------------------|
Db---10---7-------7----------------------------------------|
Ab-8----8---8-7-5---5-8-7-0-7-7-7-7-7-7-8-8-8-8-8-10-------|
Db---------------------------------------------------------|
   . .  . . . . . . . . . . . . . . . . . . . . . .

Claudio Verse Riff x 2

Claudio Verse Riff End x 1

Bass Fill Behind Empty Verse: x 1

eb----------------------------------------------------|
Bb----------------------------------------------------|
Gb--------7-9-12-13-14-----------------7-9-10-9-10----|
Db-7-7-10--------------14-13-12-7-7-10-------------10-|
Ab----------------------------------------------------|
Db----------------------------------------------------|

Travis Verse Lead I x 1

Travis Verse Lead III x 2

Travis Verse Lead IV: x 1

eb----15-----------------------15---------------------|
Bb-------18-17-18-17-15-----------18-17-18-17-15------|
Gb-14-------------------17--14-------------------17---|
Db----------------------------------------------------|
Ab----------------------------------------------------|
Db----------------------------------------------------|

eb----------------------------------------------------|
Bb-----17-15-------------------17-15------------------|
Gb-14--------17-16-17-16-14----------17-16-17-16\\----|
Db--------------------------17------------------------|
Ab----------------------------------------------------|
Db----------------------------------------------------|

Guitar Overdub II:

eb----------------------------------------------------|
Bb--------------------------13---~--------------------|
Gb--------------------------16b17~--------------------|
Db----------------------------------------------------|
Ab----------------------------------------------------|
Db----------------------------------------------------|
	Note: You can hear this at the towards the end
	      of the second verse, just before the
              chorus comes in.


2nd Chorus:


Claudio Chorus Chords x 1

Travis Chorus Lead I x 1


3rd Chorus:


Claudio Chorus Chords x 1

Travis Chorus Lead II: x 1

eb----------------------------------------------------|
Bb----------------------------------------------------|
Gb-------12------------------12----14/----------------|
Db-12h14----14---------12h14----14--------------------|
Ab-------------12-12~---------------------------------|
Db----------------------------------------------------|

eb----------------------------------------------------|
Bb----------------------------------------------------|
Gb----------------------------------------------------|
Db--------------------------------------14------------|
Ab-12-------14-------------15--------------15-14-15---|
Db----------------------------------------------------|

eb----------------------------------------------------|
Bb----------------------------------------------------|
Gb-------12------------------12----------14/----------|
Db-12h14----14---------12h14----14-12-----------------|
Ab-------------12-12~-----------------15--------------|
Db----------------------------------------------------|

eb----------------------------------------------------|
Bb----------------------------------------------------|
Gb----------------------------------------------------|
Db-14-------12----------------------------------------|
Ab-------------------------15-----------14------------|
Db----------------------------------------------------|


Bridge I:


Claudio Bridge I Riff: x 1

eb----------------------------------------------------|
Bb----------------------------------------------------|
Gb----------------------------------------------------|
Db-7-7-7-7-7-7-7-7-7-7-7-7-7-7-7-7-7-7-x-7-x-7-x-7----|	 x 3
Ab-5-5-5-5-5-5-5-5-5-5-5-5-0-0-0-0-0-0-x-0-x-0-x-0----|
Db----------------------------------------------------|
     . . . . .   . . . . .   . . . . .

eb----------------------------------------------------|
Bb----------------------------------------------------|
Gb----------------------------------------------------|
Db----------------------------------------------------|
Ab-8-8-8-8-8-8-7-----7-----7-7-7-7-7-7----------9\\-0-|  x 1
Db-8-8-8-8-8-8---8-0---8-0-7-7-7-7-7-7-10-10-10-------|

eb----------------------------------------------------|
Bb----------------------------------------------------|
Gb----------------------------------------------------|
Db-7-7-7-7-7-7-7-7-7-7-7-7-7-7-7-7-7-7-x-7-x-7-x-7----|	 x 2
Ab-5-5-5-5-5-5-5-5-5-5-5-5-0-0-0-0-0-0-x-0-x-0-x-0----|
Db----------------------------------------------------|
     . . . . .   . . . . .   . . . . .

eb----------------------------------------------------|
Bb----------------------------------------------------|
Gb----------------------------------------------------|
Db----------------------------------------------------|
Ab-8-8-8-8-8-8-7-----7-----7-7-7-7-7-7----------9\\-0-|  x 1
Db-8-8-8-8-8-8---8-0---8-0-7-7-7-7-7-7-10-10-10-------|

Travis Bridge I Lead: x 1

eb----------------------------------------------------|
Bb----------------------------------------------------|
Gb----------------------------------------------------|
Db------------------------------15---14---------------|
Ab-17-15-14-14-17-15-14-14-12-------------12----------|
Db----------------------------------------------------|

eb----------------------------------------------------|
Bb----------------------------------------------------|
Gb----------------------------------------------------|
Db------------------------------17---15---14----------|  x 3
Ab-17-15-14-14-17-15-14-14-12-------------------------|
Db----------------------------------------------------|

eb----------------------------------------------------|
Bb----------------------------------------------------|
Gb----------------------------------------------------|
Db-15---------15-14-15-17-14-------------------16\\---|  x 1
Ab------------------------------------15-15-15--------|
Db----------------------------------------------------|

eb----------------------------------------------------|
Bb----------------------------------------------------|
Gb----------------------------------------------------|
Db------------------------------15---14---------------|
Ab-17-15-14-14-17-15-14-14-12-------------12----------|
Db----------------------------------------------------|

eb----------------------------------------------------|
Bb----------------------------------------------------|
Gb----------------------------------------------------|
Db------------------------------17---15---14----------|  x 2
Ab-17-15-14-14-17-15-14-14-12-------------------------|
Db----------------------------------------------------|

eb----------------------------------------------------|
Bb----------------------------------------------------|
Gb----------------------------------------------------|
Db-15---------15-14-15-17-14-------------------16\\---|  x 1
Ab------------------------------------15-15-15--------|
Db----------------------------------------------------|

Bridge II:


Claudio Bridge II Notes: x 4

eb----------------------------------------------------|
Bb----------------------------------------------------|
Gb----------------------------------------------------|
Db----------------------------------------------------|
Ab----------------------------------------------------|
Db-7-8-7-5-7--7-8-7-5-7--7-8-7-5-7-5-8-7-5-8-7-0------|
   . . . . .  . . . . .  . . . . . . . . . . . .

Travis Bridge II Lead: x 4

eb----------------------------------------------------|
Bb----------------------------------------------------|
Gb----------------------------------------------------|
Db--------8-7---------8-7---------8-7p0---------------|
Ab-7-8-10------7-8-10------7-8-10-------8-7-5-8-7-5---|
Db----------------------------------------------------|


Bridge III:


Claudio Bridge III Chords: x 2

eb----------------------------------------------------|
Bb-5-5-5-5-5-5-5-5-5-5-5-5-6-6-6-6-6-6-6-6-6-6-6-6----|
Gb-5-5-5-5-5-5-5-5-5-5-5-5-7-7-7-7-7-7-7-7-7-7-7-7----|
Db-7-7-7-7-7-7-7-7-7-7-7-7-8-8-8-8-8-8-8-8-8-8-8-8----|
Ab----------------------------------------------------|
Db----------------------------------------------------|


eb----------------------------------------------------|
Bb-6-6-6-6-6-6-6-6-6-6-6-6-5-5-5-5-5-5-5-5-5-5-5-5----|
Gb-7-7-7-7-7-7-7-7-7-7-7-7-7-7-7-7-7-7-7-7-7-7-7-7----|
Db-6-6-6-6-6-6-6-6-6-6-6-6-6-6-6-6-6-6-6-6-6-6-6-6----|
Ab----------------------------------------------------|
Db----------------------------------------------------|

Travis Bridge III Lead: x 1

eb----------------------------------------------------|
Bb------------5---6------------6~-----5---6-----------|
Gb-----5~------------5-----7~------7~---------7-------|
Db-7~------7~-----------------------------------------|
Ab----------------------------------------------------|
Db----------------------------------------------------|

eb-----------------------------8~-----8~--------------|
Bb-----8~-----8---9-----------------------------------|
Gb-10~-----10~-------10----9~------9~-----9~----------|
Db----------------------------------------------------|
Ab----------------------------------------------------|
Db----------------------------------------------------|

eb----------------------------------------------------|
Bb------------5---6------------6~-----5---6-----------|
Gb-----5~------------5-----7~------7~---------7-------|
Db-7~------7~-----------------------------------------|
Ab----------------------------------------------------|
Db----------------------------------------------------|

eb-----------------------------8~---------------------|
Bb-----8~-----8---9-----------------------------------|
Gb-10~-----10~-------10----9~------9~-----------------|
Db----------------------------------------------------|
Ab----------------------------------------------------|
Db----------------------------------------------------|


Verse Build-Up:


Claudio Verse Riff x 1

Claudio Verse Riff End x 1

Travis Verse Lead I x 1

Travis Verse Lead II x 1

Keys Lead: x 1

eb----------------------------------------------------|
Bb----------------------------------------------------|
Gb--------------7---10--9---------------10----12------|
Db-7---9---10-----------------------------------------|
Ab----------------------------------------------------|
Db----------------------------------------------------|

eb----------------------------------------------------|
Bb-10--12--13---15--17v-------------------------------|
Gb----------------------------------------------------|
Db----------------------------------------------------|
Ab----------------------------------------------------|
Db----------------------------------------------------|


4th Chorus:


Claudio Chorus Chords x 1

Travis Chorus Lead I x 1


5th Chorus:


Claudio Chorus Chords x 1

Travis Chorus Lead II x 1


Outro:


Claudio Chorus Chords x 2

Travis Outro Lead: x 1

eb----------------------------------------------------|
Bb----------------------------------------------------|
Gb-------12------------------12----14/----------------|
Db-12h14----14---------12h14----14--------------------|
Ab-------------12-12~---------------------------------|
Db----------------------------------------------------|

eb----------------------------------------------------|
Bb----------------------------------------------------|
Gb----------------------------------------------------|
Db--------------------------------------14------------|
Ab-12-------14-------------15--------------15-14-15---|
Db----------------------------------------------------|

eb----------------------------------------------------|
Bb----------------------------------------------------|
Gb-------12------------------12----------14/----------|
Db-12h14----14---------12h14----14-12-----------------|
Ab-------------12-12~-----------------15--------------|
Db----------------------------------------------------|

eb----------------------------------------------------|
Bb----------------------------------------------------|
Gb----------------------------------------------------|
Db-14-------12----------------------------------------|
Ab-------------------------15-----------14---15\------|
Db----------------------------------------------------|

eb----------------------------------------------------|
Bb----------------------------------------------------|
Gb-------12------------------12----14/----------------|
Db-12h14----14---------12h14----14--------------------|
Ab-------------12-12~---------------------------------|
Db----------------------------------------------------|

eb----------------------------------------------------|
Bb----------------------------------------------------|
Gb----------------------------------------------------|
Db--------------------------------------14------------|
Ab-12-------14-------------15--------------15-14-15---|
Db----------------------------------------------------|

eb----------------------------------------------------|
Bb----------------------------------------------------|
Gb-------12------------------12----------14/----------|
Db-12h14----14---------12h14----14-12-----------------|
Ab-------------12-12~-----------------15--------------|
Db----------------------------------------------------|

eb----------------------------------------------------|
Bb----------------------------------------------------|
Gb----------------------------------------------------|
Db-14-------12----------------------------------------|
Ab-------------------------15-----------14---15-------|
Db----------------------------------------------------|
	Note: The above is essentially a mix and match
	      of Travis' different chorus leads.


Finish:


Claudio Finish Chord:

eb----------|
Bb----------|
Gb----------|
Db----------|
Ab-7~-------|
Db-7~-------|

Travis Finish Chord:

eb----------|
Bb----------|
Gb----------|
Db----------|
Ab-14~------|
Db----------|


Random Outro Guitar:


eb-----------------------------|
Bb-----------------------------|
Gb-----------------------------|
Db-2h3p2-0~--------------------|
Ab---------0~------------------|
Db-----------------------------|

eb-0h1p0~----------------------|
Bb-------3~--------------------|
Gb---------2~------------------|
Db-----------------------------|
Ab-----------------------------|
Db-----------------------------|

eb-12h13p12~-------------------|
Bb----------15~----------------|
Gb-------------14~-------------|
Db-----------------------------|
Ab-----------------------------|
Db-----------------------------|

eb-17p15-17-17b19--------------|
Bb-----------------------------|
Gb-----------------------------|
Db-----------------------------|
Ab-----------------------------|
Db-----------------------------|
	Note: You can lightly hear the above right
	      before the song completely fades out.


______________________________________________________________________________________


Track: "When Skeletons Live"
Tuning: e Flat
v 2.0

This is the second version of this tab.  I reworked my original version after I watched
the live video (provided directly below for your viewing pleasure).  Also, I have
provided a link below to my Youtube video in which I play it.

http://www.youtube.com/watch?v=nmAsbRbn_Jw (Live Video)
http://www.youtube.com/watch?v=ZX-J8ygIu7Q (My Cover)


Intro: (0:08 - 0:19)

Claudio Main Riff: x 1

eb----------------------------------------------------------------------|
Bb----------------------------------------------------------------------|
Gb---------------5-------------------------------5----------------------|
Db---7-6---7-6-----7-6-5/3-0-3-5p0---7-6---7-6-----7-6-5/3-0-3-5p0------|
Ab-5-----5-----5-------------------5-----5-----5------------------------|
Eb----------------------------------------------------------------------|

eb----------------------------------------------------------------------|
Bb----------------------------------------------------------------------|
Gb----------------------------------------------------------------------|
Db-----7p5---7p5---8-10-10p0---------7p5---7p5---8-10-10p0--------------|
Ab---8-----8-----8-8-8--8-p0-------8-----8-----8-8-8--8-p0--------------|
Eb-6-----------------------------6--------------------------------------|

Travis Intro Lead: x 1

eb-5/8~----------------------------10/5~--------------------------------|
Bb----------------------------------------------------------------------|
Gb----------------------------------------------------------------------|
Db----------------------------------------------------------------------|
Ab----------------------------------------------------------------------|
Eb----------------------------------------------------------------------|

eb-8--5h8-5-3~--------------8-5h8-5-3-1-0-------------------------------|
Bb----------------------------------------3-------------------------15--|
Gb----------------------------------------------------------------------|
Db----------------------------------------------------------------------|
Ab----------------------------------------------------------------------|
Eb----------------------------------------------------------------------|


1st Verse: (0:19 - 0:52)

"She wheezes out her dying wish..."


Claudio Main Riff: x 2
Claudio Alt. Main Riff: x 1


The last time through the first verse, Claudio switches up the riff as shown below:

eb----------------------------------------------------------------------|
Bb----------------------------------------------------------------------|
Gb----------------------------------------------5-----------------------|
Db----6h7--6--5--3-0-3p0----7-6-5-3/---7--5h6h7---7p5-------------------|
Ab-55--------------------55---------------------------------------------|
Eb----------------------------------------------------------------------|

eb----------------------------------------------------------------------|
Bb----------------------------------------------------------------------|
Gb----------------------------------------------------------------------|
Db-----7p5---7p5---8-10-10p0---------7p5---7p5---8-10-10p0--------------|
Ab---8-----8-----8-8-8--8-p0-------8-----8-----8-8-8--8-p0--------------|
Eb-6-----------------------------6--------------------------------------|

Travis Verse Lead: x 2

Travis doesn't play a lead over the first bar of the verse

eb----------------------------------------------------------------------|
Bb-6--5--6--5--6------------6--5--6--5--6-------------------------------|
Gb-7--5--7--5--7------------7--5--7--5--7-------------------------------|
Db----------------------------------------------------------------------|
Ab----------------------------------------------------------------------|
Eb----------------------------------------------------------------------|

eb----------------------------------------------------------------------|
Bb----------------------------------------------------------------------|
Gb----------------------------------------------------------------------|
Db-7------------------------7-------------------------------------------|
Ab---10-8-8p7-5---------------10-8-8p7-5--------------------------------|
Eb----------------------------------------------------------------------|

1st Pre-Chorus: (0:52 - 1:03)

"As all time moves, you'll be riddled without..."

Claudio Pre-Chorus 1: x 1

eb-----------------------------------------------------------------------------------------------|
Bb-----------------------------------------------------------------------------------------------|
Gb-----------------------------------------------------------------------------------------------|
Db-----------------------------------------------------------------------------------------------|
Ab-101010-10-10/-----------888--8-8-/888888p7----101010--10-10/-----------888--8-8---------------|
Eb-8-8-8--8--8-/-----------666--6-6--------------8-8-8---8--8-/-----------866--6-6-0-3-5-6-5-3-5-|

Travis Pre-Chorus Lead: x 1

eb------------8b10r8-------------------------------------------8b10r8---------13b15--15r13p10-13~|
Bb---------10--------10~----------8h10p8h10p8~--------------10--------10-------------------------|
Gb-----------------------------10----------------------------------------------------------------|
Db-----------------------------------------------------------------------------------------------|
Ab-----------------------------------------------------------------------------------------------|
Eb-----------------------------------------------------------------------------------------------|

1st Chorus: (1:03 - 1:26)

"When skeletons live inside your closets they convince..."

Claudio Chorus: x 2

eb------------------------------------------------------------------------------------|
Bb------------------------------------------------------------------------------------|
Gb------------------------------------------------------------------------------------|
Db-7777777777777777-------------------------------------------------------------------|
Ab-5555555555555555-88888888-----8-----5555555555555555-7----4----7---10----7----10---|
Eb------------------66666666-5/6---6-0-3333333333333333-5-00-5-00-5-0-8--00-8-00-8--0-|
							  ..   ..   .    ..   ..    .

Travis Chorus Lead: x 2

eb-----------------5-------------------------------5--------------------------------|
Bb-----6-----8-----------8-----6-------6-----8-----------8-----6--------------------|
Gb-7-7---7-7---7-7---7-7---7-7---7--------------------------------------------------|
Db---------------------------------8-8---8-8---8-8---8-8---8-8---8------------------|
Ab----------------------------------------------------------------------------------|
Eb----------------------------------------------------------------------------------|

eb----------------------------------------------------------------------------------|
Bb-----5-----6-----8-----6-----5-------5-----5-----8-----6-----5--------------------|
Gb----------------------------------------------------------------------------------|
Db-5-5---5-5---5-5---5-5---5-5---5-7-7---7-7---7-7---7-7---7-7---7------------------|
Ab----------------------------------------------------------------------------------|
Eb----------------------------------------------------------------------------------|


Post-Chorus: (1:26 - 1:36)


"Oh, I'm sorry this life calls out everything..."

Claudio: x 2

eb---------------------------------------------------|
Bb---------------------------------------------------|
Gb---------------------------------------------------|
Db---7p0-7p0-7p0-7p0---------------------------------|
Ab---------------------------------------------------|
Eb-------------------3-6-5-1-------------------------|

Travis: x 2

eb---------------------------------------------------|
Bb---------------------------------------------------|
Gb---7p0-7p0-7p0-7p0---------------------------------|
Db-------------------5-8-7-3-------------------------|
Ab---------------------------------------------------|
Eb---------------------------------------------------|


2nd Verse: (1:36 - 1:58


"Theres no chance to chime in..."

Claudio Verse Riff x 2

Travis Verse Lead x 1.5
(Travis skips the first part of the lead over the d-flat chord)


2nd Pre-Chorus: (1:58 - 2:09)


"I made my move, with no worry or doubt..."

Claudio Pre-Chorus 2: x 1

eb---------------------------------------------------------------------------------------|
Bb---------------------------------------------------------------------------------------|
Gb---------------------------------------------------------------------------------------|
Db---------------------------------------------------------------------------------------|
Ab-101010-10-10-------888--8-8-/888888p7--101010-10-10------------888--8-8---8-8-5-7-----|
Eb-8-8-8--8--8--------666--6-6------------8-8-8--8--8-------------666--6-6---5-6-3-5-----|

Travis Pre-Chorus Lead: x 1


2nd Chorus: (2:09 - 2:31)


"When skeletons live inside your closets they convince..."

Claudio Chorus: x 1

Travis Chorus Lead: x 2


Bridge: (2:31 - 2:58)


"I'm sorry but the hurts not going away..."

Claudio Bridge: x 1

eb----------------------------------------------------------------------|
Bb----------------------------------------------------------------------|
Gb-----------------------------------9-9-9---------5555/77--------------|
Db-----------7/5---------------------101010--------5555/77--------------|
Ab-888-8-7-8-----8-7-0-5-7p0---888--------------------------------------|
Eb-666-------------------------666--------------------------------------|


eb----------------------------------------------------------------------|
Bb----------------------------------------------------------------------|
Gb----------------------------------------------------------------------|
Db-7777777777777777-99999999-10101010-5555------------------------------|
Ab-5555555555555555-77777777-8-8-8-8--3333------------------------------|
Eb----------------------------------------------------------------------|


eb----------------------------------------------------------------------|
Bb----------------------------------------------------------------------|
Gb-----------------------------------9-9-9---------5555/77--------------|
Db-----------7/5---------------------101010--------5555/77--------------|
Ab-888-8-7-8-----8-7-0-5-7p0---888--------------------------------------|
Eb-666-------------------------666--------------------------------------|

eb----------------------------------------------------------------------|
Bb----------------------------------------------------------------------|
Gb----------------------------------------------------------------------|
Db-7777777777777777-99999999-10101010-5555------------------------------|
Ab-5555555555555555-77777777-8-8-8-8--3333----8~-----5v-------3---------|
Eb--------------------------------------------6~--------6v-5v----3-0----|

Travis Bridge Lead: x 1

eb----------------------------------------------------------------------|
Bb----------------------------------------------------------------------|
Gb-----------------------------777~-------------------------------------|
Db----------------------------------------------------------------------|
Ab----------------------------------------------------------------------|
Eb----------------------------------------------------------------------|

eb----------------------------------------------------------------------|
Bb----------------------------------------------------------------------|
Gb----------------------------------------------------------------------|
Db-------5-7-8-7-5-----------------------5-7-8-7-5----------------------|
Ab-5-7-8-----------8-7-8-7-5-7-8---5-7-8-----------8-7-8-7-5-3----------|
Eb----------------------------------------------------------------------|

eb----------------------------------------------------------------------|
Bb----------------------------------------------------------------------|
Gb-----------------------------777~-------------------------------------|
Db----------------------------------------------------------------------|
Ab----------------------------------------------------------------------|
Eb----------------------------------------------------------------------|

eb----------------------------------------------------------------------|
Bb----------------------------------------------------------------------|
Gb----------------------------------------------------------------------|
Db-------5-7-8-7-5-----------------------5-7-8-7-5----------------------|
Ab-5-7-8-----------8-7-8-7-5-7-8---5-7-8-----------8-7-8-7-5-3----------|
Eb----------------------------------------------------------------------|


3rd Chorus: (2:58 - 3:20)


"When skeletons live inside your closets they convince..."

Claudio Chorus: x 1

Travis Chorus Lead: x 2


Alt. Chorus: (3:20 - 3:42)


"When skeletons live..."

Claudio Alt. Chorus: x 1

eb-----------------------------------------------------------------------------|
Bb-----------------------------------------------------------------------------|
Gb-----------------------------------------------------------------------------|
Db-7777777777777777------------------7777777777777777--------------------------|
Ab-5555555555555555-8888888888888888-5555555555555555-8888888888888888---------|
Eb------------------6666666666666666------------------6666666666666666---------|

eb----------------------------------------------------------------------------------|
Bb----------------------------------------------------------------------------------|
Gb----------------------------------------------------------------------------------|
Db----------------------------------------------------------------------------------|
Ab-5555555555555555-8888888888888888-5555555555555555-7----4----7---10----7----10---|
Eb-3333333333333333-6666666666666666-3333333333333333-5-00-5-00-5-0-8--00-8-00-8--0-|
							..   ..   .    ..   ..    .

Travis Alt. Chorus Lead: x 1

eb-----------------5-------------------------------5--------------------------------|
Bb-----6-----8-----------8-----6-------6-----8-----------8-----6--------------------|
Gb-7-7---7-7---7-7---7-7---7-7---7--------------------------------------------------|
Db---------------------------------8-8---8-8---8-8---8-8---8-8---8------------------|
Ab----------------------------------------------------------------------------------|
Eb----------------------------------------------------------------------------------|

eb-----------------5-------------------------------5--------------------------------|
Bb-----6-----8-----------8-----6-------6-----8-----------8-----6--------------------|
Gb-7-7---7-7---7-7---7-7---7-7---7--------------------------------------------------|
Db---------------------------------8-8---8-8---8-8---8-8---8-8---8------------------|
Ab----------------------------------------------------------------------------------|
Eb----------------------------------------------------------------------------------|

eb----------------------------------------------------------------------------------|
Bb-----5-----6-----8-----6-----5-------5-----6-----8-----6-----5--------------------|
Gb----------------------------------------------------------------------------------|
Db-5-5---5-5---5-5---5-5---5-5---5-8-8---8-8---8-8---8-8---8-8---8------------------|
Ab----------------------------------------------------------------------------------|
Eb----------------------------------------------------------------------------------|

eb----------------------------------------------------------------------------------|
Bb-----5-----6-----8-----6-----5-------5-----5-----8-----6-----5--------------------|
Gb----------------------------------------------------------------------------------|
Db-5-5---5-5---5-5---5-5---5-5---5-7-7---7-7---7-7---7-7---7-7---7------------------|
Ab----------------------------------------------------------------------------------|
Eb----------------------------------------------------------------------------------|


Alt. Chorus Overdub: x 1

eb-------------12-----------------------12-------------------------------------|
Bb-13-14b15-----------------12/14--------------------12/14---------------------|
Gb-----------------------------------------------------------------------------|
Db-----------------------------------------------------------------------------|
Ab-----------------------------------------------------------------------------|
Eb-----------------------------------------------------------------------------|

eb-----------------------------------------------------------------------------|
Bb-------------12/14-----------------------------------------------------------|
Gb-----------------------------------------------------------------------------|
Db-----------------------------------------------------------------------------|
Ab-----------------------------------------------------------------------------|
Eb-----------------------------------------------------------------------------|


Outro: (3:42 - 4:05)


"Oh, I'm sorry this life calls out everything..."

Claudio Outro: x 4

eb---------------------------------------------------|
Bb---------------------------------------------------|
Gb---------------------------------------------------|
Db---7p0-7p0-7p0-7p0---------------------------------|
Ab---------------------------------------------------|
Eb-------------------3-6-5-1-------------------------|

Travis: x 4

eb---------------------------------------------------|
Bb---10--10--10--10----------------------------------|
Gb-----7---7---7---7---------------------------------|
Db-------------------5-8-7-3-------------------------|
Ab---------------------------------------------------|
Eb---------------------------------------------------|

Both guitars end on:

eb---------------------------------------------------|
Bb---------------------------------------------------|
Gb---------------------------------------------------|
Db-7~------------------------------------------------|
Ab-5~------------------------------------------------|
Eb---------------------------------------------------|


__________________________________________________________________


Track: "The Black Rainbow"
Tuning: Standard Tuning
v 2.0

You can find the live video link below, as well as a link
to my cover illustrating the tab as shown here.

My cover: http://www.youtube.com/watch?v=xAFQGUgiOmU
Live video: http://www.youtube.com/watch?v=fswwf2bhgKo


Intro: (0:00 - 0:34)


Claudio Main Theme: x 2
e-----------------------------------------------------------------|
B-0h1-----1-0-----0h3-----1-0-----0h1-----1-0-----0h3-----1-0-----|
G-----2-------2-------2-------2-------2-------2-------2-------2---|
D-------2-------2-------2-------2-------2-------2-------2-------2-|
A-0-------0-------0-------0-------0-------0-------0-------0-------|
E-----------------------------------------------------------------|

e-----------------------------------------------------------------|
B-----------------------------------------------------------------|
G-------0~------------------------------0~------------------------|
D-----3---3---3-3/5~------------------3---3---3-3/5~--------------|
A-0h3-------3~--------------------0h3-------3~--------------------|
E-----------------------------------------------------------------|
	During the slide, make sure that your one finger is still
	holding the 3rd fret on the A string.

Travis Main Theme: x 1

The first time through, do not play anything.  Come in with the lead
on the second time.

e-----------------------------------------------------------------|
B-13-13p12-10-12---------13-13p12-10-12---------------------------|
G----------------9~---------------------9~------------------------|
D-----------------------------------------------------------------|
A-----------------------------------------------------------------|
E-----------------------------------------------------------------|

e-----------------------------------------------------------------|
B-----------------------------------------------------------------|
G-10-10p9-10-9-----------10-10p9-10-9-----------------------------|
D----------------12~--------------------10~-----------------------|
A-----------------------------------------------------------------|
E-----------------------------------------------------------------|


Verse: (0:34-1:41)


"You're all that we needed..."

Claudio Main Theme x 4
Travis Main Theme x 4


Bridge: (1:41-2:15)


"In all we are, are true-ly afraid..."

Claudio Bridge Section: x 2
e--------------------------------------------------------------------------------|
B--------------------------------------------------------------------------------|
G--------------------------------------------------------------------------------|
D-10-10-10-10-9-9-9-9-7-7-7-7-5-5-5-5-3-3-3-3-2-2-2-2-0-0-0-0-0-0-0-0------------|
A-0--0--0--0--0-0-0-0-0-0-0-0-0-0-0-0-0-0-0-0-0-0-0-0-0-0-0-0-0-0-0-0------------|
E--------------------------------------------------------------------------------|

e-------------------------------------------------------------------------------------|
B-------------------------------------------------------------------------------------|
G-------------------------------------------------------------------------------------|
D-10-10-10-10-9-9-9-9-12-12-12-12-9-9-9-9-14-14-14-14-10-10-10-10-15-15-15-15-9-9-9-9-|
A-0--0--0--0--0-0-0-0-0--0--0--0--0-0-0-0-0--0--0--0--0--0--0--0--0--0--0--0--0-0-0-0-|
E-------------------------------------------------------------------------------------|
	On your first time through this, palm mute as heavy as you can.  On the second
	time through play it open, slowly building in intensity to bring you into the
	outro.


Travis Bridge Section: x 3
e-----------------------------------------------------------------|
B-------20-------18-------17-------18p17----17--------------------|
G-17-17----17-17----17-17----17-17-------17----17-----------------|
D-----------------------------------------------------------------|
A-----------------------------------------------------------------|
E-----------------------------------------------------------------|

e----------------------------------20-18-17-----------------------|
B-------20-------18-------17----------------17--------------------|
G-17-17----17-17----17-17----17-17-------------17-----------------|
D-----------------------------------------------------------------|
A-----------------------------------------------------------------|
E-----------------------------------------------------------------|

	On the last time through this riff, finish it as follows:
e-----------------------------------------------------------------|
B-------20-------18-------17-------18p17----17--------------------|
G-17-17----17-17----17-17----17-17-------17----17-----------------|
D-----------------------------------------------------------------|
A-----------------------------------------------------------------|
E-----------------------------------------------------------------|

e-----------------------------------------------------------------|
B-------20-------18-------17-------17~----------------------------|
G-17-17----17-17----17-17----17-17--------------------------------|
D-----------------------------------------------------------------|
A-----------------------------------------------------------------|
E-----------------------------------------------------------------|
	On the CD version, it is very hard to hear what Travis parts
	are; however, in the live videos you can clearly hear what he
	is playing.


Outro: (2:17-6:08)


"It's over, it's over..."

Claudio Outro Chords:
e-----------------------------------------------------------------|
B-----------------------------------------------------------------|
G-----------------------------------------------------------------|
D-1010101010101010101010101010101010101010101010101010101010101010|
A-8-8-8-8-8-8-8-8-8-8-8-8-8-8-8-8-8-8-8-8-8-8-8-8-8-8-8-8-8-8-8-8-|
E-----------------------------------------------------------------|

e-------------------------------------------------------------------------|
B-------------------------------------------------------------------------|
G-------------------------------------------------------------------------|
D-10-10-10-10-9-9-9-9-7-7-7-7-5-5-5-5-3-3-3-3-2-2-2-2-0-0-0-0-------------|
A-0--0--0--0--0-0-0-0-0-0-0-0-0-0-0-0-0-0-0-0-0-0-0-0-0-0-0-0-3/5/3p0-----|
E-------------------------------------------------------------------------|

Alt. Claudio Live Outro Chords:
e-----------------------------------------------------------------|
B-----------------------------------------------------------------|
G-----------------------------------------------------------------|
D-----------------------------------------------------------------|
A-3--3--3--3--3-3-3--3--3--3--3-3-7--7--7--7--7-7-7--7--7--7--7-7-|
E-1--1--1--1--1-1-1--1--1--1--1-1-5--5--5--5--5-5-5--5--5--5--5-5-|
	As shown above, when played live, Claudio simply plays these
	power chords.

Travis Outro Lead 1:
e-15-13-12v------------15-13-12v----------------------------------|
B-----------15-13-15v------------15-13-15v------------------------|
G-----------------------------------------------------------------|
D-----------------------------------------------------------------|
A-----------------------------------------------------------------|
E-----------------------------------------------------------------|

e-----------------------------------------------------------------|
B-13v------------------13v----------------------------------------|
G-----------14v------------------14v------------------------------|
D-----------------------------------------------------------------|
A-----------------------------------------------------------------|
E-----------------------------------------------------------------|

Travis Outro Lead 2: (Starts at 2:52)
e-15-13-12v------------15-13-12v----------------------------------|
B-----------15-13-15v------------15-13-15v------------------------|
G-----------------------------------------------------------------|
D-----------------------------------------------------------------|
A-----------------------------------------------------------------|
E-----------------------------------------------------------------|

e-----------------------------------------------------------------|
B-13v-12v-----------------13v-12v---------------------------------|
G---------14v-14-12-14v-----------14v-14-12-14v-------------------|
D-----------------------------------------------------------------|
A-----------------------------------------------------------------|
E-----------------------------------------------------------------|

Travis Outro Lead 3: (Starts at 4:13)
e-15-13-12v------------15-13-12v----------------------------------|
B-----------15-13-15v------------15-13-15v------------------------|
G-----------------------------------------------------------------|
D-----------------------------------------------------------------|
A-----------------------------------------------------------------|
E-----------------------------------------------------------------|

e------------------------------------------------------------------|
B-13v-12v-----------------13v-12v----------------------------------|
G---------14v-12-10-9v------------14v-12-10-9v---------------------|
D------------------------------------------------------------------|
A------------------------------------------------------------------|
E------------------------------------------------------------------|

Travis Outro Lead 4: (Starts at 4:35)
e-----------------------------------------------------------------|
B-----------------------------------------------------------------|
G-2--5--4--5--4--2~---2--5--4--5--4--2~---------------------------|
D-3--3--3--3--3--3~---3--3--3--3--3--3~---------------------------|
A-----------------------------------------------------------------|
E-----------------------------------------------------------------|

e-15-13-12v-13p12----12v----15-13-12v-----------------------------|
B-----------------15------------------15-13-15v-------------------|
G-----------------------------------------------------------------|
D-----------------------------------------------------------------|
A-----------------------------------------------------------------|
E-----------------------------------------------------------------|

e-----------------------------------------------------------------|
B-13--12----------------------------------------------------------|
G---------14---14-12-14-------------------------------------------|
D------------------------15--14--12---12-10-12--------------------|
A-----------------------------------------------------------------|
E-----------------------------------------------------------------|

e-15-13-12v-------------------------------------------------------|
B-----------15-13-12v---------------------------------------------|
G---------------------14v-12--------------------------------------|
D----------------------------15-14-12-10--------------------------|
A-----------------------------------------------------------------|
E-----------------------------------------------------------------|

e-----------------------------------------------------------------|
B-----------------------------------------------------------------|
G-2--5--4--5--4--2~---2--5--4--5--4--2~---------------------------|
D-3--3--3--3--3--3~---3--3--3--3--3--3~---------------------------|
A-----------------------------------------------------------------|
E-----------------------------------------------------------------|

e-15-13-12v-----------15-13-12v----|
B-----------15-13-15---------------|
G----------------------------------|
D----------------------------------|
A----------------------------------|
E----------------------------------|

Travis Outro Solo: (Starts at 5:25)
e-20-19-17-----------------------------------------------------------------------------|
B----------20-18-17--------------------17-18----20----18----17-------------------------|
G-------------------19-17/19v-------17-------17----17----17----19-17----17-------------|
D-----------------------------17h19----------------------------------19----17h19-19v---|
A--------------------------------------------------------------------------------------|
E--------------------------------------------------------------------------------------|

e--------------------------------------------------------------20-19-17----------------|
B-17----18----20----18-----------------------18p17----20p17-------------20-18-17-18p17-|
G----17----17----17----17-19-17----19--------------17-------17-------------------------|
D-------------------------------19----17h19v-------------------------------------------|
A--------------------------------------------------------------------------------------|
E--------------------------------------------------------------------------------------|

e-----------------------------------------------------------------|
B-----------------------17v------------17------------17v----------|
G-17--17-17-16-17v-------------17v--------16-14v-----------17v----|
D-----------------------------------------------------------------|
A-----------------------------------------------------------------|
E-----------------------------------------------------------------|

Claudio has the Theremin going for most of the outro, but there isn't a solid melody to it.
Since it's mostly improvisation, it has been left out of this tab.


__________________________________________________________________________________________


Track: "Chamberlain"
Tuning: E Flat Tuning

First demo track off of the new record.


Drum Intro: (0:00 - 0:17)


First Verse: (0:17 - 0:46)


"Worlds are burning now..."

Play the following riff 8 times
eb-----------------------------------------------------------------|
Bb-----------------------------------------------------------------|
Gb-----------------------------------------------------------------|
Db-----------------------------------------------------------------|
Ab---------7-------8-------3---5-----------------------------------|
Eb-00000000--000000--000000--00-00---------------------------------|
   ........  ......  ......  .. ..


First Pre-Chorus: (0:46 - 1:00)


"So you can take to the grave..."

Play the following riff 2 times
eb-----------------------------------------------------------------|
Bb-----------------------------------------------------------------|
Gb-----------------------------------------------------------------|
Db-----------------------------------------------------------------|
Ab-8~---------------------8~---------------------------------------|
Eb-6~----5-3-0-2v---3-5---6~----5-3-0-2v---3-3---------------------|


First Chorus: (1:00 - 1:28)


"The end is now starting..."

eb-----------------------------------------------------------------|
Bb-----------------------------------------------------------------|
Gb-----------------------------------------------------------------|
Db---------------------------------5~--5-7-8-----------------------|
Ab----------/10-8~-0----------6-5~-3~--3-5-6-12-10-8-5~--3~--------|
Eb-/10/-3-3~---------10-8-6-3~-----3~--3-5-6-10-8--6-3~--1~--------|

eb-----------------------------------------------------------------|
Bb-----------------------------------------------------------------|
Gb-----------------------------------------------------------------|
Db---------------------------------5~--5-7-8-----------------------|
Ab----------/10-8~-0----------6-5~-3~--3-5-6-12-10-8-5~------------|
Eb-/10/-3-3~---------10-8-6-3~-----3~--3-5-6-10-8--6-3~------------|


Second Verse: (1:28 - 1:42)


"Spill on through killing fields..."

Play the verse riff 4 times


Second Pre-Chorus: (1:42 - 1:57)


"So you can take to the grave..."

eb-----------------------------------------------------------------|
Bb-----------------------------------------------------------------|
Gb-----------------------------------------------------------------|
Db-----------------------------------------------------------------|
Ab-8~---------------------8~---------------------------------------|
Eb-6~----5-3-0-2v---3-5---6~----5-3-0-2v---3-3---------------------|

eb-----------------------------------------------------------------|
Bb-----------------------------------------------------------------|
Gb-----------------------------------------------------------------|
Db-----------------------------------------------------------------|
Ab-8~---------------------8~----------------3---3------------------|
Eb-6~----5-3-0-2v---3-5---6~----5-3-0-3-5-6---6--------------------|


Second Chorus: (1:57 - 2:25)


"The end is now starting..."

Play the following riff 2 times
eb-----------------------------------------------------------------|
Bb-----------------------------------------------------------------|
Gb-----------------------------------------------------------------|
Db---------------------------------5~--5-7-8-----------------------|
Ab----------/10-8~-0----------6-5~-3~--3-5-6-12-10-8-5~--3~--------|
Eb-/10/-3-3~---------10-8-6-3~-----3~--3-5-6-10-8--6-3~--1~--------|


Bridge: (2:25 - 2:54)


"There is no room for..."

Play the following riff 2 times
eb-----------------------------------------------------------------|
Bb-----------------------------------------------------------------|
Gb-----------------------------------------------------------------|
Db-99999990-77777770-55555550-5550---------------------------------|
Ab-77777770-55555550-33333330-2220-5550----------------------------|
Eb---------------------------------3320----------------------------|
   ....................................

"Is there a way to say..."

Now play the following riff 2 times
eb-----------------------------------------------------------------|
Bb-----------------------------------------------------------------|
Gb-----------------------------------------------------------------|
Db-----------------------------------------------------------------|
Ab-7~---7-5-7-/10-9-/3~---5-3-/10-9--------------------------------|
Eb-----------------------------------------------------------------|

Additionally, over the above section, another guitar is playing
this in the background:
eb-----------------------------------------------------------------|
Bb-------3v------3v------3v----------------------------------------|
Gb-----4-------4-------4-------------------------------------------|
Db-----------------------------------------------------------------|
Ab-----------------------------------------------------------------|
Eb-----------------------------------------------------------------|


Third Pre-Chorus: (2:54 - 3:08)


"So you can take to the grave..."

Same as Second Pre-Chorus


Third Chorus: (3:08 - 3:37)

"The end is now starting..."

Same as Second Chorus


Outro: (3:37 - 4:02)


Same as First Chorus

Vocal lead transposed for guitar
eb-----------------------------------------------------------------|
Bb----15-13--------------------------------------------------------|
Gb-12-------14-12-15-14-10-----------------------------------------|
Db-------------------------12h13-12-10-12----12h13-12-10-12--------|
Ab----------------------------------------10----------------10-----|
Eb-----------------------------------------------------------------|

eb-----------------------------------------------------------------|
Bb----15-13--------------------------------------------------------|
Gb-12-------14-12-15-14-10-----------------------------------------|
Db-------------------------12h13-12-10-12----12h13-12~-------------|
Ab----------------------------------------10-----------------------|
Eb-----------------------------------------------------------------|


Drum Outro: (4:02 - 4:20)


eb-----------------------------------------------------------------|
Bb-----------------------------------------------------------------|
Gb-----------------------------------------------------------------|
Db-----------------------------------------------------------------|
Ab-55555555555555555555--------------------------------------------|
Eb-33333333333333333333--------------------------------------------|


______________________________________________________________________


Track: "The Lost Shepherd"
Tuning: Drop D Tuning

Second demo drack off of this record.  Somewhat heavy.


Intro:

Claudio:

e-----------------------------------------------------------------|
B-----------------------------------------------------------------|
G-----------------------------------------------------------------|
D-----------------------------------------------------------------|
A-----------------------------------------------078878-788878878--|
D-00000-000000000-00000-000000000-00000-00000000000000-000000000--|
  ..... ......... ..... ......... ..... ............... .........

Intro Synth Lead:

(This lead plays throughout the verses as well)
e-5~--------------6~--------------8~--------------10~-------------|
B-----------------------------------------------------------------|
G-----------------------------------------------------------------|
D-----------------------------------------------------------------|
A-----------------------------------------------------------------|
D-----------------------------------------------------------------|
On that last note of the synth part, slowly slide from the 10 back
to the original note (5) as it loops.


1st Verse:


"Heaven find, me a place at the window..."

Claudio:

Play Twice
e-----------------------------------------------------------------|
B-----------------------------------------------------------------|
G-----------------------------------------------------------------|
D-----------------------------------------------------------------|
A-78878-788788878-78878-788788878-78878-788878878-78878-788878878-|
D-00000-000000000-00000-000000000-00000-000000000-00000-000000000-|
  ..... ......... ..... ......... ..... ......... ..... .........

Travis:

Play twice
e---5~--------------1p0~------------8~--------------5~------------|
B--3~--------------3~--------------6~--------------3~-------------|
G-2~--------------2~--------------7~--------------2~--------------|
D-----------------------------------------------------------------|
A-----------------------------------------------------------------|
D-----------------------------------------------------------------|


1st Pre-Chorus:


"I've done all of these things for you..."

Both Guitars: x 1

e-----------------------------------------------------------------|
B-----------------------------------------------------------------|
G-----------------------------------------------------------------|
D-----------------------------------------------------------------|
A-6666-0-6666-0-4-0-4-6--6666-0-6666-0-4-0-4-6--------------------|
D-6666-0-6666-0-4-0-4-6--6666-0-6666-0-4-0-4-6--------------------|

e-----------------------------------------------------------------|
B-----------------------------------------------------------------|
G-----------------------------------------------------------------|
D-----------------------------------------------------------------|
A-6666-0-6666-0-4-0-4-6--6666-0-6666-0-4-0-4-6--------------------|
D-6666-0-6666-0-4-0-4-6--6666-0-6666-0-4-0-4-6-0------------------|


1st Build Up:


"Help us, help us survive..."

Both Guitars: x 1

e-----------------------------------------------------------------|
B-----------------------------------------------------------------|
G-----------------------------------------------------------------|
D-----------------------------------------------------------------|
A---4-4---4---4-4---4-4---4----4-4---4---4-4---4-4----------------|
D-5-----5---5-----5-----5----5-----5---5-----5-----5p0------------|


Chorus:


"Now wallow in sick and disease..."

Claudio:

Play 3 times
e----------------------------------------------------------------------|
B----------------------------------------------------------------------|
G----------------------------------------------------------------------|
D-----------------5-5-5-5-5-5-5-5--------------------------------------|
A-1-1-1-1-1-1-1-1-3-3-3-3-3-3-3-3-5-5-5-5-5-5-5-5-5-------0-3-1p0------|
D-1-1-1-1-1-1-1-1-----------------5-5-5-5-5-5-5-5-5-0-3-5--------------|


Last time
e----------------------------------------------------------------------|
B----------------------------------------------------------------------|
G----------------------------------------------------------------------|
D-----------------5-5-5-5-5-5-5-5--------------------------------------|
A-1-1-1-1-1-1-1-1-3-3-3-3-3-3-3-3-5-5-5-5-5-5-5-5-5-5-5-5-5-5-5-5------|
D-1-1-1-1-1-1-1-1-----------------5-5-5-5-5-5-5-5-5-5-5-5-5-5-5-5------|

Travis:

Play 2 times
e-------------------------10---8---6---5-------------------------------|
B-----------------------8----8---8---8---6-----------------------------|
G----------------------------------------------------------------------|
D-8--7----8/10--8--7---------------------------------------------------|
A------8---------------------------------------------------------------|
D----------------------------------------------------------------------|

e---------------------------------------------------------10-8-6-5-6-5-----|
B-------------------------------------------------------8--------------8-6-|
G-8-8-8-8-8-8-8-8-1010101010101010-12-12-12-12-12-12-12--------------------|
D-x-x-x-x-x-x-x-x-x-x-x-x-x-x-x-x--x--x--x--x--x--x--x---------------------|
A-6-6-6-6-6-6-6-6-8-8-8-8-8-8-8-8--10-10-10-10-10-10-10--------------------|
D--------------------------------------------------------------------------|

e-----------------------------------------------------------------|
B-----------------------------------------------------------------|
G-8-8-8-8-8-8-8-8-7-7-7-7-7-7-7-7---------------------------------|
D-x-x-x-x-x-x-x-x-x-x-x-x-x-x-x-x---------------------------------|
A-6-6-6-6-6-6-6-6-5-5-5-5-5-5-5-5---------------------------------|
D---------------------------------5-5-5-5-5-5-5-5-5-5-5-5-5-5-5-5-|


Second Verse: x 1


"Here's my blood, cause you will accept no other..."

Same as First Verse


Second Pre-Chorus: x 1


"I'm so sick of these things I do..."

Same as First Pre-Chorus


Second Build-Up: x 1


"Help us, help us survive..."

Same as First Build-Up


Second Chorus:


"Now wallow in sick and disease..."

Claudio: Same as in First Chorus

Travis:

e-------------------------10---8---6---5-------------------------------|
B-----------------------8----8---8---8---6-----------------------------|
G----------------------------------------------------------------------|
D-8--7----8/10--8--7------------------------8--7-----8/10--8--7--------|
A------8------------------------------------------8--------------8/10~-|
D----------------------------------------------------------------------|

e-------------------------------------------------------------10-8-6-5-6-5-----|
B-----------------------------------------------------------8--------------8-6-|
G-8-8-8-8-8-8-8-8-1010101010101010-12-12-12-12-12-12-12-12---------------------|
D-x-x-x-x-x-x-x-x-x-x-x-x-x-x-x-x--x--x--x--x--x--x--x--x----------------------|
A-6-6-6-6-6-6-6-6-8-8-8-8-8-8-8-8--10-10-10-10-10-10-10-10---------------------|
D------------------------------------------------------------------------------|

e-----------------------------------------------------------------|
B-----------------------------------------------------------------|
G-8-8-8-8-8-8-8-8-7-7-7-7-7-7-7-7---------------------------------|
D-x-x-x-x-x-x-x-x-x-x-x-x-x-x-x-x---------------------------------|
A-6-6-6-6-6-6-6-6-5-5-5-5-5-5-5-5---------------------------------|
D---------------------------------5-5-5-5-5-5-5-5-5-5-5-5-5-5-5-5-|


Bridge:


"You did all you could..."

Claudio: x 2

e-----------------------------------------------------------------|
B-----------------------------------------------------------------|
G-----------------------------------------------------------------|
D-----------------------------------------------------------------|
A-333333333333333-333333333333333-333333333333333-333333333333333-|
D-----------------------------------------------------------------|

Travis: x 2

e-----------15v------------11v------------15v-11/13---------------|
B-13h15-13v------13h15-13v------13h15-13v-----------15v-----------|
G-----------------------------------------------------------------|
D-----------------------------------------------------------------|
A-----------------------------------------------------------------|
D-----------------------------------------------------------------|


Third Build-Up: x 1


"All..."

Same as First Build-Up


Third Chorus:


"Wallow through sick and disease..."

Same as First Chorus


Fourth Chorus:


"Wallow in sick and disease..."

Same as First Chorus


Outro:


Claudio: x 7.5 (Song fades out halfway through last bar)

e----------------------------------------------------------------------|
B----------------------------------------------------------------------|
G----------------------------------------------------------------------|
D-----------------5-5-5-5-5-5-5-5--------------------------------------|
A-1-1-1-1-1-1-1-1-3-3-3-3-3-3-3-3-5-5-5-5-5-5-5-5-5-------0-3-1p0------|
D-1-1-1-1-1-1-1-1-----------------5-5-5-5-5-5-5-5-5-0-3-5--------------|

Travis:

e-11p10-11p10-13b15-13-11-10-11p10----10--------------------------|
B----------------------------------13----13p11-13-11h13-11--------|
G-----------------------------------------------------------------|
D-----------------------------------------------------------------|
A-----------------------------------------------------------------|
D-----------------------------------------------------------------|

e-11p10-11p10-13b15-15-13-11-15b17-17-15-13-18b20-18-18-18-17-15-------------|
B----------------------------------------------------------------18-16-15-16-|
G----------------------------------------------------------------------------|
D----------------------------------------------------------------------------|
A----------------------------------------------------------------------------|
D----------------------------------------------------------------------------|

e-10h11p10----10h11p10----10h11p10----10v------------------------------------|
B----------13----------13----------13-----13-11-10-11-10h11p10---------------|
G--------------------------------------------------------------12-12-12-12---|
D----------------------------------------------------------------------------|
A----------------------------------------------------------------------------|
D----------------------------------------------------------------------------|

e-18p15-----18p15-----18p15-----18p15------18b20-18-17-15----15--------------|
B------18p15-----18p15-----18p15-----18p15----------------18----18-----------|
G----------------------------------------------------------------------------|
D----------------------------------------------------------------------------|
A----------------------------------------------------------------------------|
D----------------------------------------------------------------------------|

e-13b15-13-11-10-11p10----10--------------------------------------|
B----------------------13----13p11-13-11h13-11--------------------|
G-----------------------------------------------------------------|
D-----------------------------------------------------------------|
A-----------------------------------------------------------------|
D-----------------------------------------------------------------|

e-13b15-13-11-10-11p10----10-------------------------------------------------------------|
B----------------------13----13-11-13-13/15-15-15-15-15-15-15-15/16-16-16-16-16/18-18-18-|
G----------------------------------------------------------------------------------------|
D----------------------------------------------------------------------------------------|
A----------------------------------------------------------------------------------------|
D----------------------------------------------------------------------------------------|

e-18p15--20p15--22p15--20p15--18p15--20p15--22p15--20p15----------|
B------15-----15-----15-----15-----15-----15-----15-----15--------|
G-----------------------------------------------------------------|
D-----------------------------------------------------------------|
A-----------------------------------------------------------------|
D-----------------------------------------------------------------|

e-18p15--20p15--22p15--20p15--18p15--18p15--18p15--18p15----------|
B------15-----15-----15-----15-----15-----15-----15-----15--------|
G-----------------------------------------------------------------|
D-----------------------------------------------------------------|
A-----------------------------------------------------------------|
D-----------------------------------------------------------------|

e-18p15--20p15--22p15--20p15--18p15--20p15--22p15--18p15----------|
B------15-----15-----15-----15-----15-----15-----15-----15--------|
G-----------------------------------------------------------------|
D-----------------------------------------------------------------|
A-----------------------------------------------------------------|
D-----------------------------------------------------------------|


________________________________________________________________________________


Track: "Hush"
Tuning: Standard

There is some random guitar noise over the verse, but there is no need to
try and transcribe that.


Drum Intro: (0:00 - 0:12)


First Verse: (0:12 - 0:35)


"Is there something I can do..."


Claudio & Travis do not play guitar over the Verse.  Only bass and drums are heard.


First Pre-Chorus: (0:35 - 0:48)


"They're going to press you..."


Both Guitars x 1

e-----------------------------------------------------------------|
B-----------------------------------------------------------------|
G-----------------------------------------------------------------|
D-----------------------------------------------------------------|
A-----------------------------------------------------------------|
E-2~------------4-5~-------7~-------------------------------------|

e-----------------------------------------------------------------|
B-----------------------------------------------------------------|
G-----------------------------------------------------------------|
D-----------------------------------------------------------------|
A-----------------------------------------------------------------|
E-2222222222222-4-55555555-77777777-------------------------------|


First Chorus: (0:48 - 1:12)


"Cause there's just no one in this world..."


Claudio Chorus Riff x 3

e-----------------------------------------------------------------|
B-----------------------------------------------------------------|
G-----------------------------------------------------------------|
D-----------------------------------------------------------------|
A-----------------------------------4-7p4-------------------------|
E-5-55555555555555-4-444444-7-7-4-7-------------------------------|

Claudio Chorus Riff End x 1

e-----------------------------------------------------------------|
B-----------------------------------------------------------------|
G-----------------------------------------------------------------|
D-----------------------------------------------------------------|
A--------------------7---7-6-------------4-7p4--------------------|
E-5-55555555555550-4---4-----7-4-7-0-4-7--------------------------|


Travis Chorus Lead x 1

e-----------------------------------------------------------------|
B-----------------------------------------------------------------|
G-8b9r8-----------9-----------------------------------------------|
D-------9-----7h9---9---6h7p6-4-----------------------------------|
A-------------------------------7-4---------4-7p4-----------------|
E-----------------------------------7-7-4-7-----------------------|

e-----------------------------------------------------------------|
B-----------------------------------------------------------------|
G-8b9r8-----------9-----------------------------------------------|
D-------9-----7h9---9---6-4-----4---------------------------------|
A---------------------------7-6---7-6-4---------4-7p4-------------|
E---------------------------------------7-7-4-7-------------------|

e-----------------------------------------------------------------|
B-----------------------------------------------------------------|
G-8b9r8-----------9-----------------------------------------------|
D-------9-----7h9---9---6h7p6-4-----------------------------------|
A-------------------------------7-4---------4-7p4-----------------|
E-----------------------------------7-7-4-7-----------------------|

e-----------------------------------------------------------------|
B-----------------------------------------------------------------|
G-8b9r8-----------9-----------------------------------------------|
D-------9-----7h9---9---------------------------------------------|
A-------------------------7---7-6-------------4-7p4---------------|
E-----------------------4---4-----7-4-7-0-4-7---------------------|


First Post-Chorus: (1:12 - 1:24)


"Hush..."


Claudio Post-Chorus Riff x 1

e---------------------------------------------------------------------|
B---------------------------------------------------------------------|
G---------------------------------------------------------------------|
D---------------------------------------------------------------------|
A---------------------------------------------------------------------|
E-2222222222222222-4444444444444444-5555555555555555-77777777999999/--|


Travis Post-Chorus Lead x 1

e---------------------------------------------------------------------|
B---------------------------------------------------------------------|
G---------------------------------------------------------------------|
D---------------------------------------------------------------------|
A-----------4-7p4------------4-7p4------------4-7p4------------4-7p4--|
E-------4-7--------------4-7--------------4-7--------------4-7--------|
Note: There seems to be delay on this part, so those pulloffs ring
      a few times.


Second Verse: (1:24 - 1:47)


"Disturbed and ponder these tainted dreams..."


Same as 1st Verse


Second Pre-Chorus: (1:47 - 1:59)


Same as 1st Pre-Chorus


Second Chorus: (1:59 - 2:23)


Same as 1st Chorus


Second Post-Chorus: (2:23 - 2:35)


Same as 1st Post-Chorus


Bridge (2:35 - 3:00)


"No matter what you tell yourselves ladies and gentlemen..."

Both Guitars x 1

e------------------------------------------------------------------|
B------------------------------------------------------------------|
G------------------------------------------------------------------|
D-6-6-6-6-----9-9-------------7-7-------------6-6-7-7-7-7-7-7-7-7--|
A-4-4-4-4-9-9-7-7-7-7-7-7-9-9-5-5-7-7-7-7-9-9-4-4-5-5-5-5-5-5-5-5--|
E---------7-7-----5-5-5-5-7-7-----5-5-5-5-7-7----------------------|
   ...............................................................

e-----------------------------------------------------------------|
B-----------------------------------------------------------------|
G-----------------------------------------------------------------|
D-7-7-7-7---------6-6-6-6-----------------------------------------|
A-5-5-5-5-7-7-7-7-4-4-4-4-4-4-4-4-2~---------------2~-------------|
E---------5-5-5-5---------2-2-2-2-0~---------------0~-------------|
   ...............................


Third Chorus: (3:00 - 3:24)


Same as 1st Verse except do not play any guitar over the Vocal break.


Fourth Chorus: (3:24 - 3:48)


Same as 1st Chorus


Additional Chorus Lead x 1

Pick each note rapidly 16 times
e-12-------12-----------------------------------------------------|
B------------------9--------7-------------------------------------|
G-----------------------------------------------------------------|
D-----------------------------------------------------------------|
A-----------------------------------------------------------------|
E-----------------------------------------------------------------|

e-----------------------------------------------------------------|
B-----------------------------------------------------------------|
G-9--------9-------8--------4-------------------------------------|
D-----------------------------------------------------------------|
A-----------------------------------------------------------------|
E-----------------------------------------------------------------|

e-12-------12------11---------------------------------------------|
B---------------------------12------------------------------------|
G-----------------------------------------------------------------|
D-----------------------------------------------------------------|
A-----------------------------------------------------------------|
E-----------------------------------------------------------------|

e-12-------12------11-------12------------------------------------|
B-----------------------------------------------------------------|
G-----------------------------------------------------------------|
D-----------------------------------------------------------------|
A-----------------------------------------------------------------|
E-----------------------------------------------------------------|


Third Post-Chorus: (3:48 - 4:00)


Same as 1st Post-Chorus


Additional Post-Chorus Lead x 1

Rapidly pick this note the whole way through
e-12--------------------------------------------------------------|
B-----------------------------------------------------------------|
G-----------------------------------------------------------------|
D-----------------------------------------------------------------|
A-----------------------------------------------------------------|
E-----------------------------------------------------------------|


_____________________________________________________________________________


THE END!
comments
We did not receive enough feedback on this tab! Please rate:
print report bad tab
1 2 3 4 5
I want to post or [tab]
guest
You may want to rate the tab now too:
select rating
Please do not post tabs as comments. Select "correction" instead!