Oops, an error
Loading. Please wait.

A Message Bass Tab

2,935 views 6 this week
no commentswrite comment
1 2 3 4 5
accurate
x 1
Autoscroll
+/-
esc
set tempo
stop
Contributor
WARNING: You are trying to view
                                    content from Ultimate-Guitar.com
                                    in an unauthorized application,
                                    which is prohibited.

                                    Please use an official Ultimate
                                    Guitar Tabs application for iPhone,
                                    iPad or Android to access legitimate
                                    chords, guitar, bass, and drum tabs
                                    from Ultimate-Guitar.com database.

                                    Type "ultimate guitar tabs" in Apple
                                    App Store's or Android Market's
                                    search to find the application.
#----------------------------------PLEASE NOTE---------------------------------#
#This file is the author's own work and represents their interpretation of the #
#song. You may only use this file for private study, scholarship, or research. #
#------------------------------------------------------------------------------#

A MESSAGE (Bassline)
As recorded by Coldplay

Transcribed by gorrki1
	



Gtr I (E A D G) - 'Bass'
Gtr II (E A D G B E) - 'Strings'
Gtr III (E A D G B E) - 'Piano'

 Verse 1        Verse 2
  Q=117
 4/4
  Gtr I
  Wx16           Wx20
|-------------||---------||
|-------------||---------||
|-------------||---------||
|-------------||---------||


 Verse 2
  E  E E E E E E  E     E  E E E E E E  E
|--------------------|---------------------|
|--------------------|---------------------|
|--------------------|---------------------|
|-2--2-2-2-2-2-2--2--|--2--2-2-2-2-2-2--2--|
|
| Gtr II
| W                    +W
|-6------------------|-(6)-----------------|
|-7------------------|-(7)-----------------|
|-8------------------|-(8)-----------------|
|--------------------|---------------------|
|--------------------|---------------------|
|--------------------|---------------------|
|
| Gtr III
| Q.     H       +E     Q.     H       +E
|--------------------|---------------------|
|-4------4-------(4)-|--4------4-------(4)-|
|-3------3-------(3)-|--3------3-------(3)-|
|-4------4-------(4)-|--4------4-------(4)-|
|--------------------|---------------------|
|--------------------|---------------------|


  E  E E E E E E  E     E  E E  E E E E E
|--------------------|--------------------|
|--------------------|--------------------|
|-4--4-4-4-4-4-4--4--|--------------------|
|--------------------|--4--4-4--4-4-4-4-4-|
|
| W                     W
|-4------------------|--4-----------------|
|-6------------------|--4-----------------|
|-6------------------|--5-----------------|
|--------------------|--------------------|
|--------------------|--------------------|
|--------------------|--------------------|
|
| Q.     H       +E     Q.      Q   E E E
|--------------------|--------------------|
|--------------------|--1-------1---------|
|-1------1-------(1)-|--1-------1---------|
|-3------3-------(3)-|-13------13---1-3-1-|
|-4------4-------(4)-|--------------------|
|--------------------|--------------------|


  E  E E E E E E  E     E  E E E E E E  E
|--------------------|---------------------|
|--------------------|---------------------|
|--------------------|---------------------|
|-2--2-2-2-2-2-2--2--|--2--2-2-2-2-2-2--2--|
|
| W                    +W
|-6------------------|-(6)-----------------|
|-7------------------|-(7)-----------------|
|-8------------------|-(8)-----------------|
|--------------------|---------------------|
|--------------------|---------------------|
|--------------------|---------------------|
|
| Q.     H       +E     Q.     H       +E
|--------------------|---------------------|
|-4------4-------(4)-|--4------4-------(4)-|
|-3------3-------(3)-|--3------3-------(3)-|
|-4------4-------(4)-|--4------4-------(4)-|
|--------------------|---------------------|
|--------------------|---------------------|


  E  E E E E E E  E     E  E E  E E E E E
|--------------------|--------------------|
|--------------------|--------------------|
|-4--4-4-4-4-4-4--4--|--------------------|
|--------------------|--4--4-4--4-4-4-4-4-|
|
| W                     W
|-4------------------|--4-----------------|
|-6------------------|--4-----------------|
|-6------------------|--5-----------------|
|--------------------|--------------------|
|--------------------|--------------------|
|--------------------|--------------------|
|
| Q.     H       +E     Q.      Q   E E E
|--------------------|--------------------|
|--------------------|--1-------1---------|
|-1------1-------(1)-|--1-------1---------|
|-3------3-------(3)-|-13------13---1-3-1-|
|-4------4-------(4)-|--------------------|
|--------------------|--------------------|


  E  E E E E E E  E     E  E E E E E E  E
|--------------------|---------------------|
|--------------------|---------------------|
|--------------------|---------------------|
|-2--2-2-2-2-2-2--2--|--2--2-2-2-2-2-2--2--|
|
| W                    +W
|-6------------------|-(6)-----------------|
|-7------------------|-(7)-----------------|
|-8------------------|-(8)-----------------|
|--------------------|---------------------|
|--------------------|---------------------|
|--------------------|---------------------|
|
| Q.     H       +E     Q.     H       +E
|--------------------|---------------------|
|-4------4-------(4)-|--4------4-------(4)-|
|-3------3-------(3)-|--3------3-------(3)-|
|-4------4-------(4)-|--4------4-------(4)-|
|--------------------|---------------------|
|--------------------|---------------------|


  E  E E E E E E  E     E  E E  E E E E   E
|--------------------|-----------------------|
|--------------------|-----------------------|
|-4--4-4-4-4-4-4--4--|-----------------------|
|--------------------|--4--4-4--4-4-4-4---4--|
|
| W                     W
|-4------------------|--4--------------------|
|-6------------------|--4--------------------|
|-6------------------|--5--------------------|
|--------------------|-----------------------|
|--------------------|-----------------------|
|--------------------|-----------------------|
|
| Q.     H       +E     Q.      H        +E
|--------------------|-----------------------|
|--------------------|--1-------1--------(1)-|
|-1------1-------(1)-|--1-------1--------(1)-|
|-3------3-------(3)-|-13------13-------(13)-|
|-4------4-------(4)-|-----------------------|
|--------------------|-----------------------|


  E  E E E  E E E E    E  E E E  E E E E
|-------------------|--------------------|
|-------------------|--------------------|
|-------------------|--4--4-4-4--4-4-4-4-|
|-2--2-2-2--2-2-2-2-|--------------------|
|
| W                    W
|-2-----------------|--9-----------------|
|-2-----------------|--9-----------------|
|-3-----------------|-10-----------------|
|-------------------|--------------------|
|-------------------|--------------------|
|-------------------|--------------------|
|
| Q.     Q.     Q      Q.     Q.     Q
|-------------------|--------------------|
|-4------4------4---|--------------------|
|-3------3------3---|--1------1------1---|
|-4------4------4---|--3------3------3---|
|-------------------|--4------4------4---|
|-------------------|--------------------|


   E  E E  E  E E  E E    E  E E  E  E E  E E
|----------------------|----------------------||
|----------------------|----------------------||
|----------------------|----------------------||
|--4--4-4--4--4-4--4-4-|--4--4-4--4--4-4--4-4-||
|
|  W                     +W
|--4-------------------|-(4)------------------||
|--4-------------------|-(4)------------------||
|--5-------------------|-(5)------------------||
|----------------------|----------------------||
|----------------------|----------------------||
|----------------------|----------------------||
|
|  Q.      Q.      Q      Q.      Q.      Q
|----------------------|----------------------||
|--1-------1-------1---|--1-------1-------1---||
|--1-------1-------1---|--1-------1-------1---||
|-13------13------13---|-13------13------13---||
|----------------------|----------------------||
|----------------------|----------------------||


 Verse 3
  Gtr III
  Wx3          H.      E E   W          Wx2          Q.   H    +E
|------------|-------------|----------|------------|----------------|
|------------|-------------|----------|------------|----------------|
|------------|-------------|----------|------------|----------------|
|------------|-------------|----------|------------|----------------|
|------------|---------8-9-|-8--------|------------|------9----(9)--|
|------------|-------------|----------|------------|----------------|


  Gtr I
  W          W           W                 W
|----------|----------|-----------------|-----------------|
|----------|----------|-----------------|-----------------|
|-4--------|----------|-----------------|-----------------|
|----------|-1--------|--4--------------|--4--------------|
|
| Gtr III
| W          W           Q.    Q.    Q     Q.    Q.    Q
|----------|----------|-----------------|-----------------|
|----------|-1--------|--1-----1-----1--|--1-----1-----1--|
|-1--------|-1--------|--1-----1-----1--|--1-----1-----1--|
|-3--------|-3--------|-13----13----13--|-13----13----13--|
|-4--------|----------|-----------------|-----------------|
|----------|----------|-----------------|-----------------|


  W              W               W                 W
|--------------|--------------|-----------------|-----------------|
|--------------|--------------|-----------------|-----------------|
|--------------|-4------------|-----------------|-----------------|
|-2------------|--------------|--4--------------|--4--------------|
|
| Q.   Q.   Q    Q.   Q.   Q     Q.    Q.    Q     Q.    Q.    Q
|--------------|--------------|-----------------|-----------------|
|-4----4----4--|--------------|--1-----1-----1--|--1-----1-----1--|
|-3----3----3--|-1----1----1--|--1-----1-----1--|--1-----1-----1--|
|-4----4----4--|-3----3----3--|-13----13----13--|-13----13----13--|
|--------------|-4----4----4--|-----------------|-----------------|
|--------------|--------------|-----------------|-----------------|


  W              W               W                 W
|--------------|--------------|-----------------|-----------------||
|--------------|--------------|-----------------|-----------------||
|--------------|-4------------|-----------------|-----------------||
|-2------------|--------------|--4--------------|--4--------------||
|
| Q.   Q.   Q    Q.   Q.   Q     Q.    Q.    Q     Q.    Q.    Q
|--------------|--------------|-----------------|-----------------||
|-4----4----4--|--------------|--1-----1-----1--|--1-----1-----1--||
|-3----3----3--|-1----1----1--|--1-----1-----1--|--1-----1-----1--||
|-4----4----4--|-3----3----3--|-13----13----13--|-13----13----13--||
|--------------|-4----4----4--|-----------------|-----------------||
|--------------|--------------|-----------------|-----------------||


 Refrain 2
  E  E E E E E E  E     E  E E E E E E  E
|--------------------|---------------------|
|--------------------|---------------------|
|--------------------|---------------------|
|-2--2-2-2-2-2-2--2--|--2--2-2-2-2-2-2--2--|
|
| Gtr II
| W                    +W
|-6------------------|-(6)-----------------|
|-7------------------|-(7)-----------------|
|-8------------------|-(8)-----------------|
|--------------------|---------------------|
|--------------------|---------------------|
|--------------------|---------------------|
|
| Gtr III
| Q.     H       +E     Q.     H       +E
|--------------------|---------------------|
|-4------4-------(4)-|--4------4-------(4)-|
|-3------3-------(3)-|--3------3-------(3)-|
|-4------4-------(4)-|--4------4-------(4)-|
|--------------------|---------------------|
|--------------------|---------------------|


  E  E E E E E E  E     E  E E  E E E E E
|--------------------|--------------------|
|--------------------|--------------------|
|-4--4-4-4-4-4-4--4--|--------------------|
|--------------------|--4--4-4--4-4-4-4-4-|
|
| W                     W
|-4------------------|--4-----------------|
|-6------------------|--4-----------------|
|-6------------------|--5-----------------|
|--------------------|--------------------|
|--------------------|--------------------|
|--------------------|--------------------|
|
| Q.     H       +E     Q.      Q   E E E
|--------------------|--------------------|
|--------------------|--1-------1---------|
|-1------1-------(1)-|--1-------1---------|
|-3------3-------(3)-|-13------13---1-3-1-|
|-4------4-------(4)-|--------------------|
|--------------------|--------------------|


  E  E E E E E E  E     E  E E E E E E  E
|--------------------|---------------------|
|--------------------|---------------------|
|--------------------|---------------------|
|-2--2-2-2-2-2-2--2--|--2--2-2-2-2-2-2--2--|
|
| W                    +W
|-6------------------|-(6)-----------------|
|-7------------------|-(7)-----------------|
|-8------------------|-(8)-----------------|
|--------------------|---------------------|
|--------------------|---------------------|
|--------------------|---------------------|
|
| Q.     H       +E     Q.     H       +E
|--------------------|---------------------|
|-4------4-------(4)-|--4------4-------(4)-|
|-3------3-------(3)-|--3------3-------(3)-|
|-4------4-------(4)-|--4------4-------(4)-|
|--------------------|---------------------|
|--------------------|---------------------|


  E  E E E E E E  E     E  E E  E E E E E
|--------------------|--------------------|
|--------------------|--------------------|
|-4--4-4-4-4-4-4--4--|--------------------|
|--------------------|--4--4-4--4-4-4-4-4-|
|
| W                     W
|-4------------------|--4-----------------|
|-6------------------|--4-----------------|
|-6------------------|--5-----------------|
|--------------------|--------------------|
|--------------------|--------------------|
|--------------------|--------------------|
|
| Q.     H       +E     Q.      Q   E E E
|--------------------|--------------------|
|--------------------|--1-------1---------|
|-1------1-------(1)-|--1-------1---------|
|-3------3-------(3)-|-13------13---1-3-1-|
|-4------4-------(4)-|--------------------|
|--------------------|--------------------|


  E  E E E E E E  E     E  E E E E E E  E
|--------------------|---------------------|
|--------------------|---------------------|
|--------------------|---------------------|
|-2--2-2-2-2-2-2--2--|--2--2-2-2-2-2-2--2--|
|
| W                    +W
|-6------------------|-(6)-----------------|
|-7------------------|-(7)-----------------|
|-8------------------|-(8)-----------------|
|--------------------|---------------------|
|--------------------|---------------------|
|--------------------|---------------------|
|
| Q.     H       +E     Q.     H       +E
|--------------------|---------------------|
|-4------4-------(4)-|--4------4-------(4)-|
|-3------3-------(3)-|--3------3-------(3)-|
|-4------4-------(4)-|--4------4-------(4)-|
|--------------------|---------------------|
|--------------------|---------------------|


  E  E E E E E E  E     E  E E  E E E E   E
|--------------------|-----------------------|
|--------------------|-----------------------|
|-4--4-4-4-4-4-4--4--|-----------------------|
|--------------------|--4--4-4--4-4-4-4---4--|
|
| W                     W
|-4------------------|--4--------------------|
|-6------------------|--4--------------------|
|-6------------------|--5--------------------|
|--------------------|-----------------------|
|--------------------|-----------------------|
|--------------------|-----------------------|
|
| Q.     H       +E     Q.      H        +E
|--------------------|-----------------------|
|--------------------|--1-------1--------(1)-|
|-1------1-------(1)-|--1-------1--------(1)-|
|-3------3-------(3)-|-13------13-------(13)-|
|-4------4-------(4)-|-----------------------|
|--------------------|-----------------------|


  E  E E E  E E E E    E  E E E  E E E E
|-------------------|--------------------|
|-------------------|--------------------|
|-------------------|--4--4-4-4--4-4-4-4-|
|-2--2-2-2--2-2-2-2-|--------------------|
|
| W                    W
|-2-----------------|--9-----------------|
|-2-----------------|--9-----------------|
|-3-----------------|-10-----------------|
|-------------------|--------------------|
|-------------------|--------------------|
|-------------------|--------------------|
|
| Q.     Q.     Q      Q.     Q.     Q
|-------------------|--------------------|
|-4------4------4---|--------------------|
|-3------3------3---|--1------1------1---|
|-4------4------4---|--3------3------3---|
|-------------------|--4------4------4---|
|-------------------|--------------------|


   E  E E  E  E E  E E    E  E E  E  E E  E E
|----------------------|----------------------|
|----------------------|----------------------|
|----------------------|----------------------|
|--4--4-4--4--4-4--4-4-|--4--4-4--4--4-4--4-4-|
|
|  W                     +W
|--4-------------------|-(4)------------------|
|--4-------------------|-(4)------------------|
|--5-------------------|-(5)------------------|
|----------------------|----------------------|
|----------------------|----------------------|
|----------------------|----------------------|
|
|  Q.      Q.      Q      Q.      Q.      Q
|----------------------|----------------------|
|--1-------1-------1---|--1-------1-------1---|
|--1-------1-------1---|--1-------1-------1---|
|-13------13------13---|-13------13------13---|
|----------------------|----------------------|
|----------------------|----------------------|


  E  E E E  E E E E    E  E E E  E E E E
|-------------------|--------------------|
|-------------------|--------------------|
|-------------------|--4--4-4-4--4-4-4-4-|
|-2--2-2-2--2-2-2-2-|--------------------|
|
| W                    W
|-2-----------------|--9-----------------|
|-2-----------------|--9-----------------|
|-3-----------------|-10-----------------|
|-------------------|--------------------|
|-------------------|--------------------|
|-------------------|--------------------|
|
| Q.     Q.     Q      Q.     Q.     Q
|-------------------|--------------------|
|-4------4------4---|--------------------|
|-3------3------3---|--1------1------1---|
|-4------4------4---|--3------3------3---|
|-------------------|--4------4------4---|
|-------------------|--------------------|


   E  E E  E  E E  E E    E  E E  E  E E  E E
|----------------------|----------------------||
|----------------------|----------------------||
|----------------------|----------------------||
|--4--4-4--4--4-4--4-4-|--4--4-4--4--4-4--4-4-||
|
|  W                     +W
|--4-------------------|-(4)------------------||
|--4-------------------|-(4)------------------||
|--5-------------------|-(5)------------------||
|----------------------|----------------------||
|----------------------|----------------------||
|----------------------|----------------------||
|
|  Q.      Q.      Q      Q.      Q.      Q
|----------------------|----------------------||
|--1-------1-------1---|--1-------1-------1---||
|--1-------1-------1---|--1-------1-------1---||
|-13------13------13---|-13------13------13---||
|----------------------|----------------------||
|----------------------|----------------------||


 Bridge
  E  E E E E E E  E     E  E E E E E E  E
|--------------------|---------------------|
|--------------------|---------------------|
|--------------------|---------------------|
|-2--2-2-2-2-2-2--2--|--2--2-2-2-2-2-2--2--|
|
| W                    +W
|-6------------------|-(6)-----------------|
|-7------------------|-(7)-----------------|
|-8------------------|-(8)-----------------|
|--------------------|---------------------|
|--------------------|---------------------|
|--------------------|---------------------|
|
| Q.     H       +E     Q.     H       +E
|--------------------|---------------------|
|-4------4-------(4)-|--4------4-------(4)-|
|-3------3-------(3)-|--3------3-------(3)-|
|-4------4-------(4)-|--4------4-------(4)-|
|--------------------|---------------------|
|--------------------|---------------------|


  E  E E E E E E  E     E  E E  E E E E E
|--------------------|--------------------|
|--------------------|--------------------|
|-4--4-4-4-4-4-4--4--|--------------------|
|--------------------|--4--4-4--4-4-4-4-4-|
|
| W                     W
|-4------------------|--4-----------------|
|-6------------------|--4-----------------|
|-6------------------|--5-----------------|
|--------------------|--------------------|
|--------------------|--------------------|
|--------------------|--------------------|
|
| Q.     H       +E     Q.      Q   E E E
|--------------------|--------------------|
|--------------------|--1-------1---------|
|-1------1-------(1)-|--1-------1---------|
|-3------3-------(3)-|-13------13---1-3-1-|
|-4------4-------(4)-|--------------------|
|--------------------|--------------------|


  E  E E E E E E  E     E  E E E E E E  E
|--------------------|---------------------|
|--------------------|---------------------|
|--------------------|---------------------|
|-2--2-2-2-2-2-2--2--|--2--2-2-2-2-2-2--2--|
|
| W                    +W
|-6------------------|-(6)-----------------|
|-7------------------|-(7)-----------------|
|-8------------------|-(8)-----------------|
|--------------------|---------------------|
|--------------------|---------------------|
|--------------------|---------------------|
|
| Q.     H       +E     Q.     H       +E
|--------------------|---------------------|
|-4------4-------(4)-|--4------4-------(4)-|
|-3------3-------(3)-|--3------3-------(3)-|
|-4------4-------(4)-|--4------4-------(4)-|
|--------------------|---------------------|
|--------------------|---------------------|


  E  E E E E E E  E     E  E E  E E E E E
|--------------------|--------------------|
|--------------------|--------------------|
|-4--4-4-4-4-4-4--4--|--------------------|
|--------------------|--4--4-4--4-4-4-4-4-|
|
| W                     W
|-4------------------|--4-----------------|
|-6------------------|--4-----------------|
|-6------------------|--5-----------------|
|--------------------|--------------------|
|--------------------|--------------------|
|--------------------|--------------------|
|
| Q.     H       +E     Q.      Q   E E E
|--------------------|--------------------|
|--------------------|--1-------1---------|
|-1------1-------(1)-|--1-------1---------|
|-3------3-------(3)-|-13------13---1-3-1-|
|-4------4-------(4)-|--------------------|
|--------------------|--------------------|


  E  E E E E E E  E     E  E E E E E E  E
|--------------------|---------------------|
|--------------------|---------------------|
|--------------------|---------------------|
|-2--2-2-2-2-2-2--2--|--2--2-2-2-2-2-2--2--|
|
| W                    +W
|-6------------------|-(6)-----------------|
|-7------------------|-(7)-----------------|
|-8------------------|-(8)-----------------|
|--------------------|---------------------|
|--------------------|---------------------|
|--------------------|---------------------|
|
| Q.     H       +E     Q.     H       +E
|--------------------|---------------------|
|-4------4-------(4)-|--4------4-------(4)-|
|-3------3-------(3)-|--3------3-------(3)-|
|-4------4-------(4)-|--4------4-------(4)-|
|--------------------|---------------------|
|--------------------|---------------------|


  E  E E E E E E  E     E  E E  E E E E   E
|--------------------|-----------------------|
|--------------------|-----------------------|
|-4--4-4-4-4-4-4--4--|-----------------------|
|--------------------|--4--4-4--4-4-4-4---4--|
|
| W                     W
|-4------------------|--4--------------------|
|-6------------------|--4--------------------|
|-6------------------|--5--------------------|
|--------------------|-----------------------|
|--------------------|-----------------------|
|--------------------|-----------------------|
|
| Q.     H       +E     Q.      H        +E
|--------------------|-----------------------|
|--------------------|--1-------1--------(1)-|
|-1------1-------(1)-|--1-------1--------(1)-|
|-3------3-------(3)-|-13------13-------(13)-|
|-4------4-------(4)-|-----------------------|
|--------------------|-----------------------|


  E  E E E E E E  E     E  E E E E E E  E
|--------------------|---------------------|
|--------------------|---------------------|
|--------------------|---------------------|
|-2--2-2-2-2-2-2--2--|--2--2-2-2-2-2-2--2--|
|
| W                    +W
|-6------------------|-(6)-----------------|
|-7------------------|-(7)-----------------|
|-8------------------|-(8)-----------------|
|--------------------|---------------------|
|--------------------|---------------------|
|--------------------|---------------------|
|
| Q.     H       +E     Q.     H       +E
|--------------------|---------------------|
|--------------------|---------------------|
|--------------------|---------------------|
|--------4-------(4)-|---------4-------(4)-|
|--------------------|---------------------|
|--------------------|---------------------|


  E  E E E E E E  E    E E E E E E E E
|--------------------|-----------------|
|--------------------|-----------------|
|-4--4-4-4-4-4-4--4--|-----------------|
|--------------------|-4-4-4-4-4-4-4-4-|
|
| W                    W
|-4------------------|-4---------------|
|-6------------------|-4---------------|
|-6------------------|-5---------------|
|--------------------|-----------------|
|--------------------|-----------------|
|--------------------|-----------------|
|
| Q.     H       +E    H       E E E E
|--------------------|-----------------|
|--------------------|-----------------|
|--------------------|-----------------|
|--------3-------(3)-|-----------1-3-1-|
|--------------------|-----------------|
|--------------------|-----------------|


  E  E E E E E E  E     E  E E E E E E  E
|--------------------|---------------------|
|--------------------|---------------------|
|--------------------|---------------------|
|-2--2-2-2-2-2-2--2--|--2--2-2-2-2-2-2--2--|
|
| W                    +W
|-6------------------|-(6)-----------------|
|-7------------------|-(7)-----------------|
|-8------------------|-(8)-----------------|
|--------------------|---------------------|
|--------------------|---------------------|
|--------------------|---------------------|
|
| Q.     H       +E     Q.     H       +E
|--------------------|---------------------|
|--------------------|---------------------|
|--------------------|---------------------|
|--------4-------(4)-|---------4-------(4)-|
|--------------------|---------------------|
|--------------------|---------------------|


  E  E E E E E E  E    E E E E E E E E
|--------------------|-----------------|
|--------------------|-----------------|
|-4--4-4-4-4-4-4--4--|-----------------|
|--------------------|-4-4-4-4-4-4-4-4-|
|
| W                    W
|-4------------------|-4---------------|
|-6------------------|-4---------------|
|-6------------------|-5---------------|
|--------------------|-----------------|
|--------------------|-----------------|
|--------------------|-----------------|
|
| Q.     H       +E    H       E E E E
|--------------------|-----------------|
|--------------------|-----------------|
|--------------------|-----------------|
|--------3-------(3)-|-----------1-3-1-|
|--------------------|-----------------|
|--------------------|-----------------|


  E  E E E  E E E E    E  E E E  E E E E
|-------------------|--------------------|
|-------------------|--------------------|
|-------------------|--4--4-4-4--4-4-4-4-|
|-2--2-2-2--2-2-2-2-|--------------------|
|
| W                    W
|-2-----------------|--9-----------------|
|-2-----------------|--9-----------------|
|-3-----------------|-10-----------------|
|-------------------|--------------------|
|-------------------|--------------------|
|-------------------|--------------------|
|
| Q.     Q.     Q      Q.     Q.     Q
|-------------------|--------------------|
|-4------4------4---|--------------------|
|-3------3------3---|--1------1------1---|
|-4------4------4---|--3------3------3---|
|-------------------|--4------4------4---|
|-------------------|--------------------|


   E  E E  E  E E  E E    E  E E  E  E E  E E
|----------------------|----------------------|
|----------------------|----------------------|
|----------------------|----------------------|
|--4--4-4--4--4-4--4-4-|--4--4-4--4--4-4--4-4-|
|
|  W                     +W
|--4-------------------|-(4)------------------|
|--4-------------------|-(4)------------------|
|--5-------------------|-(5)------------------|
|----------------------|----------------------|
|----------------------|----------------------|
|----------------------|----------------------|
|
|  Q.      Q.      Q      Q.      Q.      Q
|----------------------|----------------------|
|--1-------1-------1---|--1-------1-------1---|
|--1-------1-------1---|--1-------1-------1---|
|-13------13------13---|-13------13------13---|
|----------------------|----------------------|
|----------------------|----------------------|


  E  E E E  E E E E    E  E E E  E E E E
|-------------------|--------------------|
|-------------------|--------------------|
|-------------------|--4--4-4-4--4-4-4-4-|
|-2--2-2-2--2-2-2-2-|--------------------|
|
| W                    W
|-2-----------------|--9-----------------|
|-2-----------------|--9-----------------|
|-3-----------------|-10-----------------|
|-------------------|--------------------|
|-------------------|--------------------|
|-------------------|--------------------|
|
| Q.     Q.     Q      Q.     Q.     Q
|-------------------|--------------------|
|-4------4------4---|--------------------|
|-3------3------3---|--1------1------1---|
|-4------4------4---|--3------3------3---|
|-------------------|--4------4------4---|
|-------------------|--------------------|


   E  E E  E  E E  E E    E  E E  E  E E  E E
|----------------------|----------------------||
|----------------------|----------------------||
|----------------------|----------------------||
|--4--4-4--4--4-4--4-4-|--4--4-4--4--4-4--4-4-||
|
|  W                     +W
|--4-------------------|-(4)------------------||
|--4-------------------|-(4)------------------||
|--5-------------------|-(5)------------------||
|----------------------|----------------------||
|----------------------|----------------------||
|----------------------|----------------------||
|
|  Q.      Q.      Q      Q.      Q.      Q
|----------------------|----------------------||
|--1-------1-------1---|--1-------1-------1---||
|--1-------1-------1---|--1-------1-------1---||
|-13------13------13---|-13------13------13---||
|----------------------|----------------------||
|----------------------|----------------------||


 Outro
  W          W           W          W
|----------|----------|-----------|------|
|----------|----------|-----------|------|
|----------|-4--------|-----------|-1----|
|-2--------|----------|--4--------|------|
|
| Gtr III
| W          W           W          W
|----------|----------|-----------|-1----|
|-2--------|----------|--1--------|-2----|
|-3--------|-1--------|--1--------|-3----|
|-4--------|-3--------|-13--------|------|
|----------|-4--------|-----------|------|
|----------|----------|-----------|------|


  W          W           W          W
|----------|----------|-----------|------|
|----------|----------|-----------|------|
|----------|-4--------|-----------|-1----|
|-2--------|----------|--4--------|------|
|
| W          W           W          W
|----------|----------|-----------|-1----|
|-2--------|----------|--1--------|-2----|
|-3--------|-1--------|--1--------|-3----|
|-4--------|-3--------|-13--------|------|
|----------|-4--------|-----------|------|
|----------|----------|-----------|------|


  W          W           W          W
|----------|----------|-----------|------|
|----------|----------|-----------|------|
|----------|-4--------|-----------|-1----|
|-2--------|----------|--4--------|------|
|
| W          W           W          W
|----------|----------|-----------|-1----|
|-2--------|----------|--1--------|-2----|
|-3--------|-1--------|--1--------|-3----|
|-4--------|-3--------|-13--------|------|
|----------|-4--------|-----------|------|
|----------|----------|-----------|------|


  W          W           W          W
|----------|----------|-----------|------|
|----------|----------|-----------|------|
|----------|-4--------|-----------|-4----|
|-2--------|----------|--4--------|------|
|
| W          W           W          W
|----------|----------|-----------|------|
|-2--------|----------|--1--------|------|
|-3--------|-1--------|--1--------|-1----|
|-4--------|-3--------|-13--------|-3----|
|----------|-4--------|-----------|-4----|
|----------|----------|-----------|------|


  +W           +W           +W
|------------|------------|--------*|
|------------|------------|--------*|
|-(4)--------|-(4)--------|-(4)----*|
|------------|------------|--------*|
|
| +W           +W           +W
|------------|------------|--------*|
|------------|------------|--------*|
|-(1)--------|-(1)--------|-(1)----*|
|-(3)--------|-(3)--------|-(3)----*|
|-(4)--------|-(4)--------|-(4)----*|
|------------|------------|--------*|



Duration Legend
---------------
W - whole; H - half; Q - quarter; E - 8th; S - 16th; T - 32nd; X - 64th; a - acciaccatura
+ - note tied to previous; . - note dotted; .. - note double dotted
Uncapitalized letters represent notes that are staccato (1/2 duration)
Irregular groupings are notated above the duration line
Duration letters will always appear directly above the note/fret number it represents the
duration for.  Duration letters with no fret number below them represent rests.  Multi-
bar rests are notated in the form Wxn, where n is the number of bars to rest for.  Low
melody durations appear below the staff

Tablature Legend
----------------
 h   - hammer-on
 p   - pull-off
 b   - bend
 pb  - pre-bend
 r   - bend release (if no number after the r, then release immediately)
 /\  - slide into or out of (from/to "nowhere")
 s   - legato slide
 S   - shift slide
 - natural harmonic
[n]  - artificial harmonic
n(n) - tapped harmonic
 ~   - vibrato
 tr  - trill
 T   - tap
 TP  - trem. picking
 PM  - palm muting
\n/  - tremolo bar dip; n = amount to dip
 \n  - tremolo bar down
 n/  - tremolo bar up
/n\  - tremolo bar inverted dip
 =   - hold bend; also acts as connecting device for hammers/pulls
 <> - volume swell (louder/softer)
 x   - on rhythm slash represents muted slash
 o   - on rhythm slash represents single note slash

Misc Legend
-----------
 |  - bar
||  - double bar
||o - repeat start
o|| - repeat end
*|  - double bar (ending)
 :  - bar (freetime)
 $  - Segno
 &  - Coda
Tempo markers -  = BPM(8/16=s8/s16), where s8 = swing 8ths, s16 = swing 16ths

comments
We did not receive enough feedback on this tab! Please rate:
1 2 3 4 5
I want to post or [tab]
guest
You may want to rate the tab now too:
select rating
Please do not post tabs as comments. Select "correction" instead!