Oops, an error
Loading. Please wait.

A Rush Of Blood To The Head Tab

ver2
ver2

Solo

Whole song

Interactive

More versions @911Tabs.com
3,479 views 3 this week
no commentswrite comment
1 2 3 4 5
not so good
x 4
Autoscroll
+/-
esc
set tempo
stop
Contributor
Difficulty
novice
Hey! There's an official Ultimate Guitar app which is ideal
for learning songs when you're away from computer. Get the app
WARNING: You are trying to view
                                    content from Ultimate-Guitar.com
                                    in an unauthorized application,
                                    which is prohibited.

                                    Please use an official Ultimate
                                    Guitar Tabs application for iPhone,
                                    iPad or Android to access legitimate
                                    chords, guitar, bass, and drum tabs
                                    from Ultimate-Guitar.com database.

                                    Type "ultimate guitar tabs" in Apple
                                    App Store's or Android Market's
                                    search to find the application.
I did this by ear, but I think it's mostly correct. It's the guitar that's

not doing chords, the one that comes in a little into the song. Here's A

Rush of Blood to the Head by Coldplay!
xxxxxxxxxxxxxxxxxxxxxxxxxxxxxxxxxxxxxxxxxxxxxxxxxxxxxxxxxxxxxxxxxxxxxxxxxxxxxxx


He said I'm gonna buy this place and burn it down
I'm gonna put it six feet underground
He said I'm gonna buy this place and watch it fall
Stand here beside me baby in the crumbling walls
Oh, I'm gonna buy this place and start a fire
Stand here until I fill all your heart's desires
Because I'm gonna buy this place and see it burn
Do back the things it did to you in return

     Ah...    Ah...    Ah...    Ah...
-----------------------------------------------------------------|
--------------------------------------------------17\13----------|
-----12/14----14\12----12/14----14\12----------------------------|
-----------------------------------------------------------------|
-----------------------------------------------------------------|
-----------------------------------------------------------------|

He said I'm gonna buy a gun and start a war
If you can tell me something worth fighting for
Oh, and I'm gonna buy this place, that's what I said
Blame it upon a rush of blood to the head

    Honey! All the movements you're starting to make
------------------------------------------------------|
------------------------------------------------------|
------------------------------------------------------|
--7/14-14-14-14-14-14-14-14-14-14-14-14-14-14-14-14---|
------------------------------------------------------|
------------------------------------------------------|

                  See me crumble and fall on my face
------------------------------------------------------|
------------------------------------------------------|
------------------------------------------------------|
---16-16-16-16-16-16-16-16-16-16-16-16-16-16-16-16----|
------------------------------------------------------|
------------------------------------------------------|

              And I know the mistakes that I've made
------------------------------------------------------|
------------------------------------------------------|
------------------------------------------------------|
---15-15-15-15-15-15-15-15-15-15-15-15-15-15-15-15----|
------------------------------------------------------|
------------------------------------------------------|

                See it all disappear without trace
------------------------------------------------------|
------------------------------------------------------|
------------------------------------------------------|
---16-16-16-16-16-16-16-16-15-15-15-15-15-15-15-15----|
------------------------------------------------------|
------------------------------------------------------|

                 And they call as they beckon you on
------------------------------------------------------|
------------------------------------------------------|
------------------------------------------------------|
---15-15-15-15-15-15-15-15-15-15-15-15-15-15-15-15----|
------------------------------------------------------|
------------------------------------------------------|

                 They said start as you mean to go on
------------------------------------------------------|
------------------------------------------------------|
------------------------------------------------------|
---16-16-16-16-16-16-16-16-15-15-15-15-15-15-15-15\9--|
------------------------------------------------------|
------------------------------------------------------|

Start as you mean to go on

He said I'm gonna buy this place and watch it go

Stand here beside me baby watch the orange glow
-------------------------------------------------------------|
-------------------------------------------------------------|
-------------------------------------------------------------|
-------------------------------------------------------------|
-------------------------------------------------------------|
--------------------------------------------------------9/11-|

Some'll laugh and some just sit and cry
-------------------------------------------|
--------------------------------------x----|
-------------------------------------------|
-------------------------------------------|
-------------------------------------------|
-------------------------------------------|

You just sit down there and you wonder why

      So I'm gonna buy this place and start a war
------------------------------------------------------|
------------------------------------------------------|
------------------------------------------------------|
------------------------------------------------------|
-----5/7-----------------------------------12/10------|
------------------------------------------------------|

      If you can tell me something worth fighting for
------------------------------------------------------|
------------------------------------------------------|
------------------------------------------------------|
------------------------------------------------------|
-----6/8-----------------------------------12/10------|
------------------------------------------------------|

       And I'm gonna buy this place, that's what I said
-----------------------------------------------------------|
-----------------------------------------------------------|
-----------------------------------------------------------|
-----------------------------------------------------------|
-----5/7----------------------------------------12/10------|
-----------------------------------------------------------|

       Blame it upon a rush of blood to the head       Oh to the head
------------------------------------------------------------------------|
------------------------------------------------------------------------|
------------------------------------------------------------------------|
------------------------------------------------------------------------|
-----6/8---------------------------------12/10---------------11\8-------|
------------------------------------------------------------------------|

    Honey! All the movements you're starting to make
------------------------------------------------------|
------------------------------------------------------|
------------------------------------------------------|
--7/14-14-14-14-14-14-14-14-14-14-14-14-14-14-14-14---|
------------------------------------------------------|
------------------------------------------------------|

                  See me crumble and fall on my face
------------------------------------------------------|
------------------------------------------------------|
------------------------------------------------------|
---16-16-16-16-16-16-16-16-16-16-16-16-16-16-16-16----|
------------------------------------------------------|
------------------------------------------------------|

              And I know the mistakes that I've made
------------------------------------------------------|
------------------------------------------------------|
------------------------------------------------------|
---15-15-15-15-15-15-15-15-15-15-15-15-15-15-15-15----|
------------------------------------------------------|
------------------------------------------------------|

                See it all disappear without trace
------------------------------------------------------|
------------------------------------------------------|
------------------------------------------------------|
---16-16-16-16-16-16-16-16-15-15-15-15-15-15-15-15----|
------------------------------------------------------|
------------------------------------------------------|

                 And they call as they beckon you on
------------------------------------------------------|
------------------------------------------------------|
------------------------------------------------------|
---15-15-15-15-15-15-15-15-15-15-15-15-15-15-15-15----|
------------------------------------------------------|
------------------------------------------------------|

                 They say start as you mean to go on
------------------------------------------------------|
------------------------------------------------------|
------------------------------------------------------|
---16-16-16-16-16-16-16-16-15-15-15-15-15-15-15-15\9--|
------------------------------------------------------|
------------------------------------------------------|

As you mean to go on
As you mean to go on
------------------------------------------------------|
------------------------------------------------------|
------------------------------------------------------|
------------------------------------------------------|
---------14-14-14-14-16-16-16-16-16-16-16-16-16-------|
------------------------------------------------------|

repeat until end of singing then play four more times and end with

------------------------------|
------------------------------|
------------------------------|
------------------------------|
--------14~-------------------|
------------------------------|
comments
print report bad tab
I want to post or [tab]
guest
You may want to rate the tab now too:
select rating
Please do not post tabs as comments. Select "correction" instead!