Oops, an error
Loading. Please wait.

Amsterdam Tab

ver3
ver3

Whole song

More versions @911Tabs.com
3,122 views 3 this week
no commentswrite comment
1 2 3 4 5
please rate
Autoscroll
+/-
esc
set tempo
stop
Contributor
Hey! There's an official Ultimate Guitar app which is ideal
for learning songs when you're away from computer. Get the app
WARNING: You are trying to view
                                    content from Ultimate-Guitar.com
                                    in an unauthorized application,
                                    which is prohibited.

                                    Please use an official Ultimate
                                    Guitar Tabs application for iPhone,
                                    iPad or Android to access legitimate
                                    chords, guitar, bass, and drum tabs
                                    from Ultimate-Guitar.com database.

                                    Type "ultimate guitar tabs" in Apple
                                    App Store's or Android Market's
                                    search to find the application.
#----------------------------------PLEASE NOTE---------------------------------#
#This file is the author's own work and represents their interpretation of the #
#song. You may only use this file for private study, scholarship, or research. #
#------------------------------------------------------------------------------#

AMSTERDAM
As recorded by Coldplay
(From the 2002 Album A RUSH OF BLOOD TO THE HEAD)

Transcribed by Christian Vásquez
        



Gtr I (E A D G B E) - 'Seashore'
Gtr II (E A D G B E) - 'Piano 1'
Gtr III (E A D G) - 'Piano 2'
Gtr IV (E A D G B E) - 'Overdriven'

  Moderate  Q=72
 4/4
  Gtr I
  W          W          W
|----------|----------|-----------------------|
|----------|----------|-----------------------|
|----------|----------|-----------------------|
|-1--------|-1--------|-1---------------------|
|-1--------|-1--------|-1---------------------|
|----------|----------|-----------------------|
|
| Gtr II
| W          W          Q   Q      Q   Q
|----------|----------|-3---3------1---1------|
|----------|----------|-4---4------3---3------|
|----------|----------|-3---3------3---3------|
|----------|----------|-----------------------|
|----------|----------|-----------------------|
|----------|----------|-----------------------|
|
| Gtr III
| W          W          Q.    S  S Q.    S  S
|----------|----------|-8-----8-10-7-----7-10-|
|----------|----------|-1----------8----------|
|----------|----------|-----------------------|
|----------|----------|-----------------------|
                        H          H


  Gtr II
  Q.     E +H        Q   Q      Q   Q        Q.     E +H
|-1----------------|-3---3------1---1------|-1--------------------|
|-1------4-(4)-----|-4---4------3---3------|-1------4-(4)---------|
|-3--2---5-(5)---0-|-3---3------3---3------|-3--2---5-(5)---------|
|------3-6-(6)-----|-----------------------|------3-6-(6)---------|
|------------------|-----------------------|----------------------|
|------------------|-----------------------|----------------------|
| E  E E E +Q.   E                           E  E E E +H
|
| Gtr III
| H         H        Q.    S  S Q.    S  S   H         E   E  E E
|-----------1------|-8-----8-10-7-----7-10-|-----------8--12-10-8-|
|-3----------------|-1----------8----------|-3---------6----------|
|------------------|-----------------------|----------------------|
|------------------|-----------------------|----------------------|
                     H          H            H         H


  Q   Q      Q   Q        Q.     E +H
|-3---3------1---1------|-1----------------|
|-4---4------3---3------|-1------4-(4)-----|
|-3---3------3---3------|-3--2---5-(5)---0-|
|-----------------------|------3-6-(6)-----|
|-----------------------|------------------|
|-----------------------|------------------|
|                         E  E E E +Q.   E
|
| Q.    S  S Q.    S  S   H         H
|-8-----8-10-7-----7-10-|-----------1------|
|-1----------8----------|-3----------------|
|-----------------------|------------------|
|-----------------------|------------------|
  H          H


  Q  E E  E E E E   Q.     E +H
|-3----1--1---1---|-1---------------||
|-4--4------3-1---|-1------4-(4)----||
|-3--3----3-----3-|-2------5-(5)----||
|-----------------|-----------------||
|-----------------|-----------------||
|-----------------|-----------------||
| Q  Q    H
|
| H       H         Q    Q    H
|---------3-------|-----10----1-----||
|-1------12-------|-3---------------||
|-----------------|-----------------||
|-----------------|-----------------||


  Q  Q  Q  +E. S   Q.     E +H        Q  E E H      Q.     E +H
|-3--3--1--(1)---|-1----------------|-3--3-1-1----|-1---------------------|
|-4--4--3--(3)---|-1------4-(4)-----|-4--4---3----|-1------4-(4)----------|
|-3--3--3--(3)---|-3--2---5-(5)---0-|-3--3---3----|-3--2---5-(5)----------|
|--------------3-|------3-6-(6)-----|-------------|------3-6-(6)----------|
|----------------|------------------|-------------|-----------------------|
|----------------|------------------|-------------|-----------------------|
|                  E  E E E +Q.   E                 E  E E E +H
|
| H     H          H         H        H      H      H         H
|-8-----3--------|-----------1------|-8------3----|-----------8--12-10-8--|
|-1--------------|-3----------------|-1-----------|-3---------6-----------|
|----------------|------------------|-------------|-----------------------|
|----------------|------------------|-------------|-----------------------|
                                                    H         E   E  E E


  Q  E E H      Q.     E +H        Q  E E  E E E E   Q.     E +H
|-3--3-1-1----|-1----------------|-3----1--1---1---|-1---------------||
|-4--4---3----|-1------4-(4)-----|-4--4------3-1---|-1------4-(4)----||
|-3--3---3----|-3--2---5-(5)---0-|-3-------3-----3-|-2------5-(5)----||
|-------------|------3-6-(6)-----|-----------------|--------6-(6)----||
|-------------|------------------|-----------------|-----------------||
|-------------|------------------|-----------------|-----------------||
|               E  E E E +Q.   E
|
| H      H      H         H        H       H         Q    Q    H
|-8------3----|-----------1------|---------3-------|-----10----1-----||
|-1-----------|-3----------------|-1------12-------|-3---------------||
|-------------|------------------|-----------------|-----------------||
|-------------|------------------|-----------------|-----------------||


  Q  Q  Q  Q    Q.     E +H        Q  Q  Q  Q    Q.     E +H
|-3--3--1--1--|-1----------------|-3--3--1--1--|-1---------------------|
|-4--4--3--3--|-1------4-(4)-----|-4--4--3--3--|-1------4-(4)----------|
|-3--3--3--3--|-3--2---5-(5)---0-|-3--3--3--3--|-3--2---5-(5)----------|
|-------------|------3-6-(6)-----|-------------|------3-6-(6)----------|
|-------------|------------------|-------------|-----------------------|
|-------------|------------------|-------------|-----------------------|
|               E  E E E +Q.   E                 E  E E E +H
|
| H     H       H         H        H     H       H         H
|-8-----3-----|-----------1------|-8-----3-----|-----------8--12-10-8--|
|-1-----------|-3----------------|-1-----------|-3---------6-----------|
|-------------|------------------|-------------|-----------------------|
|-------------|------------------|-------------|-----------------------|
                                                 H         E   E  E E


   Q   Q      Q   Q        Q.     E +H
|--3---3------1---1------|-1----------------|
|--4---4------3---3------|-1------4-(4)-----|
|--3---3------3---3------|-3--2---5-(5)---0-|
|------------------------|------3-6-(6)-----|
|------------------------|------------------|
|------------------------|------------------|
|                          E  E E E +Q.   E
|
| +Q.    S  S Q.    S  S   H         H
|-(8)----8-10-7-----7-10-|-----------1------|
|--1----------8----------|-3----------------|
|------------------------|------------------|
|------------------------|------------------|
   H          H


  Q   Q      Q   Q        Q.     E +H
|-3---3------1---1------|-1---------------------|
|-4---4------3---3------|-1------4-(4)----------|
|-3---3------3---3------|-3--2---5-(5)----------|
|-----------------------|------3-6-(6)----------|
|-----------------------|-----------------------|
|-----------------------|-----------------------|
|                         E  E E E +H
|
| Q.    S  S Q.    S  S   H         H
|-8-----8-10-7-----7-10-|-----------8--12-10-8--|
|-1----------8----------|-3---------6-----------|
|-----------------------|-----------------------|
|-----------------------|-----------------------|
  H          H            H         E   E  E E


   Q   Q      Q   Q        Q.     E +H
|--3---3------1---1------|-1----------------|
|--4---4------3---3------|-1------4-(4)-----|
|--3---3------3---3------|-3--2---5-(5)---0-|
|------------------------|------3-6-(6)-----|
|------------------------|------------------|
|------------------------|------------------|
|                          E  E E E +Q.   E
|
| +Q.    S  S Q.    S  S   H         H
|-(8)----8-10-7-----7-10-|-----------1------|
|--1----------8----------|-3----------------|
|------------------------|------------------|
|------------------------|------------------|
   H          H


                    2/4        4/4
  Q  E E  E E E E    H           Q.   Q.        Q
|-3----1--1---1---||-1-------||--3----3---------3----||
|-4--4------3-1---||-1-------||--4----4---------4----||
|-3--3----3-----3-||-2-------||--5----5---------5----||
|-----------------||---------||----------------------||
|-----------------||---------||----------------------||
|-----------------||---------||----------------------||
| Q  Q    H
|
| H       H          Q   E E     H        +E  Q   E
|---------3-------||----10-5-||--1--------(1)-8---8--||
|-1------12-------||-3-------||-13-------(13)-6---6--||
|-----------------||---------||----------------------||
|-----------------||---------||----------------------||


  Q.   Q.     Q     Q.   Q.       Q
|-3----3----------|-3----3--------3---|
|-1----1------3---|-4----4--------4---|
|-2----2------5---|-5----5--------5---|
|-------------7---|-------------------|
|-----------------|-------------------|
|-----------------|-------------------|
|
| H       Q.    E   H       +E  Q   E
|---------------0-|-1-------(1)-1---1-|
|-3-------3-------|-------------------|
|-----------------|-------------------|
|-----------------|-------------------|


  Q  E Q.      Q       Q.     Q.         Q
|-3----3-------3-----|-1------1----------1---|
|-4----4-------4-----|-3------3----------3---|
|-3--3-3-------3-----|-3------3----------3---|
|--------------------|-----------------------|
|--------------------|-----------------------|
|--------------------|-----------------------|
|
| H       +Q.    S S   Q   E  E   +E  E  E E
|----------------0-1-|-3---7-10--(10)-7-10-7-|
|-1-------(1)--------|-----------------------|
|--------------------|-----------------------|
|--------------------|-----------------------|
                       W


  Q.   Q.     Q     Q.   Q.       Q     Q  E Q.   Q    Q.   Q.      Q
|-3----3----------|-3----3--------3---|-3----3----3--|-1----1-------1------||
|-1----1------3---|-4----4--------4---|-4----4----4--|-3----3-------3------||
|-2----2------5---|-5----5--------5---|-3--3-3----3--|-3----3-------3------||
|-------------7---|-------------------|--------------|---------------------||
|-----------------|-------------------|--------------|---------------------||
|-----------------|-------------------|--------------|---------------------||
|
| H       Q.    E   H       +E  Q   E   W              H       +Q.    S  S
|---------------0-|-1-------(1)-1---1-|--------------|-3-------(3)----7-12-||
|-3-------3-------|-------------------|-1------------|---------------------||
|-----------------|-------------------|--------------|---------------------||
|-----------------|-------------------|--------------|---------------------||


  Q   Q      Q   Q        Q.     E +H
|-3---3------1---1------|-1----------------|
|-4---4------3---3------|-1------4-(4)-----|
|-3---3------3---3------|-3--2---5-(5)---0-|
|-----------------------|------3-6-(6)-----|
|-----------------------|------------------|
|-----------------------|------------------|
|                         E  E E E +Q.   E
|
| Q.    S  S Q.    S  S   H         H
|-8-----8-10-7-----7-10-|-----------1------|
|-1----------8----------|-3----------------|
|-----------------------|------------------|
|-----------------------|------------------|
  H          H


  Q   Q      Q   Q        Q.     E +H
|-3---3------1---1------|-1---------------------|
|-4---4------3---3------|-1------4-(4)----------|
|-3---3------3---3------|-3--2---5-(5)----------|
|-----------------------|------3-6-(6)----------|
|-----------------------|-----------------------|
|-----------------------|-----------------------|
|                         E  E E E +H
|
| Q.    S  S Q.    S  S   H         H
|-8-----8-10-7-----7-10-|-----------8--12-10-8--|
|-1----------8----------|-3---------6-----------|
|-----------------------|-----------------------|
|-----------------------|-----------------------|
  H          H            H         E   E  E E


   Q   Q      Q   Q        Q.     E +H
|--3---3------1---1------|-1----------------|
|--4---4------3---3------|-1------4-(4)-----|
|--3---3------3---3------|-3--2---5-(5)---0-|
|------------------------|------3-6-(6)-----|
|------------------------|------------------|
|------------------------|------------------|
|                          E  E E E +Q.   E
|
| +Q.    S  S Q.    S  S   H         H
|-(8)----8-10-7-----7-10-|-----------1------|
|--1----------8----------|-3----------------|
|------------------------|------------------|
|------------------------|------------------|
   H          H


                                      2/4
  Q  E E  E E E E   Q.     E +H        +H
|-3----1--1---1---|-1---------------||--------||
|-4--4------3-1---|-1------4-(4)----||-(4)----||
|-3--3----3-----3-|-2------5-(5)----||-(5)----||
|-----------------|--------6-(6)----||-(6)----||
|-----------------|-----------------||--------||
|-----------------|-----------------||--------||
| Q  Q    H
|
| H       H         Q    Q    H        +H
|---------3-------|-----10----1-----||-(1)----||
|-1------12-------|-3---------------||--------||
|-----------------|-----------------||--------||
|-----------------|-----------------||--------||


 4/4
  Q   Q      Q   Q        Q.     E +H
|-3---3------1---1------|-1----------------|
|-4---4------3---3------|-1------4-(4)-----|
|-3---3------3---3------|-3--2---5-(5)---0-|
|-----------------------|------3-6-(6)-----|
|-----------------------|------------------|
|-----------------------|------------------|
|                         E  E E E +Q.   E
|
| Q.    S  S Q.    S  S   H         H
|-8-----8-10-7-----7-10-|-----------1------|
|-1----------8----------|-3----------------|
|-----------------------|------------------|
|-----------------------|------------------|
  H          H


  Q   Q      Q   Q        Q.     E +H
|-3---3------1---1------|-1--------------------|
|-4---4------3---3------|-1------4-(4)---------|
|-3---3------3---3------|-3--2---5-(5)---------|
|-----------------------|------3-6-(6)---------|
|-----------------------|----------------------|
|-----------------------|----------------------|
|                         E  E E E +H
|
| Q.    S  S Q.    S  S   H         H
|-8-----8-10-7-----7-10-|-----------8--12-10-8-|
|-1----------8----------|-3---------6----------|
|-----------------------|----------------------|
|-----------------------|----------------------|
  H          H            H         E   E  E E


  Q   Q      Q   Q        Q.     E +H
|-3---3------1---1------|-1----------------|
|-4---4------3---3------|-1------4-(4)-----|
|-3---3------3---3------|-3--2---5-(5)---0-|
|-----------------------|------3-6-(6)-----|
|-----------------------|------------------|
|-----------------------|------------------|
|                         E  E E E +Q.   E
|
| Q.    S  S Q.    S  S   H         H
|-8-----8-10-7-----7-10-|-----------1------|
|-1----------8----------|-3----------------|
|-----------------------|------------------|
|-----------------------|------------------|
  H          H


                    2/4        4/4
  Q  E E  E E E E    H           Q.   Q.        Q
|-3----1--1---1---||-1-------||--3----3---------3----||
|-4--4------3-1---||-1-------||--4----4---------4----||
|-3--3----3-----3-||-2-------||--5----5---------5----||
|-----------------||---------||----------------------||
|-----------------||---------||----------------------||
|-----------------||---------||----------------------||
| Q  Q    H
|
| H       H          Q   E E     H        +E  Q   E
|---------3-------||----10-5-||--1--------(1)-8---8--||
|-1------12-------||-3-------||-13-------(13)-6---6--||
|-----------------||---------||----------------------||
|-----------------||---------||----------------------||


  Q.   Q.     Q     Q.   Q.       Q
|-3----3----------|-3----3--------3---|
|-1----1------3---|-4----4--------4---|
|-2----2------5---|-5----5--------5---|
|-------------7---|-------------------|
|-----------------|-------------------|
|-----------------|-------------------|
|
| H       Q.    E   H       +E  Q   E
|---------------0-|-1-------(1)-1---1-|
|-3-------3-------|-------------------|
|-----------------|-------------------|
|-----------------|-------------------|


  Q  E Q.      Q       Q.     Q.         Q
|-3----3-------3-----|-1------1----------1---|
|-4----4-------4-----|-3------3----------3---|
|-3--3-3-------3-----|-3------3----------3---|
|--------------------|-----------------------|
|--------------------|-----------------------|
|--------------------|-----------------------|
|
| H       +Q.    S S   Q   E  E   +E  E  E E
|----------------0-1-|-3---7-10--(10)-7-10-7-|
|-1-------(1)--------|-----------------------|
|--------------------|-----------------------|
|--------------------|-----------------------|
                       W


  Q.   Q.     Q     Q.   Q.       Q     Q  E Q.        Q    Q.   Q.    E S S
|-3----3----------|-3----3--------3---|-3----3---------3--|-1----1-----1-1-5-|
|-1----1------3---|-4----4--------4---|-4----4---------4--|-3----3-----3-----|
|-2----2------5---|-5----5--------5---|-3--3-3---------3--|-3----3-----3-----|
|-------------7---|-------------------|-------------------|------------------|
|-----------------|-------------------|-------------------|------------------|
|-----------------|-------------------|-------------------|------------------|
|
| H       Q.    E   H       +E  Q   E   H       +E  Q.      Q.   E  H
|---------------0-|-1-------(1)-1---1-|-3-------(3)-3-----|------------------|
|-3-------3-------|-------------------|-------------------|-3----3--3--------|
|-----------------|-------------------|-------------------|------------------|
|-----------------|-------------------|-------------------|------------------|


   Q    Q.      Q   E    +E  E E  E  Q      E S S
|-15---15------15--15-|-(15)-4-8-15-13-----13---3-|
|-13---13------13--13-|-(13)------9-13-----13-4---|
|-14---14------14--13-|-(13)-----17-13-----13-----|
|---------------------|---------------------------|
|---------------------|---------------------------|
|---------------------|---------------------------|
|
|  Q.      E H            H         +E  Q.
|---------------------|---1---------(1)-1---------|
|--3-------3-3--------|---------------------------|
|---------------------|---------------------------|
|---------------------|---------------------------|
|
| Gtr IV
|  W                     +W
|-15------------------|-(15)----------------------|
|---------------------|---------------------------|
|---------------------|---------------------------|
|---------------------|---------------------------|
|---------------------|---------------------------|
|---------------------|---------------------------|


   Q    Q.      Q    E    +Q.    E  Q      E. S
|-15---15------15---13-|-(13)---15-13-----13--5-|
|-16---16------16---15-|-(15)---16-15-----15----|
|-15---15------15---15-|-(15)---15-15-----15----|
|-17---17------17------|------------------------|
|----------------------|------------------------|
|----------------------|------------------------|
|
|  Q.      E Q    E  E     H       +E  Q.
|----------------------|---3-------(3)-3--------|
|--1-------1-1----1--3-|------------------------|
|----------------------|------------------------|
|----------------------|------------------------|
|
|  H.             Q       +H.              Q
|-11--------------6----|--(6)-------------11----|
|----------------------|------------------------|
|----------------------|------------------------|
|----------------------|------------------------|
|----------------------|------------------------|
|----------------------|------------------------|


   Q    Q.      Q   E    +E  E E  E  Q      E S S
|-15---15------15--15-|-(15)-4-8-15-13-----13---3-|
|-13---13------13--13-|-(13)------9-13-----13-4---|
|-14---14------14--13-|-(13)-----17-13-----13-----|
|---------------------|---------------------------|
|---------------------|---------------------------|
|---------------------|---------------------------|
|
|  Q.      E H            H         +E  Q.
|---------------------|---1---------(1)-1---------|
|--3-------3-3--------|---------------------------|
|---------------------|---------------------------|
|---------------------|---------------------------|
|
|  W                     +W
|-15------------------|-(15)----------------------|
|---------------------|---------------------------|
|---------------------|---------------------------|
|---------------------|---------------------------|
|---------------------|---------------------------|
|---------------------|---------------------------|


   Q    Q.      Q    E    +Q.    E  Q      Q
|-15---15------15---13-|-(13)---15-13-----13--|
|-16---16------16---15-|-(15)---16-15-----15--|
|-15---15------15---15-|-(15)---15-15-----15--|
|-17---17------17------|----------------------|
|----------------------|----------------------|
|----------------------|----------------------|
|
|  Q.      E Q    E  E     H       +E  Q.
|----------------------|---3-------(3)-3------|
|--1-------1-1----1--3-|----------------------|
|----------------------|----------------------|
|----------------------|----------------------|
|
|  H.             Q       +W
|-11--------------6----|--(6)-----------------|
|----------------------|----------------------|
|----------------------|----------------------|
|----------------------|----------------------|
|----------------------|----------------------|
|----------------------|----------------------|


  E E E E E E E E   E  E E E   E E E E
|-1-1-1-1-1-1-1-1-|-3--3-3-3---3-3-3-3-|
|-1---------------|-4------------------|
|-2---------------|-5------------------|
|-----------------|-6------------------|
|-----------------|--------------------|
|-----------------|--------------------|
| W                 W
|
| E E E E E E E E   Q.     S S E Q   E
|-----------------|--------------------|
|-1-3-3-3-3-1-----|--------------------|
|-------------3-1-|------------------1-|
|-----------------|-4------4-4-4-4-----|
|
| E E E E E E E E   E  E E E   E E E E
|-1-1-1-1-1-1-1-1-|-3--3-3-3---3-3-3-3-|
|-----------------|--------------------|
|-----------------|--------------------|
|-----------------|--------------------|
|-----------------|--------------------|
|-----------------|--------------------|


  E  E E E   E E E E   E  E E E   E E E E
|-3--3-3-3---3-3-3-3-|-1--1-1-1---1-1-1-1-|
|-4--4-4-4---4-4-4-4-|-3--3-3-3---3-3-3-3-|
|-3------------------|-3------------------|
|--------------------|--------------------|
|--------------------|--------------------|
|--------------------|--------------------|
| W                    W
|
| Q.     S S E E E E   Q.     S S Q   E E
|--------------------|--------------------|
|-1------1-1-1---1-3-|--------------------|
|--------------1-----|-1------1-1-1---1-1-|
|--------------------|--------------------|
|
| E  E E E   E E E E   E  E E E   E E E E
|--------------------|--------------------|
|-4--4-4-4---4-4-4-4-|-3--3-3-3---3-3-3-3-|
|--------------------|--------------------|
|--------------------|--------------------|
|--------------------|--------------------|
|--------------------|--------------------|


  E E E E E E E E   E  E E E   E E E E
|-1-1-1-1-1-1-1-1-|-3--3-3-3---3-3-3-3-|
|-1---------------|-4------------------|
|-2---------------|-5------------------|
|-----------------|-6------------------|
|-----------------|--------------------|
|-----------------|--------------------|
| W                 W
|
| E E E E E E E E   Q.     S S E Q   E
|-----------------|--------------------|
|-1-3-3-3-3-1-----|--------------------|
|-------------3-1-|------------------1-|
|-----------------|-4------4-4-4-4-----|
|
| E E E E E E E E   E  E E E   E E E E
|-1-1-1-1-1-1-1-1-|-3--3-3-3---3-3-3-3-|
|-----------------|--------------------|
|-----------------|--------------------|
|-----------------|--------------------|
|-----------------|--------------------|
|-----------------|--------------------|


  E  E E E   E E E E   E  E E E   E E E E
|-3--3-3-3---3-3-3-3-|-1--1-1-1---1-1-1-1-|
|-4--4-4-4---4-4-4-4-|-3--3-3-3---3-3-3-3-|
|-3------------------|-3------------------|
|--------------------|--------------------|
|--------------------|--------------------|
|--------------------|--------------------|
| W                    W
|
| Q.     S S E E E E   Q.     S S Q   E E
|--------------------|--------------------|
|-1------1-1-1---1-3-|--------------------|
|--------------1-----|-1------1-1-1---1-1-|
|--------------------|--------------------|
|
| E  E E E   E E E E   E  E E E   E E E E
|--------------------|--------------------|
|-4--4-4-4---4-4-4-4-|-3--3-3-3---3-3-3-3-|
|--------------------|--------------------|
|--------------------|--------------------|
|--------------------|--------------------|
|--------------------|--------------------|


  E E E E E E E E   E  E E E   E E E E
|-1-1-1-1-1-1-1-1-|-3--3-3-3---3-3-3-3-|
|-1---------------|-4------------------|
|-2---------------|-5------------------|
|-----------------|-6------------------|
|-----------------|--------------------|
|-----------------|--------------------|
| W                 W
|
| E E E E E E E E   Q.     S S E Q   E
|-----------------|--------------------|
|-1-3-3-3-3-1-----|--------------------|
|-------------3-1-|------------------1-|
|-----------------|-4------4-4-4-4-----|
|
| E E E E E E E E   E  E E E   E E E E
|-1-1-1-1-1-1-1-1-|-3--3-3-3---3-3-3-3-|
|-----------------|--------------------|
|-----------------|--------------------|
|-----------------|--------------------|
|-----------------|--------------------|
|-----------------|--------------------|


  E  E E E   E E E E   E  E E E   E E E E
|-3--3-3-3---3-3-3-3-|-1--1-1-1---1-1-1-1-|
|-4--4-4-4---4-4-4-4-|-3--3-3-3---3-3-3-3-|
|-3------------------|-3------------------|
|--------------------|--------------------|
|--------------------|--------------------|
|--------------------|--------------------|
| W                    W
|
| Q.     S S E E E E   Q.     S S Q   E E
|--------------------|--------------------|
|-1------1-1-1---1-3-|--------------------|
|--------------1-----|-1------1-1-1---1-1-|
|--------------------|--------------------|
|
| E  E E E   E E E E   E  E E E   E E E E
|--------------------|--------------------|
|-4--4-4-4---4-4-4-4-|-3--3-3-3---3-3-3-3-|
|--------------------|--------------------|
|--------------------|--------------------|
|--------------------|--------------------|
|--------------------|--------------------|


  E E E E E E E E   E  E E E   E E E E
|-1-1-1-1-1-1-1-1-|-3--3-3-3---3-3-3-3-|
|-1---------------|-4------------------|
|-2---------------|-5------------------|
|-----------------|-6------------------|
|-----------------|--------------------|
|-----------------|--------------------|
| W                 W
|
| E E E E E E E E   Q.     S S E Q   E
|-----------------|--------------------|
|-1-3-3-3-3-1-----|--------------------|
|-------------3-1-|------------------1-|
|-----------------|-4------4-4-4-4-----|
|
| E E E E E E E E   E  E E E   E E E E
|-1-1-1-1-1-1-1-1-|-3--3-3-3---3-3-3-3-|
|-----------------|--------------------|
|-----------------|--------------------|
|-----------------|--------------------|
|-----------------|--------------------|
|-----------------|--------------------|


  E  E E E   E E E E   E  E E E   E E E E
|-3--3-3-3---3-3-3-3-|-6--6-6-6---6-6-6-6-|
|-4--4-4-4---4-4-4-4-|-6--6-6-6---6-6-6-6-|
|-3------------------|-7------------------|
|--------------------|--------------------|
|--------------------|--------------------|
|--------------------|--------------------|
| W                    W
|
| Q.     S S E E E E   Q.     S S Q   E E
|--------------------|--------------------|
|-1------1-1-1---1-3-|--------------------|
|--------------1-----|-1------1-1-1---1-1-|
|--------------------|--------------------|
|
| E  E E E   E E E E   E  E E E   E E E E
|--------------------|-1--1-1-1---1-1-1-1-|
|-4--4-4-4---4-4-4-4-|--------------------|
|--------------------|--------------------|
|--------------------|--------------------|
|--------------------|--------------------|
|--------------------|--------------------|


  H       +E  Q.        Q.   Q.   Q
|-3-------(3)-3------|--3----3----3-----|
|-1-------(1)-1------|--4----4----4-----|
|-2-------(2)-2------|--5----5----5-----|
|--------------------|------------------|
|--------------------|------------------|
|--------------------|------------------|
|
| E E E E  E  E  E E    Q.   H      S S
|--------------------|-------1------1-3-|
|-1-3-3-3--3--1------|------------------|
|----------------3-1-|------------------|
|--------------------|--4---------------|
|
| >
| W                    +W
|-3------------------|-(3)--------------|
|--------------------|------------------|
|--------------------|------------------|
|--------------------|------------------|
|--------------------|------------------|
|--------------------|------------------|


  Q  E Q.       Q      Q.   Q.   E S S
|-3----3--------3---|--1----1----1---1--|
|-4----4--------4---|--3----3----3-3----|
|-3--3-3--------3---|--3----3----3------|
|-------------------|-------------------|
|-------------------|-------------------|
|-------------------|-------------------|
|
| H       +E  E E E    W
|-------------------|-------------------|
|-1-------(1)---1-3-|-------------------|
|-------------1-----|--1----------------|
|-------------------|-------------------|
|
| <
| W                   +W
|-------------------|-------------------|
|-4-----------------|-(4)---------------|
|-------------------|-------------------|
|-------------------|-------------------|
|-------------------|-------------------|
|-------------------|-------------------|


  Q   Q.     Q   E   +Q.     H      E    Q   Q.       Q    E   W
|-3---3------3---3-|-(3)-----3------1--|-3---3--------3----1-|-1----*|
|-1---1------1---4-|-(4)-----4-----(4)-|-4---4--------4------|-3----*|
|-2---2------2---5-|-(5)-----5-----(5)-|-3---3--------3------|-3----*|
|----------------6-|-(6)-----6-----(6)-|---------------------|------*|
|------------------|-------------------|---------------------|------*|
|------------------|-------------------|---------------------|------*|
|                     Q.     H     +E    H         E  Q.
|
| E E E  E E E E E    E  E H     Q       Q.     E +E  E  E E   W
|------------------|-------------------|---------------------|------*|
|-1-3-3--3-3-1-----|-------------------|-1------1-(1)----1-3-|------*|
|--------------3-1-|-------------------|--------------1------|-1----*|
|------------------|--4----4-----4-----|---------------------|------*|



Duration Legend
---------------
W - whole; H - half; Q - quarter; E - 8th; S - 16th; T - 32nd; X - 64th; a - acciaccatura
+ - note tied to previous; . - note dotted; .. - note double dotted
Uncapitalized letters represent notes that are staccato (1/2 duration)
Irregular groupings are notated above the duration line
Duration letters will always appear directly above the note/fret number it represents the
duration for.  Duration letters with no fret number below them represent rests.  Multi-
bar rests are notated in the form Wxn, where n is the number of bars to rest for.  Low
melody durations appear below the staff

Tablature Legend
----------------
 h   - hammer-on
 p   - pull-off
 b   - bend
 pb  - pre-bend
 r   - bend release (if no number after the r, then release immediately)
 /\  - slide into or out of (from/to "nowhere")
 s   - legato slide
 S   - shift slide
 - natural harmonic
[n]  - artificial harmonic
n(n) - tapped harmonic
 ~   - vibrato
 tr  - trill
 T   - tap
 TP  - trem. picking
 PM  - palm muting
\n/  - tremolo bar dip; n = amount to dip
 \n  - tremolo bar down
 n/  - tremolo bar up
/n\  - tremolo bar inverted dip
 =   - hold bend; also acts as connecting device for hammers/pulls
 <> - volume swell (louder/softer)
 x   - on rhythm slash represents muted slash
 o   - on rhythm slash represents single note slash

Misc Legend
-----------
 |  - bar
||  - double bar
||o - repeat start
o|| - repeat end
*|  - double bar (ending)
 :  - bar (freetime)
 $  - Segno
 &  - Coda
Tempo markers -  = BPM(8/16=s8/s16), where s8 = swing 8ths, s16 = swing 16ths

comments
We did not receive enough feedback on this tab! Please rate:
print report bad tab
1 2 3 4 5
I want to post or [tab]
guest
You may want to rate the tab now too:
select rating
Please do not post tabs as comments. Select "correction" instead!