Oops, an error
Loading. Please wait.

Clocks Tab

ver3
ver3
More versions @911Tabs.com
27,127 views 18 this week
1 commentread comment
1 2 3 4 5
accurate
x 7
Autoscroll
+/-
esc
set tempo
stop
Contributor
NEW! There's an official Ultimate Guitar app which is ideal
for learning songs when you're away from computer. Get the app
WARNING: You are trying to view
                                    content from Ultimate-Guitar.com
                                    in an unauthorized application,
                                    which is prohibited.

                                    Please use an official Ultimate
                                    Guitar Tabs application for iPhone,
                                    iPad or Android to access legitimate
                                    chords, guitar, bass, and drum tabs
                                    from Ultimate-Guitar.com database.

                                    Type "ultimate guitar tabs" in Apple
                                    App Store's or Android Market's
                                    search to find the application.
#----------------------------------PLEASE NOTE---------------------------------#
#This file is the author's own work and represents their interpretation of the #
#song. You may only use this file for private study, scholarship, or research. #
#------------------------------------------------------------------------------#

CLOCKS
As recorded by Coldplay
(From the 2002 Album A RUSH OF BLOOD TO THE HEAD)

Transcribed by Aidan Hampson
	

Words and Music by Coldplay
Arranged by Aidan Hampson

Eb
x 6 8 8 8 x
	
Bbm
6 8 8 6 6 6
	
Fm7
x x 6 5 4 x
	
F5
1 3 3 x x x
Gbmaj7
x x 4 3 2 1
	
Db
x x 3 1 2 1
	
Fm
x x 3 1 1 1

Gtr I (E A D G B E) - 'Piano'
Gtr II (E A D G B E) - 'Clean'
Gtr III (E A D G B E) - 'Clean 2'
Gtr IV (E A D G B E) - 'Synth'
Gtr V (E A D G B E) - 'Mellow Tone w/ Reverb'

   Intro
    Moderately Fast  Q=132
    (Eb)                      (Bbm)
   4/4
    Gtr I
     E  E  E  E  E  E  E  E   E  E  E E  E  E E  E
||--11-------11-------11----|-9-------9-------9----|
||o----11-------11-------11-|---11------11------11-|
||--------12-------12-------|------10------10------|
||--------------------------|----------------------|
||o-------------------------|----------------------|
||--------------------------|----------------------|


                         (Fm)
  E  E  E E  E  E E  E   E E  E E E  E E E
|-9-------9-------9----|-8------8------8----||
|---11------11------11-|---9------9------9-o||
|------10------10------|-----10-----10------||
|----------------------|--------------------||
|----------------------|-------------------o||
|----------------------|--------------------||


    Eb                        Bbm
     E  E  E  E  E  E  E  E   E  E  E E  E  E E  E
||--11-------11-------11----|-9-------9-------9----|
||o----11-------11-------11-|---11------11------11-|
||--------12-------12-------|------10------10------|
||--------------------------|----------------------|
||o-------------------------|----------------------|
||--------------------------|----------------------|
|
|   Gtr II
|    E  E  E  E  E  E  E  E   E  E  E E  E  E E  E
||--------------------------|----------------------|
||o-------------------------|----------------------|
||--------------------------|----------------------|
||---8--8--8--8--8--8--8--8-|-8--8--8-8--8--8-8--8-|
||o-10-10-10-10-10-10-10-10-|-8--8--8-8--8--8-8--8-|
||--------------------------|----------------------|
|
|   Gtr III
|    E  E  E  E  E  E  E  E   E  E  E E  E  E E  E
||--------------------------|----------------------|
||o-------------------------|----------------------|
||--------------------------|----------------------|
||--------------------------|----------------------|
||o-11-10-10-10-10-10-10-10-|-8-10--8-8--8--8-8--8-|
||--------------------------|----------------------|


                         Fm7
  E  E  E E  E  E E  E    E  E  E  E  E  E  E  E
|-9-------9-------9----|--8--------8--------8-----||
|---11------11------11-|-----9--------9--------9-o||
|------10------10------|-------10-------10--------||
|----------------------|--------------------------||
|----------------------|-------------------------o||
|----------------------|--------------------------||
|
| E  E  E E  E  E E  E    E  E  E  E  E  E  E  E
|----------------------|--------------------------||
|----------------------|-------------------------o||
|----------------------|--------------------------||
|-8--8--8-8--8--8-8--8-|-10-10-10-10-10-10-10-10--||
|-8--8--8-8--8--8-8--8-|-11-11-11-11-11-11-11-11-o||
|-9--9--9-9--9--9-9--9-|--------------------------||
|
| E  E  E E  E  E E  E    E  E  E  E  E  E  E  E
|----------------------|--------------------------||
|----------------------|-------------------------o||
|----------------------|--------------------------||
|----------------------|--------------------------||
|----------------------|-11-11-11-11-11-11-11-10-o||
|-9--9--9-9--9--9-9--9-|--------------------------||


   Verse
    Eb          Bbm        Bbm        Fm7
    Gtr IV
     W          W          W          W
||------------|----------|----------|------|
||o-----------|----------|----------|-4----|
||---8--------|-6--------|-6--------|-5----|
||---8--------|-8--------|-8--------|-6----|
||o--6--------|-8--------|-8--------|------|
||------------|-6--------|-6--------|------|
|
|   Gtr II
|    W          W          W          W
||------------|----------|----------|------|
||o-----------|----------|----------|------|
||---8--------|----------|----------|------|
||---8--------|----------|----------|------|
||o--6--------|----------|----------|------|
||------------|----------|----------|------|
|
|   Gtr III
|    W          W          W          W
||------------|----------|----------|------|
||o-----------|----------|----------|------|
||------------|----------|----------|------|
||------------|----------|----------|------|
||o-10--------|----------|----------|------|
||------------|----------|----------|------|


  Eb         Bbm                   Fm7
  W          W          W          W
|----------|----------|----------|------|
|----------|----------|----------|-4----|
|-8--------|-6--------|-6--------|-5----|
|-8--------|-8--------|-8--------|-6----|
|-6--------|-8--------|-8--------|------|
|----------|-6--------|-6--------|------|


  Eb         Bbm                   Fm7
  W          W          W          W
|----------|----------|----------|------|
|----------|----------|----------|-4----|
|-8--------|-6--------|-6--------|-5----|
|-8--------|-8--------|-8--------|-6----|
|-6--------|-8--------|-8--------|------|
|----------|-6--------|-6--------|------|


  Eb         Bbm                   Fm7
  W          W          W          W
|----------|----------|----------|------||
|----------|----------|----------|-4----||
|-8--------|-6--------|-6--------|-5----||
|-8--------|-8--------|-8--------|-6----||
|-6--------|-8--------|-8--------|------||
|----------|-6--------|-6--------|------||


 Chorus
  Eb                        Bbm
  Gtr I
   E  E  E  E  E  E  E  E   E  E  E E  E  E E  E
|-11-------11-------11----|-9-------9-------9----|
|----11-------11-------11-|---11------11------11-|
|-------12-------12-------|------10------10------|
|-------------------------|----------------------|
|-------------------------|----------------------|
|-------------------------|----------------------|
|
| Gtr II
|  E  E  E  E  E  E  E  E   E  E  E E  E  E E  E
|-------------------------|----------------------|
|-------------------------|----------------------|
|--8--8--8--8--8--8--8--8-|----------------------|
|--8--8--8--8--8--8--8--8-|-8--8--8-8--8--8-8--8-|
|--6--6--6--6--6--6--6--6-|-8--8--8-8--8--8-8--8-|
|-------------------------|-6--6--6-6--6--6-6--6-|


                          Fm7
  E  E  E E  E  E E  E    E E  E E E  E E E
|-9-------9-------9-----|-8------8------8----|
|---11------11------11--|---9------9------9--|
|------10------10-------|-----10-----10------|
|-----------------------|--------------------|
|-----------------------|--------------------|
|-----------------------|--------------------|
|
| E  E  E E  E  E E  E    E E  E E E  E E E
|-----------------------|--------------------|
|-----------------------|--------------------|
|-----------------------|--------------------|
|-8--8--8-8--8--8-8-----|-3-3--3-3-3--3-3-3--|
|-8--8--8-8--8--8-8-----|-3-3--3-3-3--3-3-3--|
|-6--6--6-6--6--6-6-(0)-|-1-1--1-1-1--1-1-1--|


  Eb                        Bbm
   E  E  E  E  E  E  E  E   E  E  E E  E  E E  E
|-11-------11-------11----|-9-------9-------9----|
|----11-------11-------11-|---11------11------11-|
|-------12-------12-------|------10------10------|
|-------------------------|----------------------|
|-------------------------|----------------------|
|-------------------------|----------------------|
|
|  E  E  E  E  E  E  E  E   E  E  E E  E  E E  E
|-------------------------|----------------------|
|-------------------------|----------------------|
|--8--8--8--8--8--8--8--8-|----------------------|
|--8--8--8--8--8--8--8--8-|-8--8--8-8--8--8-8--8-|
|--6--6--6--6--6--6--6--6-|-8--8--8-8--8--8-8--8-|
|-------------------------|-6--6--6-6--6--6-6--6-|


                          Fm7
  E  E  E E  E  E E  E    E E  E E E  E E E
|-9-------9-------9-----|-8------8------8----|
|---11------11------11--|---9------9------9--|
|------10------10-------|-----10-----10------|
|-----------------------|--------------------|
|-----------------------|--------------------|
|-----------------------|--------------------|
|
| E  E  E E  E  E E  E    E E  E E E  E E E
|-----------------------|--------------------|
|-----------------------|--------------------|
|-----------------------|--------------------|
|-8--8--8-8--8--8-8-----|-3-3--3-3-3--3-3-3--|
|-8--8--8-8--8--8-8-----|-3-3--3-3-3--3-3-3--|
|-6--6--6-6--6--6-6-(0)-|-1-1--1-1-1--1-1-1--|


  1.
  Eb                        Bbm
   E  E  E  E  E  E  E  E   E  E  E E  E  E E  E
|-11-------11-------11----|-9-------9-------9----|
|----11-------11-------11-|---11------11------11-|
|-------12-------12-------|------10------10------|
|-------------------------|----------------------|
|-------------------------|----------------------|
|-------------------------|----------------------|
|
|  E  E  E  E  E  E  E  E   E  E  E E  E  E E  E
|-------------------------|----------------------|
|-------------------------|----------------------|
|-------------------------|----------------------|
|--8--8--8--8--8--8--8--8-|-8--8--8-8--8--8-8--8-|
|-10-10-10-10-10-10-10-10-|-8--8--8-8--8--8-8--8-|
|-------------------------|----------------------|
|
| Gtr III
|  E  E  E  E  E  E  E  E   E  E  E E  E  E E  E
|-------------------------|----------------------|
|-------------------------|----------------------|
|-------------------------|----------------------|
|-------------------------|----------------------|
|-11-10-10-10-10-10-10-10-|-8-10--8-8--8--8-8--8-|
|-------------------------|----------------------|


                         Fm7
  E  E  E E  E  E E  E    E  E  E  E  E  E  E  E
|-9-------9-------9----|--8--------8--------8-----|
|---11------11------11-|-----9--------9--------9--|
|------10------10------|-------10-------10--------|
|----------------------|--------------------------|
|----------------------|--------------------------|
|----------------------|--------------------------|
|
| E  E  E E  E  E E  E    E  E  E  E  E  E  E  E
|----------------------|--------------------------|
|----------------------|--------------------------|
|----------------------|--------------------------|
|-8--8--8-8--8--8-8--8-|-10-10-10-10-10-10-10-10--|
|-8--8--8-8--8--8-8--8-|-11-11-11-11-11-11-11-11--|
|-9--9--9-9--9--9-9--9-|--------------------------|
|
| E  E  E E  E  E E  E    E  E  E  E  E  E  E  E
|----------------------|--------------------------|
|----------------------|--------------------------|
|----------------------|--------------------------|
|----------------------|--------------------------|
|----------------------|-11-11-11-11-11-11-11-10--|
|-9--9--9-9--9--9-9--9-|--------------------------|


   E  E  E  E  E  E  E  E   E  E  E E  E  E E  E
|-11-------11-------11----|-9-------9-------9----|
|----11-------11-------11-|---11------11------11-|
|-------12-------12-------|------10------10------|
|-------------------------|----------------------|
|-------------------------|----------------------|
|-------------------------|----------------------|
|
|  E  E  E  E  E  E  E  E   E  E  E E  E  E E  E
|-------------------------|----------------------|
|-------------------------|----------------------|
|-------------------------|----------------------|
|--8--8--8--8--8--8--8--8-|-8--8--8-8--8--8-8--8-|
|-10-10-10-10-10-10-10-10-|-8--8--8-8--8--8-8--8-|
|-------------------------|----------------------|
|
|  E  E  E  E  E  E  E  E   E  E  E E  E  E E  E
|-------------------------|----------------------|
|-------------------------|----------------------|
|-------------------------|----------------------|
|-------------------------|----------------------|
|-11-10-10-10-10-10-10-10-|-8-10--8-8--8--8-8--8-|
|-------------------------|----------------------|


  E  E  E E  E  E  E  E    E  E  E  E  E  E  E  E
|-9-------9--------9----|--8--------8--------8------||
|---11------11-------11-|-----9--------9--------9--o||
|------10------10-------|-------10-------10---------||
|-----------------------|---------------------------||
|-----------------------|--------------------------o||
|-----------------------|---------------------------||
|
| E  E  E E  E  E  E  E    E  E  E  E  E  E  E  E
|-----------------------|---------------------------||
|-----------------------|--------------------------o||
|-----------------------|---------------------------||
|-8--8--8-8--8--8--8--8-|-10-10-10-10-10-10-10-10---||
|-8--8--8-8--8--8--8--8-|-11-11-11-11-11-11-11-11--o||
|-9--9--9-9--9--9--9--9-|---------------------------||
|
| E  E  E E  E  E  E  E    E  E  E  E  E  E  E  E
|-----------------------|---------------------------||
|-----------------------|--------------------------o||
|-----------------------|---------------------------||
|-----------------------|---------------------------||
|-4--4--4-8--8--8-10-10-|-11-11-11-11-11-11-11-10--o||
|-----------------------|---------------------------||


  2.
  Eb                          Bbm
  Gtr II
   E  E  E  E  E  E   E   E    E  E  E E   E   E  E  E
   |  |  |  |  |  |   |   |    |  |  | |   |   |  |  |
   /  /  /  /  /  /   /   /    /  /  / /   /   /  /  /

  Gtr I
   E  E  E  E  E  E   E   E    E  E  E E   E   E  E  E
|-11-------11--------11-----|--9-------9----------9----|
|----11-------11---------11-|----11-------11--------11-|
|-------12-------12---------|-------10--------10-------|
|---------------------------|--------------------------|
|---------------------------|--------------------------|
|---------------------------|--------------------------|
|
| Gtr III
|  E  E  E  E  E  E   E   E    E  E  E E   E   E  E  E
|---------------------------|--------------------------|
|---------------------------|--------------------------|
|---------------------------|--------------------------|
|---------------------------|--------------------------|
|-11-10-10-10-10-10--10--10-|--8-10--8-8---8---8--8--8-|
|---------------------------|--------------------------|
|
| Gtr V
|  H           E  E  +Q        H          +E   E  Q
|---------------------------|--------------------------|
|----------------13-(13)----|-14---------(14)----------|
|---------------------------|-----------------15-13----|
|---------------------------|--------------------------|
|---------------------------|--------------------------|
|---------------------------|--------------------------|


                            Fm7
    E   E  E E  E  E E  E    E  E  E  E  E  E  E  E
    |   |  | |  |  | |  |    |  |  |  |  |  |  |  |
    /   /  / /  /  / /  /    /  /  /  /  /  /  /  /

    E   E  E E  E  E E  E    E  E  E  E  E  E  E  E
|---9--------9-------9----|--8--------8--------8-----|
|------11------11------11-|-----9--------9--------9--|
|---------10------10------|-------10-------10--------|
|-------------------------|--------------------------|
|-------------------------|--------------------------|
|-------------------------|--------------------------|
|
|   E   E  E E  E  E E  E    E  E  E  E  E  E  E  E
|-------------------------|--------------------------|
|-------------------------|--------------------------|
|-------------------------|--------------------------|
|-------------------------|--------------------------|
|-------------------------|-11-11-11-11-11-11-11-10--|
|---9---9--9-9--9--9-9--9-|--------------------------|
|
|  +H           Q    E  E    W
|-------------------------|--------------------------|
|----------------------11s|=13-----------------------|
|-(13)--------------------|--------------------------|
|-------------------------|--------------------------|
|-------------------------|--------------------------|
|-------------------------|--------------------------|


  Eb                        Bbm
   E  E  E  E  E  E  E  E    E   E  E E  E  E   E   E
   |  |  |  |  |  |  |  |    |   |  | |  |  |   |   |
   /  /  /  /  /  /  /  /    /   /  / /  /  /   /   /

   E  E  E  E  E  E  E  E    E   E  E E  E  E   E   E
|-11-------11-------11----|--9--------9---------9-----|
|----11-------11-------11-|-----11------11---------11-|
|-------12-------12-------|--------10------10---------|
|-------------------------|---------------------------|
|-------------------------|---------------------------|
|-------------------------|---------------------------|
|
|  E  E  E  E  E  E  E  E    E   E  E E  E  E   E   E
|-------------------------|---------------------------|
|-------------------------|---------------------------|
|-------------------------|---------------------------|
|-------------------------|---------------------------|
|-11-10-10-10-10-10-10-10-|--8--10--8-8--8--8---8---8-|
|-------------------------|---------------------------|
|
|  H           Q     Q       H.                +E   E
|-------------------------|---------------------------|
|-------------------------|---------------------------|
|-------------------12s===|=10----------------(10)p=8h|
|-------------------------|---------------------------|
|-------------------------|---------------------------|
|-------------------------|---------------------------|


                          Fm7
   E  E  E E  E  E E  E     E   E  E  E  E  E  E  E
   |  |  | |  |  | |  |     |   |  |  |  |  |  |  |
   /  /  / /  /  / /  /     /   /  /  /  /  /  /  /

   E  E  E E  E  E E  E     E   E  E  E  E  E  E  E
|--9-------9-------9----|---8---------8--------8-----||
|----11------11------11-|-------9--------9--------9--||
|-------10------10------|---------10-------10--------||
|-----------------------|----------------------------||
|-----------------------|----------------------------||
|-----------------------|----------------------------||
|
|  E  E  E E  E  E E  E     E   E  E  E  E  E  E  E
|-----------------------|----------------------------||
|-----------------------|----------------------------||
|-----------------------|----------------------------||
|-----------------------|----------------------------||
|-----------------------|--11--11-11-11-11-11-11-10--||
|--9--9--9-9--9--9-9--9-|----------------------------||
|
|  W                       +W
|-----------------------|----------------------------||
|-----------------------|----------------------------||
|-10--------------------|-(10)-----------------------||
|-----------------------|----------------------------||
|-----------------------|----------------------------||
|-----------------------|----------------------------||


    Eb                          Bbm
     E  E  E  E  E  E   E   E    E  E  E  E   E   E  E  E
     |  |  |  |  |  |   |   |    |  |  |  |   |   |  |  |
     /  /  /  /  /  /   /   /    /  /  /  /   /   /  /  /

     E  E  E  E  E  E   E   E    E  E  E  E   E   E  E  E
||--16-------16--------16-----|-16-------16---------16----|
||o----20-------20---------20-|----20--------20--------20-|
||--------20-------20---------|-------18---------18-------|
||----------------------------|---------------------------|
||o---------------------------|---------------------------|
||----------------------------|---------------------------|
|
|    E  E  E  E  E  E   E   E    E  E  E  E   E   E  E  E
||----------------------------|---------------------------|
||o---------------------------|---------------------------|
||----------------------------|---------------------------|
||----------------------------|---------------------------|
||o-10-10-10-10-10-10--10--10-|--8-10--8--8---8---8--8--8-|
||----------------------------|---------------------------|
|
|    H           E  E  +Q        H           +E   E  Q
||----------------------------|---------------------------|
||o----------------13-(13)----|-14----------(14)----------|
||----------------------------|------------------15-13----|
||----------------------------|---------------------------|
||o---------------------------|---------------------------|
||----------------------------|---------------------------|


                              Fm7
    E   E  E  E  E  E  E  E    E  E  E  E  E  E  E  E
    |   |  |  |  |  |  |  |    |  |  |  |  |  |  |  |
    /   /  /  /  /  /  /  /    /  /  /  /  /  /  /  /

    E   E  E  E  E  E  E  E    E  E  E  E  E  E  E  E  4x
|--16--------16-------16----|-16-------16-------16-----||
|------20-------20-------20-|----20-16----20-16----20-o||
|---------18-------18-------|--------------------------||
|---------------------------|--------------------------||
|---------------------------|-------------------------o||
|---------------------------|--------------------------||
|
|   E   E  E  E  E  E  E  E    E  E  E  E  E  E  E  E  4x
|---------------------------|--------------------------||
|---------------------------|-------------------------o||
|---------------------------|--------------------------||
|---------------------------|--------------------------||
|---------------------------|-11-10--8-11-10--8-11-10-o||
|---9---9--9--9--9--9--9--9-|--------------------------||
|
|  +H            Q     E  E    W                       4x
|---------------------------|--------------------------||
|------------------------11s|=13----------------------o||
|-(13)----------------------|--------------------------||
|---------------------------|--------------------------||
|---------------------------|-------------------------o||
|---------------------------|--------------------------||


 Bridge
  Gbmaj7                                Db                Fm
  E E E E E E E E    E  E E E E E E E   E E E E E E E E   E E E E E E E E
  | | | | | | | |    |  | | | | | | |   | | | | | | | |   | | | | | | | |
  / / / / / / / /    /  / / / / / / /   / / / / / / / /   / / / / / / / /

  Gtr IV
  W                 +W                  W                 W
|-1---------------|-(1)---------------|-1---------------|-1----------------|
|-2---------------|-(2)---------------|-2---------------|-1----------------|
|-3---------------|-(3)---------------|-1---------------|-1----------------|
|-----------------|-------------------|-----------------|------------------|
|-----------------|-------------------|-----------------|------------------|
|-----------------|-------------------|-----------------|------------------|
|
| E E E E E E E E    E  E E E E E E E   E E E E E E E E   E E E E E E E E
|-----------------|-------------------|-----------------|------------------|
|-----------------|-------------------|-----------------|------------------|
|-----------------|-------------------|-----------------|------------------|
|-----------------|-------------------|-----------------|------------------|
|-4-4-4-4-4-4-4-4-|--4--4-4-4-4-4-4-4-|-4-4-4-4-4-4-4-4-|-4-4-4-4-4-4-4-4--|
|-----------------|-------------------|-----------------|------------------|
|
| E E E E E E E E    E  E E E E E E E   E E E E E E E E   E E E E E E E E
|-----------------|-------------------|-----------------|------------------|
|-6-6-6-6-6-6-6-6-|--6--6-6-6-6-6-6-6-|-6-6-6-6-6-6-6-6-|-6-6-6-6-6-6-6-6--|
|-----------------|-------------------|-----------------|------------------|
|-----------------|-------------------|-----------------|------------------|
|-----------------|-------------------|-----------------|------------------|
|-----------------|-------------------|-----------------|------------------|


  Gbmaj7                                Db                Fm7
  E E E E E E E E    E  E E E E E E E   E E E E E E E E   E E E E E E E E
  | | | | | | | |    |  | | | | | | |   | | | | | | | |   | | | | | | | |
  / / / / / / / /    /  / / / / / / /   / / / / / / / /   / / / / / / / /

  W                 +W                  W                 W
|-1---------------|-(1)---------------|-1---------------|-1----------------|
|-2---------------|-(2)---------------|-2---------------|-1----------------|
|-3---------------|-(3)---------------|-1---------------|-1----------------|
|-----------------|-------------------|-----------------|------------------|
|-----------------|-------------------|-----------------|------------------|
|-----------------|-------------------|-----------------|------------------|
|
| E E E E E E E E    E  E E E E E E E   E E E E E E E E   E E E E E E E E
|-----------------|-------------------|-----------------|------------------|
|-----------------|-------------------|-----------------|------------------|
|-----------------|-------------------|-----------------|-5-5-5-5-5-5-5-5--|
|-----------------|-------------------|-----------------|------------------|
|-4-4-4-4-4-4-4-4-|--4--4-4-4-4-4-4-4-|-4-4-4-4-4-4-4-4-|-6-6-6-6-6-6-6-6--|
|-----------------|-------------------|-----------------|------------------|
|
|                                               >
| E E E E E E E E    E  E E E E E E E   E E E E E E E E   E E E E E E E E
|-----------------|-------------------|-----------------|------------------|
|-6-6-6-6-6-6-6-7-|--9--9-9-9-9-9-9-9-|-9-9-9-9-9-9-9-9-|-6-6-6-6-6-6-6-6--|
|-----------------|-------------------|-----------------|------------------|
|-----------------|-------------------|-----------------|------------------|
|-----------------|-------------------|-----------------|------------------|
|-----------------|-------------------|-----------------|------------------|


  Gbmaj7                                Db                Fm7
  E E E E E E E E    E  E E E E E E E   E E E E E E E E   E E E E E E E E
  | | | | | | | |    |  | | | | | | |   | | | | | | | |   | | | | | | | |
  / / / / / / / /    /  / / / / / / /   / / / / / / / /   / / / / / / / /

  W                 +W                  W                 W
|-1---------------|-(1)---------------|-1---------------|-1----------------|
|-2---------------|-(2)---------------|-2---------------|-1----------------|
|-3---------------|-(3)---------------|-1---------------|-1----------------|
|-----------------|-------------------|-----------------|------------------|
|-----------------|-------------------|-----------------|------------------|
|-----------------|-------------------|-----------------|------------------|
|
| E E E E E E E E    E  E E E E E E E   E E E E E E E E   E E E E E E E E
|-----------------|-------------------|-----------------|------------------|
|-----------------|-------------------|-----------------|------------------|
|-3-3-3-3-3-3-3-3-|--3--3-3-3-3-3-3-3-|-----------------|-5-5-5-5-5-5-5-5--|
|-----------------|-------------------|-3-3-3-3-3-3-3-3-|------------------|
|-4-4-4-4-4-4-4-4-|--4--4-4-4-4-4-4-4-|-4-4-4-4-4-4-4-4-|-6-6-6-6-6-6-6-6--|
|-----------------|-------------------|-----------------|------------------|
|
| E E E E E E E E    E  E E E E E E E   E E E E E E E E   E E E E E E E E
|-----------------|-------------------|-----------------|------------------|
|-6-6-6-6-6-6-6-7-|--9--9-9-9-9-9-9-9-|-9-9-9-9-9-9-9-9-|-6-6-6-6-6-6-6-6--|
|-----------------|-------------------|-----------------|------------------|
|-----------------|-------------------|-----------------|------------------|
|-----------------|-------------------|-----------------|------------------|
|-----------------|-------------------|-----------------|------------------|


  Gbmaj7
  E E E E E E E E    E  E E E E E E E
  | | | | | | | |    |  | | | | | | |
  / / / / / / / /    /  / / / / / / /

  W                 +W
|-1---------------|-(1)---------------|
|-2---------------|-(2)---------------|
|-3---------------|-(3)---------------|
|-----------------|-------------------|
|-----------------|-------------------|
|-----------------|-------------------|
|
| E E E E E E E E    E  E E E E E E E
|-----------------|-------------------|
|-----------------|-------------------|
|-----------------|-------------------|
|-----------------|-------------------|
|-4-4-4-4-4-4-4-4-|--4--4-4-4-4-4-4-4-|
|-----------------|-------------------|
|
| E E E E E E E E    E  E E E E E E E
|-----------------|-------------------|
|-----------------|--6--6-6-6-6-6-6-6-|
|-3-3-3-3-3-3-3-3-|-------------------|
|-----------------|-------------------|
|-----------------|-------------------|
|-----------------|-------------------|


   E  E E E E E E E    E  E E E E E E E
   |  | | | | | | |    |  | | | | | | |
   /  / / / / / / /    /  / / / / / / /

  +W                  +W
|-(1)---------------|-(1)----------------||
|-(2)---------------|-(2)----------------||
|-(3)---------------|-(3)----------------||
|-------------------|--------------------||
|-------------------|--------------------||
|-------------------|--------------------||
|
|  E  E E E E E E E    E  E E E E E E E
|-------------------|--------------------||
|-------------------|--------------------||
|-------------------|--------------------||
|-------------------|--------------------||
|--4--4-4-4-4-4-4-4-|--4--4-4-4-4-4-4-4--||
|-------------------|--------------------||
|
|  E  E E E E E E E    E  E E E E E E E
|-------------------|--------------------||
|-------------------|--6--6-6-6-6-6-6-6--||
|--3--3-3-3-3-3-3-3-|--------------------||
|-------------------|--------------------||
|-------------------|--------------------||
|-------------------|--------------------||


   Interlude
    (Eb)                      (Bbm)
    Gtr I
     E  E  E  E  E  E  E  E   E  E  E E  E  E E  E
||--11-------11-------11----|-9-------9-------9----|
||o----11-------11-------11-|---11------11------11-|
||--------12-------12-------|------10------10------|
||--------------------------|----------------------|
||o-------------------------|----------------------|
||--------------------------|----------------------|


                         Fm7
  E  E  E E  E  E E  E   E E  E E E  E E E
|-9-------9-------9----|-8------8------8----||
|---11------11------11-|---9------9------9-o||
|------10------10------|-----10-----10------||
|----------------------|--------------------||
|----------------------|-------------------o||
|----------------------|--------------------||


   Chorus
    Eb                        Bbm
     E  E  E  E  E  E  E  E    E  E  E  E  E  E  E  E
||--16-------16-------16----|-16-------16-------16----|
||o----20-------20-------20-|----20-------20-------20-|
||--------20-------20-------|-------18-------18-------|
||--------------------------|-------------------------|
||o-------------------------|-------------------------|
||--------------------------|-------------------------|
|
|   Gtr II
|    E  E  E  E  E  E  E  E    E  E  E  E  E  E  E  E
||--------------------------|-------------------------|
||o-------------------------|-------------------------|
||--------------------------|-------------------------|
||---8--8--8--8--8--8--8--8-|--8--8--8--8--8--8--8--8-|
||o-10-10-10-10-10-10-10-10-|--8--8--8--8--8--8--8--8-|
||--------------------------|-------------------------|
|
|   Gtr III
|    E  E  E  E  E  E  E  E    E  E  E  E  E  E  E  E
||--------------------------|-------------------------|
||o-------------------------|-------------------------|
||--------------------------|-------------------------|
||--------------------------|-------------------------|
||o-11-10-10-10-10-10-10-10-|--8-10--8--8--8--8--8--8-|
||--------------------------|-------------------------|


                            Fm7
   E  E  E  E  E  E  E  E    E  E  E  E  E  E  E  E  4x
|-16-------16-------16----|-16-------16-------16-----||
|----20-------20-------20-|----20-16----20-16----20-o||
|-------18-------18-------|--------------------------||
|-------------------------|--------------------------||
|-------------------------|-------------------------o||
|-------------------------|--------------------------||
|
|  E  E  E  E  E  E  E  E    E  E  E  E  E  E  E  E  4x
|-------------------------|--------------------------||
|-------------------------|-------------------------o||
|-------------------------|--------------------------||
|--8--8--8--8--8--8--8--8-|-10-10-10-10-10-10-10-10--||
|--8--8--8--8--8--8--8--8-|-11-11-11-11-11-11-11-11-o||
|--9--9--9--9--9--9--9--9-|--------------------------||
|
|  E  E  E  E  E  E  E  E    E  E  E  E  E  E  E  E  4x
|-------------------------|--------------------------||
|-------------------------|-------------------------o||
|-------------------------|--------------------------||
|-------------------------|--------------------------||
|-------------------------|-11-11-11-11-11-11-11-10-o||
|--9--9--9--9--9--9--9--9-|--------------------------||


   Outro
     E  E  E  E  E  E  E  E    E  E  E  E  E  E  E  E
||--16-------16-------16----|-16-------16-------16----|
||o----20-------20-------20-|----20-------20-------20-|
||--------20-------20-------|-------18-------18-------|
||--------------------------|-------------------------|
||o-------------------------|-------------------------|
||--------------------------|-------------------------|
|
|    E  E  E  E  E  E  E  E    E  E  E  E  E  E  E  E
||--------------------------|-------------------------|
||o-------------------------|-------------------------|
||--------------------------|-------------------------|
||--------------------------|-------------------------|
||o-11-10-10-10-10-10-10-10-|--8-10--8--8--8--8--8--8-|
||--------------------------|-------------------------|
|
|   Gtr V
|    E  E  E  E  E  E  E  E    E  E  E  E  E  E  E  E
||--------------------------|-------------------------|
||o-----------9--8----------|-----------9--8--6-------|
||---------8--------8-------|--------6-----------6----|
||------8--------------8----|-----8-----------------8-|
||o-10-------------------10-|--8----------------------|
||--------------------------|-------------------------|


   E  E  E  E  E  E  E  E    E  E  E  E  E  E  E  E  4x
|-16-------16-------16----|-16-------16-------16-----||
|----20-------20-------20-|----20-16----20-16----20-o||
|-------18-------18-------|--------------------------||
|-------------------------|--------------------------||
|-------------------------|-------------------------o||
|-------------------------|--------------------------||
|
|  E  E  E  E  E  E  E  E    E  E  E  E  E  E  E  E  4x
|-------------------------|--------------------------||
|-------------------------|-------------------------o||
|-------------------------|--------------------------||
|-------------------------|--------------------------||
|-------------------------|-11-11-11-11-11-11-11-10-o||
|--9--9--9--9--9--9--9--9-|--------------------------||
|
|  E  E  E  E  E  E  E  E    E  E  E  E  E  E  E  E  4x
|-------------------------|--------------------------||
|-----------9--8--6-------|-----------9--8----------o||
|--------6-----------6----|--------8--------8--------||
|-----8-----------------8-|----10-------------10-----||
|--8----------------------|-11-------------------11-o||
|-------------------------|--------------------------||


    Eb                        Bbm
     E  E  E  E  E  E  E  E    E  E  E  E  E  E  E  E
||--16-------16-------16----|-16-------16-------16----|
||o----20-------20-------20-|----20-------20-------20-|
||--------20-------20-------|-------18-------18-------|
||--------------------------|-------------------------|
||o-------------------------|-------------------------|
||--------------------------|-------------------------|
|
|   Gtr V
|    E  E  E  E  E  E  E  E    E  E  E  E  E  E  E  E
||--------------------------|-------------------------|
||o-----------9--8----------|-----------9--8--6-------|
||---------8--------8-------|--------6-----------6----|
||------8--------------8----|-----8-----------------8-|
||o-10-------------------10-|--8----------------------|
||--------------------------|-------------------------|


                            Fm7
   E  E  E  E  E  E  E  E    E  E  E  E  E  E  E  E  4x
|-16-------16-------16----|-16-------16-------16-----||
|----20-------20-------20-|----20-16----20-16----20-o||
|-------18-------18-------|--------------------------||
|-------------------------|--------------------------||
|-------------------------|-------------------------o||
|-------------------------|--------------------------||
|
|  E  E  E  E  E  E  E  E    E  E  E  E  E  E  E  E  4x
|-------------------------|--------------------------||
|-----------9--8--6-------|-----------9--8----------o||
|--------6-----------6----|--------8--------8--------||
|-----8-----------------8-|----10-------------10-----||
|--8----------------------|-11-------------------11-o||
|-------------------------|--------------------------||



Duration Legend
---------------
W - whole; H - half; Q - quarter; E - 8th; S - 16th; T - 32nd; X - 64th; a - acciaccatura
+ - note tied to previous; . - note dotted; .. - note double dotted
Uncapitalized letters represent notes that are staccato (1/2 duration)
Irregular groupings are notated above the duration line
Duration letters will always appear directly above the note/fret number it represents the
duration for.  Duration letters with no fret number below them represent rests.  Multi-
bar rests are notated in the form Wxn, where n is the number of bars to rest for.  Low
melody durations appear below the staff

Tablature Legend
----------------
 h   - hammer-on
 p   - pull-off
 b   - bend
 pb  - pre-bend
 r   - bend release (if no number after the r, then release immediately)
 /\  - slide into or out of (from/to "nowhere")
 s   - legato slide
 S   - shift slide
<n> - natural harmonic
[n]  - artificial harmonic
n(n) - tapped harmonic
 ~   - vibrato
 tr  - trill
 T   - tap
 TP  - trem. picking
 PM  - palm muting
\n/  - tremolo bar dip; n = amount to dip
 \n  - tremolo bar down
 n/  - tremolo bar up
/n\  - tremolo bar inverted dip
 =   - hold bend; also acts as connecting device for hammers/pulls
 <> - volume swell (louder/softer)
 x   - on rhythm slash represents muted slash
 o   - on rhythm slash represents single note slash

Misc Legend
-----------
 |  - bar
||  - double bar
||o - repeat start
o|| - repeat end
*|  - double bar (ending)
 :  - bar (freetime)
 $  - Segno
 &  - Coda
Tempo markers - <E/E./Q/Q./H/H.> = BPM(8/16=s8/s16), where s8 = swing 8ths, s16 = swing 16ths

comments
print report bad tab
1 comment total.
0 reply
Hoi Choi wrote on May 2 2009, 10:49 pm

U just copied version 2!!

I want to post or [tab]
guest
You may want to rate the tab now too:
select rating
Please do not post tabs as comments. Select "correction" instead!