Oops, an error
Loading. Please wait.

Daylight Bass Tab

ver2
ver2

Whole song

Interactive

More versions @911Tabs.com
1,475 views 3 this week
1 commentread comment
1 2 3 4 5
accurate
x 2
Autoscroll
+/-
esc
set tempo
stop
Contributor
Hey! There's an official Ultimate Guitar app which is ideal
for learning songs when you're away from computer. Get the app
WARNING: You are trying to view
                                    content from Ultimate-Guitar.com
                                    in an unauthorized application,
                                    which is prohibited.

                                    Please use an official Ultimate
                                    Guitar Tabs application for iPhone,
                                    iPad or Android to access legitimate
                                    chords, guitar, bass, and drum tabs
                                    from Ultimate-Guitar.com database.

                                    Type "ultimate guitar tabs" in Apple
                                    App Store's or Android Market's
                                    search to find the application.
#----------------------------------PLEASE NOTE---------------------------------#
#This file is the author's own work and represents their interpretation of the #
#song. You may only use this file for private study, scholarship, or research. #
#------------------------------------------------------------------------------#

DAYLIGHT (Bassline)
As recorded by Coldplay
(From the 2002 Album A RUSH OF BLOOD TO THE HEAD)


	



Gtr I (E A D G) - 'Bass'
Gtr II (E A D G C# C#) - 'Strings'
Gtr III (E A D G B E) - 'Vocals'

 Intro
  Q=132
 4/4
  Gtr II
                              \3                               \3
  Q  E Q  E Q    E E Q  Q  E +E    Q  E Q  E Q    E E Q  Q  E +E
|--------------|-----------------|--------------|------------------|
|--------------|-----------------|--------------|------------------|
|-3--3-4--4-6--|-6-9-9--9--9-(9)-|-3--3-4--4-6--|-6-9-9--9--9-(9)--|
|--------------|-----------------|--------------|------------------|
|--------------|-----------------|--------------|------------------|
|--------------|-----------------|--------------|------------------|


                              \3                               \3
  Q  E Q  E Q    E E Q  Q  E +E    Q  E Q  E Q    E E Q  Q  E +E
|--------------|-----------------|--------------|-----------------|
|--------------|-----------------|--------------|-----------------|
|-3--3-4--4-6--|-6-9-9--9--9-(9)-|-3--3-4--4-6--|-6-9-9--9--9-(9)-|
|--------------|-----------------|--------------|-----------------|
|--------------|-----------------|--------------|-----------------|
|--------------|-----------------|--------------|-----------------|


  Gtr I
  Q  Q   E Q.       Q    E  Q    E  Q       Q  Q   E Q.      W
|----------------|------------------------|----------------|-----------------|
|----------------|------------------------|----------------|-----------------|
|-7--7---7-7-----|-10---10-10---10-10-----|-9--9---9-9-----|-9---------------|
|----------------|------------------------|----------------|-----------------|
|
| Gtr II
|                                      \3                                 \3
| Q  E Q   E  Q     E E  Q    Q     E +E    Q  E Q   E  Q    E E Q  Q  E +E
|----------------|------------------------|----------------|-----------------|
|----------------|------------------------|----------------|-----------------|
|-3--3-4---4--6--|--6-9--9----9-----9-(9)-|-3--3-4---4--6--|-6-9-9--9--9-(9)-|
|----------------|------------------------|----------------|-----------------|
|----------------|------------------------|----------------|-----------------|
|----------------|------------------------|----------------|-----------------|


  Q  Q   E Q.       Q    E  Q    E  Q       Q  Q   E Q.      W
|----------------|------------------------|----------------|------------------||
|----------------|------------------------|----------------|------------------||
|-7--7---7-7-----|-10---10-10---10-10-----|-9--9---9-9-----|-9----------------||
|----------------|------------------------|----------------|------------------||
|
|                                      \3                                  \3
| Q  E Q   E  Q     E E  Q    Q     E +E    Q  E Q   E  Q    E E Q  Q   E +E
|----------------|------------------------|----------------|------------------||
|----------------|------------------------|----------------|------------------||
|-3--3-4---4--6--|--6-9--9----9-----9-(9)-|-3--3-4---4--6--|-6-9-9--9---9-(9)-||
|----------------|------------------------|----------------|------------------||
|----------------|------------------------|----------------|------------------||
|----------------|------------------------|----------------|------------------||
|
| Gtr III
| W                 W                       W                H      E E Q
|----------------|------------------------|----------------|----------2-2-----||
|----------------|------------------------|----------------|------------------||
|----------------|------------------------|----------------|------------------||
|----------------|------------------------|----------------|------------------||
|----------------|------------------------|----------------|------------------||
|----------------|------------------------|----------------|------------------||


 Verse
  Gtr III
  E Q.   +H       H.      +E  E   +H.      Q    H    E E E E
|-4-5----(5)----|-2-------(2)-2-|-(2)---------|--------2-2-4-|
|---------------|---------------|-------------|--------------|
|---------------|---------------|-------------|--------------|
|---------------|---------------|-------------|--------------|
|---------------|---------------|-------------|--------------|
|---------------|---------------|-------------|--------------|


  +W           W          +Q   H.        H    E E Q
|-(4)--------|-2--------|-(2)----------|--------2-2--|
|------------|----------|--------------|-------------|
|------------|----------|--------------|-------------|
|------------|----------|--------------|-------------|
|------------|----------|--------------|-------------|
|------------|----------|--------------|-------------|


  E Q.   +H       H.      +E  E   +H     +E  Q.     H    E E Q
|-4-5----(5)----|-2-------(2)-2-|-(2)----(2)------|--------2-2--|
|---------------|---------------|-----------------|-------------|
|---------------|---------------|-----------------|-------------|
|---------------|---------------|-----------------|-------------|
|---------------|---------------|-----------------|-------------|
|---------------|---------------|-----------------|-------------|


  H    +E  E E E   H.      +E  E   +H     H      H    E E E E
|-4----(4)-5-4-2-|-2-------(2)-2-|-(2)---------|--------2-2-4-|
|----------------|---------------|-------------|--------------|
|----------------|---------------|-------------|--------------|
|----------------|---------------|-------------|--------------|
|----------------|---------------|-------------|--------------|
|----------------|---------------|-------------|--------------|


  Gtr I
   H     E E E  E    H    E E E E   H      E E E E   H    E E E E
|--------9-9------|-------9-9-----|--------9-9-----|------9-9-----|
|------------9----|-----------9---|------------9---|----------9---|
|--7-----------10-|-10----------9-|-9------------9-|-9----------7-|
|-----------------|---------------|----------------|--------------|
|
| Gtr III
| +W                 W              E H.         E   H    E E E E
|-(4)-------------|--2------------|-2--------------|--------2-2-4-|
|-----------------|---------------|----------------|--------------|
|-----------------|---------------|----------------|--------------|
|-----------------|---------------|----------------|--------------|
|-----------------|---------------|----------------|--------------|
|-----------------|---------------|----------------|--------------|


  H    E E E  E    H     E E  E  E   +H     E E E E   H    E E E E
|------9-9------|--------9-9-------|--------9-9-----|------9-9-----|
|----------9----|-------------9----|------------9---|----------9---|
|-7----------10-|-10-------------9-|-(9)----------9-|-9----------7-|
|---------------|------------------|----------------|--------------|
|
| W                H.        +E  E   +H     H         H    E E E E
|-5-------------|--2---------(2)-2-|-(2)------------|--------2-2-4-|
|---------------|------------------|----------------|--------------|
|---------------|------------------|----------------|--------------|
|---------------|------------------|----------------|--------------|
|---------------|------------------|----------------|--------------|
|---------------|------------------|----------------|--------------|


  H    E E E  E    H     E E  E  E    H     E E E E   H    E E E E
|------9-9------|--------9-9-------|--------9-9-----|------9-9-----|
|----------9----|-------------9----|------------9---|----------9---|
|-7----------10-|-10-------------9-|--9-----------9-|-9----------7-|
|---------------|------------------|----------------|--------------|
|
| W                H.        +E  E   +H     H         H    E E E E
|-5-------------|--2---------(2)-2-|-(2)------------|--------2-2-0-|
|---------------|------------------|----------------|--------------|
|---------------|------------------|----------------|--------------|
|---------------|------------------|----------------|--------------|
|---------------|------------------|----------------|--------------|
|---------------|------------------|----------------|--------------|


  H     E  E E  E    H     E E E E    H     E E E E   H    E E E E
|-------9--9------|--------9-9-----|--------9-9-----|------9-9-----||
|------------9----|------------9---|------------9---|----------9---||
|-7------------10-|-10-----------9-|--9-----------9-|-9----------7-||
|-----------------|----------------|----------------|--------------||
|
| H    +E  E E  E   +H.        E E   +H     H         W
|-4----(4)-5-4--2-|-(2)----------2-|-(2)------------|--------------||
|-----------------|----------------|----------------|--------------||
|-----------------|----------------|----------------|--------------||
|-----------------|----------------|----------------|--------------||
|-----------------|----------------|----------------|--------------||
|-----------------|----------------|----------------|--------------||


 Chorus
  Gtr I
   Q   Q    E Q    E    +E   E Q     E   Q     E
|--------------------|---------------------------|
|--------------------|---------------------------|
|--------------------|---------------------------|
|--5---5----5-5----5-|--(5)--5-5-----5---5-----5-|
|
| Gtr II
|  E E E  E E E  E E     E   E E E   E   E  E  E
|----0------0------0-|---------0---------0-------|
|------0------0------|---0-------0----------0----|
|-13-----13-----13---|------13------13--------13-|
|--------------------|---------------------------|
|--------------------|---------------------------|
|--------------------|---------------------------|
|
| Gtr III
|  W                    +H          +E   E  E  E
|-16-----------------|-(16)--------(16)-16-14-16-|
|--------------------|---------------------------|
|--------------------|---------------------------|
|--------------------|---------------------------|
|--------------------|---------------------------|
|--------------------|---------------------------|


   Q    Q     E Q    E   +E   E Q    E Q    E
|----------------------|----------------------|
|----------------------|----------------------|
|--5----5-----5-5----5-|-(5)--5-5----5-5----5-|
|----------------------|----------------------|
|
|  E E  E   E E E  E E    E   E E E  E E E  E
|----0--------0------0-|--------0------0------|
|-------0-------0------|--0-------0------0----|
|-14-------14-----14---|-----14-----14-----14-|
|----------------------|----------------------|
|----------------------|----------------------|
|----------------------|----------------------|
|
|  Q    H.                W
|-14---14--------------|----------------------|
|----------------------|----------------------|
|----------------------|----------------------|
|----------------------|----------------------|
|----------------------|----------------------|
|----------------------|----------------------|


   Q   Q    E Q    E    +E   E Q     E   Q     E
|--------------------|---------------------------|
|--------------------|---------------------------|
|--9---9----9-9----9-|--(9)--9-9-----9---9-----9-|
|--------------------|---------------------------|
|
|  E E E  E E E  E E     E   E E E   E   E  E  E
|----0------0------0-|---------0---------0-------|
|------0------0------|---0-------0----------0----|
|-15-----15-----15---|------15------15--------15-|
|--------------------|---------------------------|
|--------------------|---------------------------|
|--------------------|---------------------------|
|
|  W                    +H          +E   E  E  E
|-14-----------------|-(14)--------(14)-14-12-14-|
|--------------------|---------------------------|
|--------------------|---------------------------|
|--------------------|---------------------------|
|--------------------|---------------------------|
|--------------------|---------------------------|


   Q    Q     E Q    E   +E   E Q    E Q    E
|----------------------|----------------------|
|----------------------|----------------------|
|----------------------|----------------------|
|--5----5-----5-5----5-|-(5)--5-5----5-5----5-|
|
|  E E  E   E E E  E E    E   E E E  E E E  E
|----0--------0------0-|--------0------0------|
|-------0-------0------|--0-------0------0----|
|-13-------13-----13---|-----13-----13-----13-|
|----------------------|----------------------|
|----------------------|----------------------|
|----------------------|----------------------|
|
|  Q    H.                W
|-12---12--------------|----------------------|
|----------------------|----------------------|
|----------------------|----------------------|
|----------------------|----------------------|
|----------------------|----------------------|
|----------------------|----------------------|


   Q   Q    E Q    E    +E   E Q     E   Q     E
|--------------------|---------------------------|
|--------------------|---------------------------|
|--------------------|---------------------------|
|--5---5----5-5----5-|--(5)--5-5-----5---5-----5-|
|
|  E E E  E E E  E E     E   E E E   E   E  E  E
|----0------0------0-|---------0---------0-------|
|------0------0------|---0-------0----------0----|
|-13-----13-----13---|------13------13--------13-|
|--------------------|---------------------------|
|--------------------|---------------------------|
|--------------------|---------------------------|
|
|  W                    +H          +E   E  E  E
|-16-----------------|-(16)--------(16)-16-14-16-|
|--------------------|---------------------------|
|--------------------|---------------------------|
|--------------------|---------------------------|
|--------------------|---------------------------|
|--------------------|---------------------------|


   Q     Q    E Q      E    +E   E Q    E Q    E
|-------------------------|----------------------|
|-------------------------|----------------------|
|--5-----5----5-5------5--|-(5)--5-5----5-5----5-|
|-------------------------|----------------------|
|
|  E  E  E  E E E  E   E     E   E E E  E E E  E
|-----0-------0--------0--|--------0------0------|
|--------0------0---------|--0-------0------0----|
|-14-------14-----14------|-----14-----14-----14-|
|-------------------------|----------------------|
|-------------------------|----------------------|
|-------------------------|----------------------|
|
|  E  H.              +E     W
|-14-14--------------(14)-|----------------------|
|-------------------------|----------------------|
|-------------------------|----------------------|
|-------------------------|----------------------|
|-------------------------|----------------------|
|-------------------------|----------------------|


   Q   Q    E Q    E    +E   E Q     E   Q     E
|--------------------|---------------------------|
|--------------------|---------------------------|
|--9---9----9-9----9-|--(9)--9-9-----9---9-----9-|
|--------------------|---------------------------|
|
|  E E E  E E E  E E     E   E E E   E   E  E  E
|----0------0------0-|---------0---------0-------|
|------0------0------|---0-------0----------0----|
|-15-----15-----15---|------15------15--------15-|
|--------------------|---------------------------|
|--------------------|---------------------------|
|--------------------|---------------------------|
|
|  W                    +H          +E   E  E  E
|-14-----------------|-(14)--------(14)-14-12-14-|
|--------------------|---------------------------|
|--------------------|---------------------------|
|--------------------|---------------------------|
|--------------------|---------------------------|
|--------------------|---------------------------|


    Q     Q     E Q    E   +E   E Q    E Q    E
|------------------------|----------------------|
|------------------------|----------------------|
|------------------------|----------------------|
|---5-----5-----5-5----5-|-(5)--5-5----5-5----5-|
|
|   E   E E   E E E  E E    E   E E E  E E E  E
|-------0-------0------0-|--------0------0------|
|---------0-------0------|--0-------0------0----|
|--16--------16-----16---|-----16-----16-----16-|
|------------------------|----------------------|
|------------------------|----------------------|
|------------------------|----------------------|
|
|  +E   E H.                W
|-(14)-12----------------|----------------------|
|------------------------|----------------------|
|------------------------|----------------------|
|------------------------|----------------------|
|------------------------|----------------------|
|------------------------|----------------------|


   Q    Q    E Q    E    +E  E Q      E   Q     E
|---------------------|---------------------------|
|--7----7----7-7----7-|--(7)-7-7------7---7-----7-|
|---------------------|---------------------------|
|---------------------|---------------------------|
|
|  E  E E E  E E E  E     E  E E  E   E   E  E  E
|-------0------0------|------0--------0---------0-|
|--0------0------0----|--------0----------0-------|
|----13-----13-----13-|--13------13---------13----|
|---------------------|---------------------------|
|---------------------|---------------------------|
|---------------------|---------------------------|
|
|  W                     +H          +E   E  E  E
|-16------------------|-(16)--------(16)-16-16-16-|
|---------------------|---------------------------|
|---------------------|---------------------------|
|---------------------|---------------------------|
|---------------------|---------------------------|
|---------------------|---------------------------|


    Q       Q     E Q    E   +E  E Q    E  Q     E
|--------------------------|-----------------------||
|--------------------------|-----------------------||
|---5-------5-----5-5----5-|-(5)-5-5----5--5-----5-||
|--------------------------|-----------------------||
|
|   E   E   E  E  E E E  E    E  E E  E E  E  E  E
|-----------0-------0------|-----0------0--------0-||
|---0----------0------0----|-------0-------0-------||
|------14--------14-----14-|-14------14------14----||
|--------------------------|-----------------------||
|--------------------------|-----------------------||
|--------------------------|-----------------------||
|
|  +E   E  +H.                H         Q.       E
|-(16)-14-(14)-------------|--------------------14-||
|--------------------------|-----------------------||
|--------------------------|-----------------------||
|--------------------------|-----------------------||
|--------------------------|-----------------------||
|--------------------------|-----------------------||


 Bridge
    W                 +W                  +W               +W
|-------------------|-------------------|----------------|-------------------|
|-------------------|-------------------|----------------|-------------------|
|---9---------------|-(9)---------------|-(9)------------|-(9)---------------|
|-------------------|-------------------|----------------|-------------------|
|
|                                    \3                                   \3
|   Q    E Q  E  Q     E  E Q  Q  E +E     Q   E Q  E Q     E  E Q  Q  E +E
|-------------------|-------------------|----------------|-------------------|
|-------------------|-------------------|----------------|-------------------|
|---3----3-4--4--6--|--6--9-9--9--9-(9)-|--3---3-4--4-6--|--6--9-9--9--9-(9)-|
|-------------------|-------------------|----------------|-------------------|
|-------------------|-------------------|----------------|-------------------|
|-------------------|-------------------|----------------|-------------------|
|
|  +E  H      Q.       W                   W                W
|-(14)--------------|-------------------|----------------|-------------------|
|-------------------|-------------------|----------------|-------------------|
|-------------------|-------------------|----------------|-------------------|
|-------------------|-------------------|----------------|-------------------|
|-------------------|-------------------|----------------|-------------------|
|-------------------|-------------------|----------------|-------------------|


  Q  Q   E Q.       Q    Q   E  Q.         Q  Q   E Q.      W
|----------------|-----------------------|----------------|-----------------|
|----------------|-----------------------|----------------|-----------------|
|-7--7---7-7-----|-10---10--10-10--------|-9--9---9-9-----|-9---------------|
|----------------|-----------------------|----------------|-----------------|
|
|                                     \3                                 \3
| Q  E Q   E  Q     E E  Q   Q     E +E    Q  E Q   E  Q    E E Q  Q  E +E
|----------------|-----------------------|----------------|-----------------|
|----------------|-----------------------|----------------|-----------------|
|-3--3-4---4--6--|--6-9--9---9-----9-(9)-|-3--3-4---4--6--|-6-9-9--9--9-(9)-|
|----------------|-----------------------|----------------|-----------------|
|----------------|-----------------------|----------------|-----------------|
|----------------|-----------------------|----------------|-----------------|


  Q  Q   E Q.       Q    Q   E  Q.         Q  Q   E Q.      W
|----------------|-----------------------|----------------|------------------||
|----------------|-----------------------|----------------|------------------||
|-7--7---7-7-----|-10---10--10-10--------|-9--9---9-9-----|-9----------------||
|----------------|-----------------------|----------------|------------------||
|
|                                     \3                                  \3
| Q  E Q   E  Q     E E  Q   Q     E +E    Q  E Q   E  Q    E E Q  Q   E +E
|----------------|-----------------------|----------------|------------------||
|----------------|-----------------------|----------------|------------------||
|-3--3-4---4--6--|--6-9--9---9-----9-(9)-|-3--3-4---4--6--|-6-9-9--9---9-(9)-||
|----------------|-----------------------|----------------|------------------||
|----------------|-----------------------|----------------|------------------||
|----------------|-----------------------|----------------|------------------||
|
| Gtr III
| W                 W                      W                H      E E E  E
|----------------|-----------------------|----------------|----------0-2--4--||
|----------------|-----------------------|----------------|------------------||
|----------------|-----------------------|----------------|------------------||
|----------------|-----------------------|----------------|------------------||
|----------------|-----------------------|----------------|------------------||
|----------------|-----------------------|----------------|------------------||


 Verse
  Gtr III
  E Q.   +H       H.      +E  E   +H.      Q    H    E E E E
|-4-5----(5)----|-2-------(2)-2-|-(2)---------|--------2-2-4-|
|---------------|---------------|-------------|--------------|
|---------------|---------------|-------------|--------------|
|---------------|---------------|-------------|--------------|
|---------------|---------------|-------------|--------------|
|---------------|---------------|-------------|--------------|


  +W           W          +Q   H.        H    E E Q
|-(4)--------|-2--------|-(2)----------|--------2-2--|
|------------|----------|--------------|-------------|
|------------|----------|--------------|-------------|
|------------|----------|--------------|-------------|
|------------|----------|--------------|-------------|
|------------|----------|--------------|-------------|


  Gtr I
  H       E  E E  E    +H     E E  E  E   +H      E  E  E E   +H     E E E E
|---------9--9------|---------9-9-------|---------9--9------|--------9-9-----|
|--------------9----|--------------9----|---------------9---|------------9---|
|-7--------------10-|-(10)------------9-|-(9)-------------9-|-(9)----------7-|
|-------------------|-------------------|-------------------|----------------|
|
| Gtr III
| E Q.   +H             H.        +E  E   +H     +E  Q.        H     E E Q
|-4-5----(5)--------|---2---------(2)-2-|-(2)----(2)--------|----------2-2---|
|-------------------|-------------------|-------------------|----------------|
|-------------------|-------------------|-------------------|----------------|
|-------------------|-------------------|-------------------|----------------|
|-------------------|-------------------|-------------------|----------------|
|-------------------|-------------------|-------------------|----------------|


  +H      E  E E  E    +H     E E  E  E   +H     E E E E   +H     E E E E
|---------9--9------|---------9-9-------|--------9-9-----|--------9-9-----|
|--------------9----|--------------9----|------------9---|------------9---|
|-(7)------------10-|-(10)------------9-|-(9)----------9-|-(9)----------7-|
|-------------------|-------------------|----------------|----------------|
|
|  H     +E  E E  E    +H.        +E  E   +H     H          H     E E E E
|--4-----(4)-5-4--2-|--(2)--------(2)-2-|-(2)------------|----------2-2-4-|
|-------------------|-------------------|----------------|----------------|
|-------------------|-------------------|----------------|----------------|
|-------------------|-------------------|----------------|----------------|
|-------------------|-------------------|----------------|----------------|
|-------------------|-------------------|----------------|----------------|


  +H       E E E  E    +H       E E E  E
|----------9-9------|-----------9-9-------|
|--------------9----|---------------9-----|
|-(7)------------10-|-(10)-------------9--|
|-------------------|---------------------|
|
| Gtr II
|                                      \3
|  Q   E Q   E Q        E  E Q  Q   E +E
|-------------------|---------------------|
|-------------------|---------------------|
|--3---3-4---4-6----|---6--9-9--9---9-(9)-|
|-------------------|---------------------|
|-------------------|---------------------|
|-------------------|---------------------|
|
| Gtr III
| +W                    W
|-(4)---------------|---2-----------------|
|-------------------|---------------------|
|-------------------|---------------------|
|-------------------|---------------------|
|-------------------|---------------------|
|-------------------|---------------------|


  +H        E E  E E   +H       E E E  E
|-----------9-9------|----------9-9-------|
|----------------9---|--------------9-----|
|-(9)--------------9-|-(9)-------------7--|
|--------------------|--------------------|
|
|                                      \3
|  Q    E Q   E  Q      E  E Q  Q   E +E
|--------------------|--------------------|
|--------------------|--------------------|
|--3----3-4---4--6---|--6--9-9--9---9-(9)-|
|--------------------|--------------------|
|--------------------|--------------------|
|--------------------|--------------------|
|
|  E  H       Q.        H       E E E  E
|--2-----------------|------------2-2--4--|
|--------------------|--------------------|
|--------------------|--------------------|
|--------------------|--------------------|
|--------------------|--------------------|
|--------------------|--------------------|


  +H       E E E  E    +H       E E  E   E
|----------9-9------|-----------9-9---------|
|--------------9----|----------------9------|
|-(7)------------10-|-(10)---------------9--|
|-------------------|-----------------------|
|
|                                        \3
|  Q   E Q   E Q        E  E Q  Q    E  +E
|-------------------|-----------------------|
|-------------------|-----------------------|
|--3---3-4---4-6----|---6--9-9--9----9--(9)-|
|-------------------|-----------------------|
|-------------------|-----------------------|
|-------------------|-----------------------|
|
|  W                    H.          +E   E
|--5----------------|---2-----------(2)--2--|
|-------------------|-----------------------|
|-------------------|-----------------------|
|-------------------|-----------------------|
|-------------------|-----------------------|
|-------------------|-----------------------|


  +H       E E E E   +H       E E E  E
|----------9-9-----|----------9-9-------|
|--------------9---|--------------9-----|
|-(9)------------9-|-(9)-------------7--|
|------------------|--------------------|
|
|                                    \3
|  Q   E Q   E Q      E  E Q  Q   E +E
|------------------|--------------------|
|------------------|--------------------|
|--3---3-4---4-6---|--6--9-9--9---9-(9)-|
|------------------|--------------------|
|------------------|--------------------|
|------------------|--------------------|
|
| +H       H          H       E E E  E
|-(2)--------------|------------2-2--4--|
|------------------|--------------------|
|------------------|--------------------|
|------------------|--------------------|
|------------------|--------------------|
|------------------|--------------------|


  +H       E E E  E    +H       E E  E   E
|----------9-9------|-----------9-9---------|
|--------------9----|----------------9------|
|-(7)------------10-|-(10)---------------9--|
|-------------------|-----------------------|
|
|                                        \3
|  Q   E Q   E Q        E  E Q  Q    E  +E
|-------------------|-----------------------|
|-------------------|-----------------------|
|--3---3-4---4-6----|---6--9-9--9----9--(9)-|
|-------------------|-----------------------|
|-------------------|-----------------------|
|-------------------|-----------------------|
|
|  W                    H.          +E   E
|--5----------------|---2-----------(2)--2--|
|-------------------|-----------------------|
|-------------------|-----------------------|
|-------------------|-----------------------|
|-------------------|-----------------------|
|-------------------|-----------------------|


  +H       E E E E   +H       E E E  E
|----------9-9-----|----------9-9-------|
|--------------9---|--------------9-----|
|-(9)------------9-|-(9)-------------7--|
|------------------|--------------------|
|
|                                    \3
|  Q   E Q   E Q      E  E Q  Q   E +E
|------------------|--------------------|
|------------------|--------------------|
|--3---3-4---4-6---|--6--9-9--9---9-(9)-|
|------------------|--------------------|
|------------------|--------------------|
|------------------|--------------------|
|
| +H       H          H       E E E  E
|-(2)--------------|------------2-2--0--|
|------------------|--------------------|
|------------------|--------------------|
|------------------|--------------------|
|------------------|--------------------|
|------------------|--------------------|


  +H        E  E E  E    +H       E E E  E
|-----------9--9------|-----------9-9-------|
|----------------9----|---------------9-----|
|-(7)--------------10-|-(10)-------------9--|
|---------------------|---------------------|
|
|                                        \3
|  Q   E Q     E Q        E  E Q  Q   E +E
|---------------------|---------------------|
|---------------------|---------------------|
|--3---3-4-----4-6----|---6--9-9--9---9-(9)-|
|---------------------|---------------------|
|---------------------|---------------------|
|---------------------|---------------------|
|
|  H       +E  E E  E    +H.          E  E
|--4-------(4)-5-4--2-|--(2)-------------2--|
|---------------------|---------------------|
|---------------------|---------------------|
|---------------------|---------------------|
|---------------------|---------------------|
|---------------------|---------------------|


  +H       E E E E   +H       E E E  E
|----------9-9-----|----------9-9-------||
|--------------9---|--------------9-----||
|-(9)------------9-|-(9)-------------7--||
|------------------|--------------------||
|
|                                    \3
|  Q   E Q   E Q      E  E Q  Q   E +E
|------------------|--------------------||
|------------------|--------------------||
|--3---3-4---4-6---|--6--9-9--9---9-(9)-||
|------------------|--------------------||
|------------------|--------------------||
|------------------|--------------------||
|
| +H       H          W
|-(2)--------------|--------------------||
|------------------|--------------------||
|------------------|--------------------||
|------------------|--------------------||
|------------------|--------------------||
|------------------|--------------------||


 Chorus
   Q   Q    E Q    E    +E   E Q     E   Q     E
|--------------------|---------------------------|
|--------------------|---------------------------|
|--------------------|---------------------------|
|--5---5----5-5----5-|--(5)--5-5-----5---5-----5-|
|
|  E E E  E E E  E E     E   E E E   E   E  E  E
|----0------0------0-|---------0---------0-------|
|------0------0------|---0-------0----------0----|
|-13-----13-----13---|------13------13--------13-|
|--------------------|---------------------------|
|--------------------|---------------------------|
|--------------------|---------------------------|
|
|  W                    +H          +E   E  E  E
|-16-----------------|-(16)--------(16)-16-14-16S|
|--------------------|---------------------------|
|--------------------|---------------------------|
|--------------------|---------------------------|
|--------------------|---------------------------|
|--------------------|---------------------------|


   Q    Q     E Q    E   +E   E Q    E Q    E
|----------------------|----------------------|
|----------------------|----------------------|
|--5----5-----5-5----5-|-(5)--5-5----5-5----5-|
|----------------------|----------------------|
|
|  E E  E   E E E  E E    E   E E E  E E E  E
|----0--------0------0-|--------0------0------|
|-------0-------0------|--0-------0------0----|
|-14-------14-----14---|-----14-----14-----14-|
|----------------------|----------------------|
|----------------------|----------------------|
|----------------------|----------------------|
|
|  Q    H.                W
|-14---14--------------|----------------------|
|----------------------|----------------------|
|----------------------|----------------------|
|----------------------|----------------------|
|----------------------|----------------------|
|----------------------|----------------------|


   Q   Q    E Q    E    +E   E Q     E   Q     E
|--------------------|---------------------------|
|--------------------|---------------------------|
|--9---9----9-9----9-|--(9)--9-9-----9---9-----9-|
|--------------------|---------------------------|
|
|  E E E  E E E  E E     E   E E E   E   E  E  E
|----0------0------0-|---------0---------0-------|
|------0------0------|---0-------0----------0----|
|-15-----15-----15---|------15------15--------15-|
|--------------------|---------------------------|
|--------------------|---------------------------|
|--------------------|---------------------------|
|
|  W                    +H          +E   E  E  E
|-14-----------------|-(14)--------(14)-14-12-14-|
|--------------------|---------------------------|
|--------------------|---------------------------|
|--------------------|---------------------------|
|--------------------|---------------------------|
|--------------------|---------------------------|


   Q    Q     E Q    E   +E   E Q    E Q    E
|----------------------|----------------------|
|----------------------|----------------------|
|----------------------|----------------------|
|--5----5-----5-5----5-|-(5)--5-5----5-5----5-|
|
|  E E  E   E E E  E E    E   E E E  E E E  E
|----0--------0------0-|--------0------0------|
|-------0-------0------|--0-------0------0----|
|-13-------13-----13---|-----13-----13-----13-|
|----------------------|----------------------|
|----------------------|----------------------|
|----------------------|----------------------|
|
|  Q    H.                W
|-12---12--------------|----------------------|
|----------------------|----------------------|
|----------------------|----------------------|
|----------------------|----------------------|
|----------------------|----------------------|
|----------------------|----------------------|


   Q   Q    E Q    E    +E   E Q     E   Q     E
|--------------------|---------------------------|
|--------------------|---------------------------|
|--------------------|---------------------------|
|--5---5----5-5----5-|--(5)--5-5-----5---5-----5-|
|
|  E E E  E E E  E E     E   E E E   E   E  E  E
|----0------0------0-|---------0---------0-------|
|------0------0------|---0-------0----------0----|
|-13-----13-----13---|------13------13--------13-|
|--------------------|---------------------------|
|--------------------|---------------------------|
|--------------------|---------------------------|
|
|  W                    +H          +E   E  E  E
|-16-----------------|-(16)--------(16)-16-14-16-|
|--------------------|---------------------------|
|--------------------|---------------------------|
|--------------------|---------------------------|
|--------------------|---------------------------|
|--------------------|---------------------------|


   Q     Q    E Q      E    +E   E Q    E Q    E
|-------------------------|----------------------|
|-------------------------|----------------------|
|--5-----5----5-5------5--|-(5)--5-5----5-5----5-|
|-------------------------|----------------------|
|
|  E  E  E  E E E  E   E     E   E E E  E E E  E
|-----0-------0--------0--|--------0------0------|
|--------0------0---------|--0-------0------0----|
|-14-------14-----14------|-----14-----14-----14-|
|-------------------------|----------------------|
|-------------------------|----------------------|
|-------------------------|----------------------|
|
|  E  H.              +E     W
|-14-14--------------(14)-|----------------------|
|-------------------------|----------------------|
|-------------------------|----------------------|
|-------------------------|----------------------|
|-------------------------|----------------------|
|-------------------------|----------------------|


   Q   Q    E Q    E    +E   E Q     E   Q     E
|--------------------|---------------------------|
|--------------------|---------------------------|
|--9---9----9-9----9-|--(9)--9-9-----9---9-----9-|
|--------------------|---------------------------|
|
|  E E E  E E E  E E     E   E E E   E   E  E  E
|----0------0------0-|---------0---------0-------|
|------0------0------|---0-------0----------0----|
|-15-----15-----15---|------15------15--------15-|
|--------------------|---------------------------|
|--------------------|---------------------------|
|--------------------|---------------------------|
|
|  W                    +H          +E   E  E  E
|-14-----------------|-(14)--------(14)-14-12-14-|
|--------------------|---------------------------|
|--------------------|---------------------------|
|--------------------|---------------------------|
|--------------------|---------------------------|
|--------------------|---------------------------|


    Q     Q     E Q    E   +E   E Q    E Q    E
|------------------------|----------------------|
|------------------------|----------------------|
|------------------------|----------------------|
|---5-----5-----5-5----5-|-(5)--5-5----5-5----5-|
|
|   E   E E   E E E  E E    E   E E E  E E E  E
|-------0-------0------0-|--------0------0------|
|---------0-------0------|--0-------0------0----|
|--16--------16-----16---|-----16-----16-----16-|
|------------------------|----------------------|
|------------------------|----------------------|
|------------------------|----------------------|
|
|  +E   E H.                W
|-(14)-12----------------|----------------------|
|------------------------|----------------------|
|------------------------|----------------------|
|------------------------|----------------------|
|------------------------|----------------------|
|------------------------|----------------------|


   Q    Q    E Q    E    +E  E Q      E   Q     E
|---------------------|---------------------------|
|--6----6----6-6----6-|--(6)-6-6------6---6-----6-|
|---------------------|---------------------------|
|---------------------|---------------------------|
|
|  E  E E E  E E E  E     E  E E  E   E   E  E  E
|-------0------0------|------0--------0---------0-|
|--0------0------0----|--------0----------0-------|
|----13-----13-----13-|--13------13---------13----|
|---------------------|---------------------------|
|---------------------|---------------------------|
|---------------------|---------------------------|
|
|  W                     +H          +E   E  E  E
|-16------------------|-(16)--------(16)-16-16-16-|
|---------------------|---------------------------|
|---------------------|---------------------------|
|---------------------|---------------------------|
|---------------------|---------------------------|
|---------------------|---------------------------|


    Q       Q     E Q    E   +E  E Q     E Q    E
|--------------------------|----------------------||
|--------------------------|----------------------||
|---5-------5-----5-5----5-|-(5)-5-5-----5-5----5-||
|--------------------------|----------------------||
|
|   E   E   E  E  E E E  E    E  E E  E  E E  E E
|-----------0-------0------|-----0-------0------0-||
|---0----------0------0----|-------0-------0------||
|------14--------14-----14-|-14------14------14---||
|--------------------------|----------------------||
|--------------------------|----------------------||
|--------------------------|----------------------||
|
|  +E   E  +H.                H          H
|-(16)-14-(14)-------------|------------14--------||
|--------------------------|----------------------||
|--------------------------|----------------------||
|--------------------------|----------------------||
|--------------------------|----------------------||
|--------------------------|----------------------||


 Interlude
   W           Wx3
|------------|--------|
|------------|--------|
|--9---------|--------|
|------------|--------|
|
|  >
|  W           Wx3
|--0---------|--------|
|--0---------|--------|
|-15---------|--------|
|------------|--------|
|------------|--------|
|------------|--------|
|
|  H    H      Wx3
|-14---------|--------|
|------------|--------|
|------------|--------|
|------------|--------|
|------------|--------|
|------------|--------|


  Gtr III
  Q  E Q  Q  E   +E  E Q  Q  Q    Q  E Q  Q  E   +E  E Q  Q  Q
|-2--2-2--2--2-|-(2)-2-2--2-----|-2--2-2--2--2-|-(2)-2-2--2-----|
|--------------|----------------|--------------|----------------|
|--------------|----------------|--------------|----------------|
|--------------|----------------|--------------|----------------|
|--------------|----------------|--------------|----------------|
|--------------|----------------|--------------|----------------|


  Q  E Q  Q  E   +E  E Q  Q  Q    Q  E Q  Q  E   +E  E Q  Q  Q
|-2--2-2--2--2-|-(2)-2-2--2-----|-2--2-2--2--2-|-(2)-2-2--2-----|
|--------------|----------------|--------------|----------------|
|--------------|----------------|--------------|----------------|
|--------------|----------------|--------------|----------------|
|--------------|----------------|--------------|----------------|
|--------------|----------------|--------------|----------------|


  Gtr I
  Q   E E  E E Q      E  H      +Q.      Q   E E  E E Q      E  H      +Q.
|-9----------------|-------------------|-9----------------|-------------------|
|----11-9-11-9-----|-------------------|----11-9-11-9-----|-------------------|
|--------------7---|--7--9------(9)----|--------------7---|--7--9------(9)----|
|------------------|-------------------|------------------|-------------------|
|
| Gtr III
| Q   E Q    Q   E   +E  E Q  Q     Q    Q   E Q    Q   E   +E  E Q  Q     Q
|-2---2-2----2---2-|-(2)-2-2--2--------|-2---2-2----2---2-|-(2)-2-2--2--------|
|------------------|-------------------|------------------|-------------------|
|------------------|-------------------|------------------|-------------------|
|------------------|-------------------|------------------|-------------------|
|------------------|-------------------|------------------|-------------------|
|------------------|-------------------|------------------|-------------------|


  Q   E E  E E Q      E  H      +Q.      Q   E E  E E Q      E  H      +Q.
|-9----------------|-------------------|-9----------------|-------------------|
|----11-9-11-9-----|-------------------|----11-9-11-9-----|-------------------|
|--------------7---|--7--9------(9)----|--------------7---|--7--9------(9)----|
|------------------|-------------------|------------------|-------------------|
|
| Q   E Q    Q   E   +E  E Q  Q     Q    Q   E Q    Q   E   +E  E Q  Q     Q
|-2---2-2----2---2-|-(2)-2-2--2--------|-2---2-2----2---2-|-(2)-2-2--2--------|
|------------------|-------------------|------------------|-------------------|
|------------------|-------------------|------------------|-------------------|
|------------------|-------------------|------------------|-------------------|
|------------------|-------------------|------------------|-------------------|
|------------------|-------------------|------------------|-------------------|


  Q   E E  E E Q      E  H      +Q.
|-9----------------|----------------------|
|----11-9-11-9-----|----------------------|
|--------------7---|--7--9------(9)-------|
|------------------|----------------------|
|
| Gtr II
|                                      \3
| Q   E Q    E Q      E  E Q  Q     E +E
|------------------|----------------------|
|------------------|----------------------|
|-3---3-4----4-6---|--6--9-9--9-----9-(9)-|
|------------------|----------------------|
|------------------|----------------------|
|------------------|----------------------|
|
| Gtr III
| Q   E Q    Q   E   +E  E Q  Q     Q
|-2---2-2----2---2-|-(2)-2-2--2-----------|
|------------------|----------------------|
|------------------|----------------------|
|------------------|----------------------|
|------------------|----------------------|
|------------------|----------------------|


  Q   E E  E E Q      E  H      +Q.
|-9----------------|----------------------|
|----11-9-11-9-----|----------------------|
|--------------7---|--7--9------(9)-------|
|------------------|----------------------|
|
|                                      \3
| Q   E Q    E Q      E  E Q  Q     E +E
|------------------|----------------------|
|------------------|----------------------|
|-3---3-4----4-6---|--6--9-9--9-----9-(9)-|
|------------------|----------------------|
|------------------|----------------------|
|------------------|----------------------|
|
| Q   E Q    Q   E   +E  E Q  Q     Q
|-2---2-2----2---2-|-(2)-2-2--2-----------|
|------------------|----------------------|
|------------------|----------------------|
|------------------|----------------------|
|------------------|----------------------|
|------------------|----------------------|


  Q   E E  E E Q      E  H      +Q.
|-9----------------|----------------------|
|----11-9-11-9-----|----------------------|
|--------------7---|--7--9------(9)-------|
|------------------|----------------------|
|
|                                      \3
| Q   E Q    E Q      E  E Q  Q     E +E
|------------------|----------------------|
|------------------|----------------------|
|-3---3-4----4-6---|--6--9-9--9-----9-(9)-|
|------------------|----------------------|
|------------------|----------------------|
|------------------|----------------------|
|
| Q   E Q    Q   E   +E  E Q  Q     Q
|-2---2-2----2---2-|-(2)-2-2--2-----------|
|------------------|----------------------|
|------------------|----------------------|
|------------------|----------------------|
|------------------|----------------------|
|------------------|----------------------|


  Q   E E  E E Q      E  H      +Q.
|-9----------------|----------------------|
|----11-9-11-9-----|----------------------|
|--------------7---|--7--9------(9)-------|
|------------------|----------------------|
|
|                                      \3
| Q   E Q    E Q      E  E Q  Q     E +E
|------------------|----------------------|
|------------------|----------------------|
|-3---3-4----4-6---|--6--9-9--9-----9-(9)-|
|------------------|----------------------|
|------------------|----------------------|
|------------------|----------------------|
|
| Q   E Q    Q   E   +E  E Q  Q     Q
|-2---2-2----2---2-|-(2)-2-2--2-----------|
|------------------|----------------------|
|------------------|----------------------|
|------------------|----------------------|
|------------------|----------------------|
|------------------|----------------------|


  Q   E E  E E Q      E  H      +Q.
|-9----------------|----------------------|
|----11-9-11-9-----|----------------------|
|--------------7---|--7--9------(9)-------|
|------------------|----------------------|
|
|                                      \3
| Q   E Q    E Q      E  E Q  Q     E +E
|------------------|----------------------|
|------------------|----------------------|
|-3---3-4----4-6---|--6--9-9--9-----9-(9)-|
|------------------|----------------------|
|------------------|----------------------|
|------------------|----------------------|
|
| Q   E Q    Q   E   +E  E Q  Q     Q
|-2---2-2----2---2-|-(2)-2-2--2-----------|
|------------------|----------------------|
|------------------|----------------------|
|------------------|----------------------|
|------------------|----------------------|
|------------------|----------------------|


  Q   E E  E E Q      E  H      +Q.
|-9----------------|----------------------|
|----11-9-11-9-----|----------------------|
|--------------7---|--7--9------(9)-------|
|------------------|----------------------|
|
|                                      \3
| Q   E Q    E Q      E  E Q  Q     E +E
|------------------|----------------------|
|------------------|----------------------|
|-3---3-4----4-6---|--6--9-9--9-----9-(9)-|
|------------------|----------------------|
|------------------|----------------------|
|------------------|----------------------|
|
| Q   E Q    Q   E   +E  E Q  Q     Q
|-2---2-2----2---2-|-(2)-2-2--2-----------|
|------------------|----------------------|
|------------------|----------------------|
|------------------|----------------------|
|------------------|----------------------|
|------------------|----------------------|


  Q   E E  E E Q      E  H      +Q.
|-9----------------|----------------------|
|----11-9-11-9-----|----------------------|
|--------------7---|--7--9------(9)-------|
|------------------|----------------------|
|
|                                      \3
| Q   E Q    E Q      E  E Q  Q     E +E
|------------------|----------------------|
|------------------|----------------------|
|-3---3-4----4-6---|--6--9-9--9-----9-(9)-|
|------------------|----------------------|
|------------------|----------------------|
|------------------|----------------------|
|
| Q   E Q    Q   E   +E  E Q  Q     Q
|-2---2-2----2---2-|-(2)-2-2--2-----------|
|------------------|----------------------|
|------------------|----------------------|
|------------------|----------------------|
|------------------|----------------------|
|------------------|----------------------|


  Q   E E  E E Q      E  H      +Q.
|-9----------------|----------------------|
|----11-9-11-9-----|----------------------|
|--------------7---|--7--9------(9)-------|
|------------------|----------------------|
|
|                                      \3
| Q   E Q    E Q      E  E Q  Q     E +E
|------------------|----------------------|
|------------------|----------------------|
|-3---3-4----4-6---|--6--9-9--9-----9-(9)-|
|------------------|----------------------|
|------------------|----------------------|
|------------------|----------------------|
|
| Q   E Q    Q   E   +E  E Q  Q     Q
|-2---2-2----2---2-|-(2)-2-2--2-----------|
|------------------|----------------------|
|------------------|----------------------|
|------------------|----------------------|
|------------------|----------------------|
|------------------|----------------------|


  Q   E E  E E Q      E  H      +Q.
|-9----------------|----------------------|
|----11-9-11-9-----|----------------------|
|--------------7---|--7--9------(9)-------|
|------------------|----------------------|
|
|                                      \3
| Q   E Q    E Q      E  E Q  Q     E +E
|------------------|----------------------|
|------------------|----------------------|
|-3---3-4----4-6---|--6--9-9--9-----9-(9)-|
|------------------|----------------------|
|------------------|----------------------|
|------------------|----------------------|
|
| Q   E Q    Q   E   +E  E Q  Q     Q
|-2---2-2----2---2-|-(2)-2-2--2-----------|
|------------------|----------------------|
|------------------|----------------------|
|------------------|----------------------|
|------------------|----------------------|
|------------------|----------------------|


  Q   E E  E E Q      E  H      +Q.
|-9----------------|----------------------|
|----11-9-11-9-----|----------------------|
|--------------7---|--7--9------(9)-------|
|------------------|----------------------|
|
|                                      \3
| Q   E Q    E Q      E  E Q  Q     E +E
|------------------|----------------------|
|------------------|----------------------|
|-3---3-4----4-6---|--6--9-9--9-----9-(9)-|
|------------------|----------------------|
|------------------|----------------------|
|------------------|----------------------|
|
| Q   E Q    Q   E   +E  E Q  Q     Q
|-2---2-2----2---2-|-(2)-2-2--2-----------|
|------------------|----------------------|
|------------------|----------------------|
|------------------|----------------------|
|------------------|----------------------|
|------------------|----------------------|


   Begin Fade
    Q   E E  E E Q      E  H      +Q.
||--9----------------|----------------------|
||o----11-9-11-9-----|----------------------|
||o--------------7---|--7--9------(9)-------|
||-------------------|----------------------|
|
|                                        \3
|   Q   E Q    E Q      E  E Q  Q     E +E
||-------------------|----------------------|
||o------------------|----------------------|
||--3---3-4----4-6---|--6--9-9--9-----9-(9)-|
||-------------------|----------------------|
||o------------------|----------------------|
||-------------------|----------------------|
|
|   Q   E Q    Q   E   +E  E Q  Q     Q
||--2---2-2----2---2-|-(2)-2-2--2-----------|
||o------------------|----------------------|
||-------------------|----------------------|
||-------------------|----------------------|
||o------------------|----------------------|
||-------------------|----------------------|


  Q   E E  E E Q      E  H      +Q.
|-9----------------|----------------------||
|----11-9-11-9-----|---------------------o||
|--------------7---|--7--9------(9)------o||
|------------------|----------------------||
|
|                                      \3
| Q   E Q    E Q      E  E Q  Q     E +E
|------------------|----------------------||
|------------------|---------------------o||
|-3---3-4----4-6---|--6--9-9--9-----9-(9)-||
|------------------|----------------------||
|------------------|---------------------o||
|------------------|----------------------||
|
| Q   E Q    Q   E   +E  E Q  Q     Q
|-2---2-2----2---2-|-(2)-2-2--2-----------||
|------------------|---------------------o||
|------------------|----------------------||
|------------------|----------------------||
|------------------|---------------------o||
|------------------|----------------------||



Duration Legend
---------------
W - whole; H - half; Q - quarter; E - 8th; S - 16th; T - 32nd; X - 64th; a - acciaccatura
+ - note tied to previous; . - note dotted; .. - note double dotted
Uncapitalized letters represent notes that are staccato (1/2 duration)
Irregular groupings are notated above the duration line
Duration letters will always appear directly above the note/fret number it represents the
duration for.  Duration letters with no fret number below them represent rests.  Multi-
bar rests are notated in the form Wxn, where n is the number of bars to rest for.  Low
melody durations appear below the staff

Tablature Legend
----------------
 h   - hammer-on
 p   - pull-off
 b   - bend
 pb  - pre-bend
 r   - bend release (if no number after the r, then release immediately)
 /\  - slide into or out of (from/to "nowhere")
 s   - legato slide
 S   - shift slide
 - natural harmonic
[n]  - artificial harmonic
n(n) - tapped harmonic
 ~   - vibrato
 tr  - trill
 T   - tap
 TP  - trem. picking
 PM  - palm muting
\n/  - tremolo bar dip; n = amount to dip
 \n  - tremolo bar down
 n/  - tremolo bar up
/n\  - tremolo bar inverted dip
 =   - hold bend; also acts as connecting device for hammers/pulls
 <> - volume swell (louder/softer)
 x   - on rhythm slash represents muted slash
 o   - on rhythm slash represents single note slash

Misc Legend
-----------
 |  - bar
||  - double bar
||o - repeat start
o|| - repeat end
*|  - double bar (ending)
 :  - bar (freetime)
 $  - Segno
 &  - Coda
Tempo markers -  = BPM(8/16=s8/s16), where s8 = swing 8ths, s16 = swing 16ths

comments
We did not receive enough feedback on this tab! Please rate:
print report bad tab
1 2 3 4 5
1 comment total.
0 reply
Coolpix56 wrote on February 2 2010, 06:39 pm

Damn, great tab. Thanks man!

I want to post or [tab]
guest
You may want to rate the tab now too:
select rating
Please do not post tabs as comments. Select "correction" instead!