Oops, an error
Loading. Please wait.

Daylight Tab

ver2
ver2

Whole song

More versions @911Tabs.com
1,572 views 1 this week
no commentswrite comment
1 2 3 4 5
please rate
Autoscroll
+/-
esc
set tempo
stop
Contributor
WARNING: You are trying to view
                                    content from Ultimate-Guitar.com
                                    in an unauthorized application,
                                    which is prohibited.

                                    Please use an official Ultimate
                                    Guitar Tabs application for iPhone,
                                    iPad or Android to access legitimate
                                    chords, guitar, bass, and drum tabs
                                    from Ultimate-Guitar.com database.

                                    Type "ultimate guitar tabs" in Apple
                                    App Store's or Android Market's
                                    search to find the application.
#----------------------------------PLEASE NOTE---------------------------------#
#This file is the author's own work and represents their interpretation of the #
#song. You may only use this file for private study, scholarship, or research. #
#------------------------------------------------------------------------------#

DAYLIGHT
As recorded by Coldplay
(From the 2002 Album A RUSH OF BLOOD TO THE HEAD)


        



Gtr I (E A D G C# C#) - 'Overdriven'
Gtr II (E A D G B E) - 'Piano'
Gtr III (E A D G C# C#) - 'Overdriven 2'

 Intro
  Q=132
 4/4
  Gtr I
                                 \3                                  \3
  Q  E Q  E Q     E E Q   Q   E +E    Q  E Q  E Q     E E Q   Q   E +E
|---------------|-------------------|---------------|----------------------|
|---------------|-------------------|---------------|----------------------|
|-3--3-4--4-6---|-6-9-9---9---9-(9)-|-3--3-4--4-6---|-6-9-9---9---9-(9)----|
|---------------|-------------------|---------------|----------------------|
|---------------|-------------------|---------------|----------------------|
|---------------|-------------------|---------------|----------------------|
|
| Gtr II
| Q  E Q  E E E   E E E E E E E  E    Q  E Q  E E E   E E E E E E E  E
|----2----2---2-|-----2---2-2----2--|----2----2---2-|-----2---2-2----2-----|
|----2----2---2-|-----2---2-2----2--|----2----2---2-|-----2---2-2----2-----|
|------4----4---|-------4-----------|------4----4---|-------4--------------|
|---------------|-------------------|---------------|----------------------|
|---------------|-4-----------------|---------------|-4--------------------|
|-2-------------|---2---------2-----|-2-------------|---2---------2--------|


                                 \3                                    \3
  Q  E Q  E Q     E E Q   Q   E +E     Q   E Q  E Q     E E Q   Q   E +E
|---------------|-------------------|-----------------|---------------------|
|---------------|-------------------|-----------------|---------------------|
|-3--3-4--4-6---|-6-9-9---9---9-(9)-|--3---3-4--4-6---|-6-9-9---9---9-(9)---|
|---------------|-------------------|-----------------|---------------------|
|---------------|-------------------|-----------------|---------------------|
|---------------|-------------------|-----------------|---------------------|
|
| Q  E Q  E E E   E E E E E E E  E     Q   E Q  E E E   E E E E E E E  E
|----2----2---2-|-----2---2-2----2--|-(2)--2----2---2-|-----2---2-2----2----|
|----2----2---2-|-----2---2-2----2--|-(2)--2----2---2-|-----2---2-2----2----|
|------4----4---|-------4-----------|--------4----4---|-------4-------------|
|---------------|-------------------|-----------------|---------------------|
|---------------|-4-----------------|-----------------|-4-------------------|
|-2-------------|---2---------2-----|--2--------------|---2---------2-------|


                                  \3                                  \3
  Q  E Q   E Q     E E Q   Q   E +E    Q  E Q  E Q     E E Q   Q   E +E
|----------------|-------------------|---------------|---------------------|
|----------------|-------------------|---------------|---------------------|
|-3--3-4---4-6---|-6-9-9---9---9-(9)-|-3--3-4--4-6---|-6-9-9---9---9-(9)---|
|----------------|-------------------|---------------|---------------------|
|----------------|-------------------|---------------|---------------------|
|----------------|-------------------|---------------|---------------------|
|
| Q  E E E E E E   Q   E E E E E  E    Q  E Q  E E E   E E E E E E E  E
|----------------|-------------------|----2----2---2-|-----2---2-2----2----|
|----2---2-2---2-|-----3---3-3----3--|----2----2---2-|-----2---2-2----2----|
|----1---1-1---1-|-----0---0-0----0--|---------------|-------4-------------|
|----------------|-------------------|------4----4---|---------------------|
|----------------|-------------------|---------------|-4-------------------|
|-0----0-----0---|-3-----3-----3-----|-2-------------|---2---------2-------|


                                  \3                                  \3
  Q  E Q   E Q     E E Q   Q   E +E    Q  E Q  E Q     E E Q   Q   E +E
|----------------|-------------------|---------------|---------------------||
|----------------|-------------------|---------------|---------------------||
|-3--3-4---4-6---|-6-9-9---9---9-(9)-|-3--3-4--4-6---|-6-9-9---9---9-(9)---||
|----------------|-------------------|---------------|---------------------||
|----------------|-------------------|---------------|---------------------||
|----------------|-------------------|---------------|---------------------||
|
| Q  E E E E E E   Q   E E E E E  E    Q  E Q  E E E   E E E E E E E  E
|----------------|-------------------|----2----2---2-|-----2---2-2----2----||
|----2---2-2---2-|-----3---3-3----3--|----2----2---2-|-----2---2-2----2----||
|----1---1-1---1-|-----0---0-0----0--|---------------|-------4-------------||
|----------------|-------------------|------4----4---|---------------------||
|----------------|-------------------|---------------|-4-------------------||
|-0----0-----0---|-3-----3-----3-----|-2-------------|---2---------2-------||


 Verse
  Gtr II
  Q  E E E E E E   Q  E E E E E E   Q  E Q  E E E   E E E E E E E E
|----------------|----------------|----2----2---2-|-----2---2-2---2---|
|----2---2-2---2-|----3---3-3---3-|----2----2---2-|-----2---2-2---2---|
|----1---1-1---1-|----0---0-0---0-|---------------|-------4-----------|
|----------------|----------------|------4----4---|-------------------|
|----------------|----------------|---------------|-4-----------------|
|-0----0-----0---|-3----3-----3---|-2-------------|---2---------2-----|


  Q  E E E E E E   Q  E E E E E E   Q  E Q  E E E   E E E E E E E E
|----------------|----------------|----2----2---2-|-----2---2-2---2---|
|----2---2-2---2-|----3---3-3---3-|----2----2---2-|-----2---2-2---2---|
|----1---1-1---1-|----0---0-0---0-|---------------|-------4-----------|
|----------------|----------------|------4----4---|-------------------|
|----------------|----------------|---------------|-4-----------------|
|-0----0-----0---|-3----3-----3---|-2-------------|---2---------2-----|


  Q  E E E E E E   Q  E E E E E E   Q  E Q  E E E   E E E E E E E E
|----------------|----------------|----2----2---2-|-----2---2-2---2---|
|----2---2-2---2-|----3---3-3---3-|----2----2---2-|-----2---2-2---2---|
|----1---1-1---1-|----0---0-0---0-|---------------|-------4-----------|
|----------------|----------------|------4----4---|-------------------|
|----------------|----------------|---------------|-4-----------------|
|-0----0-----0---|-3----3-----3---|-2-------------|---2---------2-----|


  Q  E E E E E E   Q  E E E E E E   Q  E Q  E E E   E E E E E E E E
|----------------|----------------|----2----2---2-|-----2---2-2---2---|
|----2---2-2---2-|----3---3-3---3-|----2----2---2-|-----2---2-2---2---|
|----1---1-1---1-|----0---0-0---0-|---------------|-------4-----------|
|----------------|----------------|------4----4---|-------------------|
|----------------|----------------|---------------|-4-----------------|
|-0----0-----0---|-3----3-----3---|-2-------------|---2---------2-----|


  Q  E E E E E E   Q  E E E E E E   Q  E Q  E E E   E E E E E E E E
|----------------|----------------|----2----2---2-|-----2---2-2---2---|
|----2---2-2---2-|----3---3-3---3-|----2----2---2-|-----2---2-2---2---|
|----1---1-1---1-|----0---0-0---0-|---------------|-------4-----------|
|----------------|----------------|------4----4---|-------------------|
|----------------|----------------|---------------|-4-----------------|
|-0----0-----0---|-3----3-----3---|-2-------------|---2---------2-----|


  Q  E E E E E E   Q  E E E E E E   Q  E Q  E E E   E E E E E E E E
|----------------|----------------|----2----2---2-|-----2---2-2---2---|
|----2---2-2---2-|----3---3-3---3-|----2----2---2-|-----2---2-2---2---|
|----1---1-1---1-|----0---0-0---0-|---------------|-------4-----------|
|----------------|----------------|------4----4---|-------------------|
|----------------|----------------|---------------|-4-----------------|
|-0----0-----0---|-3----3-----3---|-2-------------|---2---------2-----|


  Q  E E E E E E   Q  E E E E E E   Q  E Q  E E E   E E E E E E E E
|----------------|----------------|----2----2---2-|-----2---2-2---2---|
|----2---2-2---2-|----3---3-3---3-|----2----2---2-|-----2---2-2---2---|
|----1---1-1---1-|----0---0-0---0-|---------------|-------4-----------|
|----------------|----------------|------4----4---|-------------------|
|----------------|----------------|---------------|-4-----------------|
|-0----0-----0---|-3----3-----3---|-2-------------|---2---------2-----|


  Q  E E E E E E   Q  E E E E E E   Q  E Q  E E E   E E E E E E E E
|----------------|----------------|----2----2---2-|-----2---2-2---2---||
|----2---2-2---2-|----3---3-3---3-|----2----2---2-|-----2---2-2---2---||
|----1---1-1---1-|----0---0-0---0-|---------------|-------4-----------||
|----------------|----------------|------4----4---|-------------------||
|----------------|----------------|---------------|-4-----------------||
|-0----0-----0---|-3----3-----3---|-2-------------|---2---------2-----||


 Chorus
  Gtr I
   E E E  E E E  E E   E  E E E  E E E  E
|----0------0------0-|------0------0------|
|------0------0------|-0------0------0----|
|-13-----13-----13---|---13-----13-----13-|
|--------------------|--------------------|
|--------------------|--------------------|
|--------------------|--------------------|
|
| Gtr II
|  Q   E  E E E  E E   Q    E E  E E E  E
|------5----5-5----5-|------5----5-5----5-|
|------5----5-5----5-|------5----5-5----5-|
|--------------------|--------------------|
|--7------7------7---|-7------7------7----|
|--------------------|--------------------|
|--5------5------5---|-5------5------5----|


   E E  E  E  E  E  E  E    E  E  E  E  E  E  E  E
|----0--------0--------0-|--------0--------0---------|
|-------0--------0-------|--0--------0--------0------|
|-14------14-------14----|----14-------14-------14---|
|------------------------|---------------------------|
|------------------------|---------------------------|
|------------------------|---------------------------|
|
|  Q    E  E  E  E  E  E    Q     E  E  E  E  E  E
|-------9-----9--9-----9-|--------9-----9--9-----9---|
|------------------------|---------------------------|
|------11----11-11----11-|-------11----11-11----11---|
|-12------12-------12----|-12-------12-------12------|
|------------------------|---------------------------|
|-10------10-------10----|-10-------10-------10------|


   E E E  E E E  E E   E  E E E  E E E  E
|----0------0------0-|------0------0------|
|------0------0------|-0------0------0----|
|-15-----15-----15---|---15-----15-----15-|
|--------------------|--------------------|
|--------------------|--------------------|
|--------------------|--------------------|
|
|  Q   E  E E E  E E   Q    E E  E E E  E
|------2----2-2----2-|------2----2-2----2-|
|------2----2-2----2-|------2----2-2----2-|
|--------------------|--------------------|
|--4------4------4---|-4------4------4----|
|--------------------|--------------------|
|--2------2------2---|-2------2------2----|


   E E E  E E E  E E   E  E E E  E E E  E
|----0------0------0-|------0------0--------|
|------0------0------|-0------0------0------|
|-13-----13-----13---|---13-----13-----13---|
|--------------------|----------------------|
|--------------------|----------------------|
|--------------------|----------------------|
|
|  Q   E  E E E  E E   Q    E E  E E E  E
|------5----5-5----5-|------5----5-5----5---|
|------5----5-5----5-|------5----5-5----5---|
|--------------------|----------------------|
|--7------7------7---|-7------7------7------|
|--------------------|----------------------|
|--5------5------5---|-5------5------5------|


   E E E  E E E  E E   E  E E E  E E E  E
|----0------0------0-|------0------0------|
|------0------0------|-0------0------0----|
|-13-----13-----13---|---13-----13-----13-|
|--------------------|--------------------|
|--------------------|--------------------|
|--------------------|--------------------|
|
|  Q   E  E E E  E E   Q    E E  E E E  E
|------5----5-5----5-|------5----5-5----5-|
|------5----5-5----5-|------5----5-5----5-|
|--------------------|--------------------|
|--7------7------7---|-7------7------7----|
|--------------------|--------------------|
|--5------5------5---|-5------5------5----|


   E E  E  E  E  E  E  E    E  E  E  E  E  E  E  E
|----0--------0--------0-|--------0--------0---------|
|-------0--------0-------|--0--------0--------0------|
|-14------14-------14----|----14-------14-------14---|
|------------------------|---------------------------|
|------------------------|---------------------------|
|------------------------|---------------------------|
|
|  Q    E  E  E  E  E  E    Q     E  E  E  E  E  E
|-------9-----9--9-----9-|--------9-----9--9-----9---|
|------------------------|---------------------------|
|------11----11-11----11-|-------11----11-11----11---|
|-12------12-------12----|-12-------12-------12------|
|------------------------|---------------------------|
|-10------10-------10----|-10-------10-------10------|


   E E E  E E E  E E   E  E E E  E E E  E
|----0------0------0-|------0------0------|
|------0------0------|-0------0------0----|
|-15-----15-----15---|---15-----15-----15-|
|--------------------|--------------------|
|--------------------|--------------------|
|--------------------|--------------------|
|
|  Q   E  E E E  E E   Q    E E  E E E  E
|------2----2-2----2-|------2----2-2----2-|
|------2----2-2----2-|------2----2-2----2-|
|--------------------|--------------------|
|--4------4------4---|-4------4------4----|
|--------------------|--------------------|
|--2------2------2---|-2------2------2----|


   E E E  E E E  E E   E  E E E  E E E  E
|----0------0------0-|------0------0--------|
|------0------0------|-0------0------0------|
|-16-----16-----16---|---16-----16-----16---|
|--------------------|----------------------|
|--------------------|----------------------|
|--------------------|----------------------|
|
|  Q   E  E E E  E E   Q    E E  E E E  E
|------5----5-5----5-|------5----5-5----5---|
|------5----5-5----5-|------5----5-5----5---|
|--------------------|----------------------|
|--7------7------7---|-7------7------7------|
|--------------------|----------------------|
|--5------5------5---|-5------5------5------|


  E  E E E  E E E  E    E E E  E E E  E E
|------0------0------|----0------0------0-|
|-0------0------0----|------0------0------|
|---13-----13-----13-|-13-----13-----13---|
|--------------------|--------------------|
|--------------------|--------------------|
|--------------------|--------------------|
|
| Q    E E  E E E  E    Q   E  E E E  E E
|------5----5-5----5-|------5----5-5----5-|
|------5----5-5----5-|------5----5-5----5-|
|--------------------|--------------------|
|-7------7------7----|--7------7------7---|
|--------------------|--------------------|
|-5------5------5----|--5------5------5---|


   E  E  E  E  E  E  E  E    E E  E  E  E  E  E  E
|--------0--------0-------|----0--------0--------0---||
|--0--------0--------0----|-------0--------0---------||
|----14-------14-------14-|-14------14-------14------||
|-------------------------|--------------------------||
|-------------------------|--------------------------||
|-------------------------|--------------------------||
|
|  Q     E  E  E  E  E  E    Q    E  E  E  E  E  E
|--------9-----9--9-----9-|-------9-----9--9-----9---||
|-------------------------|--------------------------||
|-------11----11-11----11-|------11----11-11----11---||
|-12-------12-------12----|-12------12-------12------||
|-------------------------|--------------------------||
|-10-------10-------10----|-10------10-------10------||


 Bridge
                                 \3                                  \3
  Q  E Q  E Q     E E Q   Q   E +E    Q  E Q  E Q     E E Q   Q   E +E
|---------------|-------------------|---------------|---------------------|
|---------------|-------------------|---------------|---------------------|
|-3--3-4--4-6---|-6-9-9---9---9-(9)-|-3--3-4--4-6---|-6-9-9---9---9-(9)---|
|---------------|-------------------|---------------|---------------------|
|---------------|-------------------|---------------|---------------------|
|---------------|-------------------|---------------|---------------------|
|
| Q  E Q  E E E   E E E E E E E  E    Q  E Q  E E E   E E E E E E E  E
|----2----2---2-|-----2---2-2----2--|----2----2---2-|-----2---2-2----2----|
|----2----2---2-|-----2---2-2----2--|----2----2---2-|-----2---2-2----2----|
|------4----4---|-------4-----------|------4----4---|-------4-------------|
|---------------|-------------------|---------------|---------------------|
|---------------|-4-----------------|---------------|-4-------------------|
|-2-------------|---2---------2-----|-2-------------|---2---------2-------|


                                  \3                                  \3
  Q  E Q   E Q     E E Q   Q   E +E    Q  E Q  E Q     E E Q   Q   E +E
|----------------|-------------------|---------------|---------------------|
|----------------|-------------------|---------------|---------------------|
|-3--3-4---4-6---|-6-9-9---9---9-(9)-|-3--3-4--4-6---|-6-9-9---9---9-(9)---|
|----------------|-------------------|---------------|---------------------|
|----------------|-------------------|---------------|---------------------|
|----------------|-------------------|---------------|---------------------|
|
| Q  E E E E E E   Q   E E E E E  E    Q  E Q  E E E   E E E E E E E  E
|----------------|-------------------|----2----2---2-|-----2---2-2----2----|
|----2---2-2---2-|-----3---3-3----3--|----2----2---2-|-----2---2-2----2----|
|----1---1-1---1-|-----0---0-0----0--|---------------|-------4-------------|
|----------------|-------------------|------4----4---|---------------------|
|----------------|-------------------|---------------|-4-------------------|
|-0----0-----0---|-3-----3-----3-----|-2-------------|---2---------2-------|


                                  \3                                  \3
  Q  E Q   E Q     E E Q   Q   E +E    Q  E Q  E Q     E E Q   Q   E +E
|----------------|-------------------|---------------|---------------------||
|----------------|-------------------|---------------|---------------------||
|-3--3-4---4-6---|-6-9-9---9---9-(9)-|-3--3-4--4-6---|-6-9-9---9---9-(9)---||
|----------------|-------------------|---------------|---------------------||
|----------------|-------------------|---------------|---------------------||
|----------------|-------------------|---------------|---------------------||
|
| Q  E E E E E E   Q   E E E E E  E    Q  E Q  E E E   E E E E E E E  E
|----------------|-------------------|----2----2---2-|-----2---2-2----2----||
|----2---2-2---2-|-----3---3-3----3--|----2----2---2-|-----2---2-2----2----||
|----1---1-1---1-|-----0---0-0----0--|---------------|-------4-------------||
|----------------|-------------------|------4----4---|---------------------||
|----------------|-------------------|---------------|-4-------------------||
|-0----0-----0---|-3-----3-----3-----|-2-------------|---2---------2-------||


 Verse
  Gtr II
  Q  E E E E E E   Q  E E E E E E   Q  E Q  E E E   E E E E E E E E
|----------------|----------------|----2----2---2-|-----2---2-2---2---|
|----2---2-2---2-|----3---3-3---3-|----2----2---2-|-----2---2-2---2---|
|----1---1-1---1-|----0---0-0---0-|---------------|-------4-----------|
|----------------|----------------|------4----4---|-------------------|
|----------------|----------------|---------------|-4-----------------|
|-0----0-----0---|-3----3-----3---|-2-------------|---2---------2-----|


  Q  E E E E E E   Q  E E E E E E   Q  E Q  E E E   E E E E E E E E
|----------------|----------------|----2----2---2-|-----2---2-2---2---|
|----2---2-2---2-|----3---3-3---3-|----2----2---2-|-----2---2-2---2---|
|----1---1-1---1-|----0---0-0---0-|---------------|-------4-----------|
|----------------|----------------|------4----4---|-------------------|
|----------------|----------------|---------------|-4-----------------|
|-0----0-----0---|-3----3-----3---|-2-------------|---2---------2-----|


  Q  E E E E E E   Q  E E E E E E   Q  E Q  E E E   E E E E E E E E
|----------------|----------------|----2----2---2-|-----2---2-2---2---|
|----2---2-2---2-|----3---3-3---3-|----2----2---2-|-----2---2-2---2---|
|----1---1-1---1-|----0---0-0---0-|---------------|-------4-----------|
|----------------|----------------|------4----4---|-------------------|
|----------------|----------------|---------------|-4-----------------|
|-0----0-----0---|-3----3-----3---|-2-------------|---2---------2-----|


  Q  E E E E E E   Q  E E E E E E   Q  E Q  E E E   E E E E E E E E
|----------------|----------------|----2----2---2-|-----2---2-2---2---|
|----2---2-2---2-|----3---3-3---3-|----2----2---2-|-----2---2-2---2---|
|----1---1-1---1-|----0---0-0---0-|---------------|-------4-----------|
|----------------|----------------|------4----4---|-------------------|
|----------------|----------------|---------------|-4-----------------|
|-0----0-----0---|-3----3-----3---|-2-------------|---2---------2-----|


  Gtr I
                                  \3                                  \3
  Q  E Q   E Q     E E Q   Q   E +E    Q  E Q  E Q     E E Q   Q   E +E
|----------------|-------------------|---------------|---------------------|
|----------------|-------------------|---------------|---------------------|
|-3--3-4---4-6---|-6-9-9---9---9-(9)-|-3--3-4--4-6---|-6-9-9---9---9-(9)---|
|----------------|-------------------|---------------|---------------------|
|----------------|-------------------|---------------|---------------------|
|----------------|-------------------|---------------|---------------------|
|
| Gtr II
| Q  E E E E E E   Q   E E E E E  E    Q  E Q  E E E   E E E E E E E  E
|----------------|-------------------|----2----2---2-|-----2---2-2----2----|
|----2---2-2---2-|-----3---3-3----3--|----2----2---2-|-----2---2-2----2----|
|----1---1-1---1-|-----0---0-0----0--|---------------|-------4-------------|
|----------------|-------------------|------4----4---|---------------------|
|----------------|-------------------|---------------|-4-------------------|
|-0----0-----0---|-3-----3-----3-----|-2-------------|---2---------2-------|


                                  \3                                  \3
  Q  E Q   E Q     E E Q   Q   E +E    Q  E Q  E Q     E E Q   Q   E +E
|----------------|-------------------|---------------|---------------------|
|----------------|-------------------|---------------|---------------------|
|-3--3-4---4-6---|-6-9-9---9---9-(9)-|-3--3-4--4-6---|-6-9-9---9---9-(9)---|
|----------------|-------------------|---------------|---------------------|
|----------------|-------------------|---------------|---------------------|
|----------------|-------------------|---------------|---------------------|
|
| Q  E E E E E E   Q   E E E E E  E    Q  E Q  E E E   E E E E E E E  E
|----------------|-------------------|----2----2---2-|-----2---2-2----2----|
|----2---2-2---2-|-----3---3-3----3--|----2----2---2-|-----2---2-2----2----|
|----1---1-1---1-|-----0---0-0----0--|---------------|-------4-------------|
|----------------|-------------------|------4----4---|---------------------|
|----------------|-------------------|---------------|-4-------------------|
|-0----0-----0---|-3-----3-----3-----|-2-------------|---2---------2-------|


                                  \3                                  \3
  Q  E Q   E Q     E E Q   Q   E +E    Q  E Q  E Q     E E Q   Q   E +E
|----------------|-------------------|---------------|---------------------|
|----------------|-------------------|---------------|---------------------|
|-3--3-4---4-6---|-6-9-9---9---9-(9)-|-3--3-4--4-6---|-6-9-9---9---9-(9)---|
|----------------|-------------------|---------------|---------------------|
|----------------|-------------------|---------------|---------------------|
|----------------|-------------------|---------------|---------------------|
|
| Q  E E E E E E   Q   E E E E E  E    Q  E Q  E E E   E E E E E E E  E
|----------------|-------------------|----2----2---2-|-----2---2-2----2----|
|----2---2-2---2-|-----3---3-3----3--|----2----2---2-|-----2---2-2----2----|
|----1---1-1---1-|-----0---0-0----0--|---------------|-------4-------------|
|----------------|-------------------|------4----4---|---------------------|
|----------------|-------------------|---------------|-4-------------------|
|-0----0-----0---|-3-----3-----3-----|-2-------------|---2---------2-------|


                                  \3                                  \3
  Q  E Q   E Q     E E Q   Q   E +E    Q  E Q  E Q     E E Q   Q   E +E
|----------------|-------------------|---------------|---------------------||
|----------------|-------------------|---------------|---------------------||
|-3--3-4---4-6---|-6-9-9---9---9-(9)-|-3--3-4--4-6---|-6-9-9---9---9-(9)---||
|----------------|-------------------|---------------|---------------------||
|----------------|-------------------|---------------|---------------------||
|----------------|-------------------|---------------|---------------------||
|
| Q  E E E E E E   Q   E E E E E  E    Q  E Q  E E E   E E E E E E E  E
|----------------|-------------------|----2----2---2-|-----2---2-2----2----||
|----2---2-2---2-|-----3---3-3----3--|----2----2---2-|-----2---2-2----2----||
|----1---1-1---1-|-----0---0-0----0--|---------------|-------4-------------||
|----------------|-------------------|------4----4---|---------------------||
|----------------|-------------------|---------------|-4-------------------||
|-0----0-----0---|-3-----3-----3-----|-2-------------|---2---------2-------||


 Chorus
   E E E  E E E  E E   E  E E E  E E E  E
|----0------0------0-|------0------0------|
|------0------0------|-0------0------0----|
|-13-----13-----13---|---13-----13-----13-|
|--------------------|--------------------|
|--------------------|--------------------|
|--------------------|--------------------|
|
|  Q   E  E E E  E E   Q    E E  E E E  E
|------5----5-5----5-|------5----5-5----5-|
|------5----5-5----5-|------5----5-5----5-|
|--------------------|--------------------|
|--7------7------7---|-7------7------7----|
|--------------------|--------------------|
|--5------5------5---|-5------5------5----|


   E E  E  E  E  E  E  E    E  E  E  E  E  E  E  E
|----0--------0--------0-|--------0--------0---------|
|-------0--------0-------|--0--------0--------0------|
|-14------14-------14----|----14-------14-------14---|
|------------------------|---------------------------|
|------------------------|---------------------------|
|------------------------|---------------------------|
|
|  Q    E  E  E  E  E  E    Q     E  E  E  E  E  E
|-------9-----9--9-----9-|--------9-----9--9-----9---|
|------------------------|---------------------------|
|------11----11-11----11-|-------11----11-11----11---|
|-12------12-------12----|-12-------12-------12------|
|------------------------|---------------------------|
|-10------10-------10----|-10-------10-------10------|


   E E E  E E E  E E   E  E E E  E E E  E
|----0------0------0-|------0------0------|
|------0------0------|-0------0------0----|
|-15-----15-----15---|---15-----15-----15-|
|--------------------|--------------------|
|--------------------|--------------------|
|--------------------|--------------------|
|
|  Q   E  E E E  E E   Q    E E  E E E  E
|------2----2-2----2-|------2----2-2----2-|
|------2----2-2----2-|------2----2-2----2-|
|--------------------|--------------------|
|--4------4------4---|-4------4------4----|
|--------------------|--------------------|
|--2------2------2---|-2------2------2----|


   E E E  E E E  E E   E  E E E  E E E  E
|----0------0------0-|------0------0--------|
|------0------0------|-0------0------0------|
|-13-----13-----13---|---13-----13-----13---|
|--------------------|----------------------|
|--------------------|----------------------|
|--------------------|----------------------|
|
|  Q   E  E E E  E E   Q    E E  E E E  E
|------5----5-5----5-|------5----5-5----5---|
|------5----5-5----5-|------5----5-5----5---|
|--------------------|----------------------|
|--7------7------7---|-7------7------7------|
|--------------------|----------------------|
|--5------5------5---|-5------5------5------|


   E E E  E E E  E E   E  E E E  E E E  E
|----0------0------0-|------0------0------|
|------0------0------|-0------0------0----|
|-13-----13-----13---|---13-----13-----13-|
|--------------------|--------------------|
|--------------------|--------------------|
|--------------------|--------------------|
|
|  Q   E  E E E  E E   Q    E E  E E E  E
|------5----5-5----5-|------5----5-5----5-|
|------5----5-5----5-|------5----5-5----5-|
|--------------------|--------------------|
|--7------7------7---|-7------7------7----|
|--------------------|--------------------|
|--5------5------5---|-5------5------5----|


   E E  E  E  E  E  E  E    E  E  E  E  E  E  E  E
|----0--------0--------0-|--------0--------0---------|
|-------0--------0-------|--0--------0--------0------|
|-14------14-------14----|----14-------14-------14---|
|------------------------|---------------------------|
|------------------------|---------------------------|
|------------------------|---------------------------|
|
|  Q    E  E  E  E  E  E    Q     E  E  E  E  E  E
|-------9-----9--9-----9-|--------9-----9--9-----9---|
|------------------------|---------------------------|
|------11----11-11----11-|-------11----11-11----11---|
|-12------12-------12----|-12-------12-------12------|
|------------------------|---------------------------|
|-10------10-------10----|-10-------10-------10------|


   E E E  E E E  E E   E  E E E  E E E  E
|----0------0------0-|------0------0------|
|------0------0------|-0------0------0----|
|-15-----15-----15---|---15-----15-----15-|
|--------------------|--------------------|
|--------------------|--------------------|
|--------------------|--------------------|
|
|  Q   E  E E E  E E   Q    E E  E E E  E
|------2----2-2----2-|------2----2-2----2-|
|------2----2-2----2-|------2----2-2----2-|
|--------------------|--------------------|
|--4------4------4---|-4------4------4----|
|--------------------|--------------------|
|--2------2------2---|-2------2------2----|


   E E E  E E E  E E   E  E E E  E E E  E
|----0------0------0-|------0------0--------|
|------0------0------|-0------0------0------|
|-16-----16-----16---|---16-----16-----16---|
|--------------------|----------------------|
|--------------------|----------------------|
|--------------------|----------------------|
|
|  Q   E  E E E  E E   Q    E E  E E E  E
|------5----5-5----5-|------5----5-5----5---|
|------5----5-5----5-|------5----5-5----5---|
|--------------------|----------------------|
|--7------7------7---|-7------7------7------|
|--------------------|----------------------|
|--5------5------5---|-5------5------5------|


  E  E E E  E E E  E    E E E  E E E  E E
|------0------0------|----0------0------0-|
|-0------0------0----|------0------0------|
|---13-----13-----13-|-13-----13-----13---|
|--------------------|--------------------|
|--------------------|--------------------|
|--------------------|--------------------|
|
| Q    E E  E E E  E    Q   E  E E E  E E
|------5----5-5----5-|------5----5-5----5-|
|------5----5-5----5-|------5----5-5----5-|
|--------------------|--------------------|
|-7------7------7----|--7------7------7---|
|--------------------|--------------------|
|-5------5------5----|--5------5------5---|


   E  E  E  E  E  E  E  E    E E  E  E  E  E  E  E
|--------0--------0-------|----0--------0--------0---||
|--0--------0--------0----|-------0--------0---------||
|----14-------14-------14-|-14------14-------14------||
|-------------------------|--------------------------||
|-------------------------|--------------------------||
|-------------------------|--------------------------||
|
|  Q     E  E  E  E  E  E    Q    E  E  E  E  E  E
|--------9-----9--9-----9-|-------9-----9--9-----9---||
|-------------------------|--------------------------||
|-------11----11-11----11-|------11----11-11----11---||
|-12-------12-------12----|-12------12-------12------||
|-------------------------|--------------------------||
|-10-------10-------10----|-10------10-------10------||


 Interlude
   >
   W               W                 W               W
|--0-------------|-----------------|---------------|-------------------|
|--0-------------|-----------------|---------------|-------------------|
|-15-------------|-----------------|---------------|-------------------|
|----------------|-----------------|---------------|-------------------|
|----------------|-----------------|---------------|-------------------|
|----------------|-----------------|---------------|-------------------|
|
|  Q  E Q  E E E   E E E E E E E E   Q  E Q  E E E   E E E E E E E E
|-----2----2---2-|-----2---2-2---2-|----2----2---2-|-----2---2-2---2---|
|-----2----2---2-|-----2---2-2---2-|----2----2---2-|-----2---2-2---2---|
|-------4----4---|-------4---------|------4----4---|-------4-----------|
|----------------|-----------------|---------------|-------------------|
|----------------|-4---------------|---------------|-4-----------------|
|--2-------------|---2---------2---|-2-------------|---2---------2-----|


  Gtr II
  Q  E E E E E E   Q  E E E E E E   Q  E Q  E E E   E E E E E E E E
|----------------|----------------|----2----2---2-|-----2---2-2---2---|
|----2---2-2---2-|----3---3-3---3-|----2----2---2-|-----2---2-2---2---|
|----1---1-1---1-|----0---0-0---0-|---------------|-------4-----------|
|----------------|----------------|------4----4---|-------------------|
|----------------|----------------|---------------|-4-----------------|
|-0----0-----0---|-3----3-----3---|-2-------------|---2---------2-----|


  Q  E E E E E E   Q  E E E E E E   Q  E Q  E E E   E E E E E E E E
|----------------|----------------|----2----2---2-|-----2---2-2---2---|
|----2---2-2---2-|----3---3-3---3-|----2----2---2-|-----2---2-2---2---|
|----1---1-1---1-|----0---0-0---0-|---------------|-------4-----------|
|----------------|----------------|------4----4---|-------------------|
|----------------|----------------|---------------|-4-----------------|
|-0----0-----0---|-3----3-----3---|-2-------------|---2---------2-----|


  Q  E E E E E E   Q  E E E E E E   Q  E Q  E E E   E E E E E E E E
|----------------|----------------|----2----2---2-|-----2---2-2---2---|
|----2---2-2---2-|----3---3-3---3-|----2----2---2-|-----2---2-2---2---|
|----1---1-1---1-|----0---0-0---0-|---------------|-------4-----------|
|----------------|----------------|------4----4---|-------------------|
|----------------|----------------|---------------|-4-----------------|
|-0----0-----0---|-3----3-----3---|-2-------------|---2---------2-----|


  Q  E E E E E E   Q  E E E E E E   Q  E Q  E E E   E E E E E E E E
|----------------|----------------|----2----2---2-|-----2---2-2---2---|
|----2---2-2---2-|----3---3-3---3-|----2----2---2-|-----2---2-2---2---|
|----1---1-1---1-|----0---0-0---0-|---------------|-------4-----------|
|----------------|----------------|------4----4---|-------------------|
|----------------|----------------|---------------|-4-----------------|
|-0----0-----0---|-3----3-----3---|-2-------------|---2---------2-----|


  Gtr I
                                  \3                                  \3
  Q  E Q   E Q     E E Q   Q   E +E    Q  E Q  E Q     E E Q   Q   E +E
|----------------|-------------------|---------------|---------------------|
|----------------|-------------------|---------------|---------------------|
|-3--3-4---4-6---|-6-9-9---9---9-(9)-|-3--3-4--4-6---|-6-9-9---9---9-(9)---|
|----------------|-------------------|---------------|---------------------|
|----------------|-------------------|---------------|---------------------|
|----------------|-------------------|---------------|---------------------|
|
| Gtr II
| Q  E E E E E E   Q   E E E E E  E    Q  E Q  E E E   E E E E E E E  E
|----------------|-------------------|----2----2---2-|-----2---2-2----2----|
|----2---2-2---2-|-----3---3-3----3--|----2----2---2-|-----2---2-2----2----|
|----1---1-1---1-|-----0---0-0----0--|---------------|-------4-------------|
|----------------|-------------------|------4----4---|---------------------|
|----------------|-------------------|---------------|-4-------------------|
|-0----0-----0---|-3-----3-----3-----|-2-------------|---2---------2-------|


                                  \3                                  \3
  Q  E Q   E Q     E E Q   Q   E +E    Q  E Q  E Q     E E Q   Q   E +E
|----------------|-------------------|---------------|---------------------|
|----------------|-------------------|---------------|---------------------|
|-3--3-4---4-6---|-6-9-9---9---9-(9)-|-3--3-4--4-6---|-6-9-9---9---9-(9)---|
|----------------|-------------------|---------------|---------------------|
|----------------|-------------------|---------------|---------------------|
|----------------|-------------------|---------------|---------------------|
|
| Q  E E E E E E   Q   E E E E E  E    Q  E Q  E E E   E E E E E E E  E
|----------------|-------------------|----2----2---2-|-----2---2-2----2----|
|----2---2-2---2-|-----3---3-3----3--|----2----2---2-|-----2---2-2----2----|
|----1---1-1---1-|-----0---0-0----0--|---------------|-------4-------------|
|----------------|-------------------|------4----4---|---------------------|
|----------------|-------------------|---------------|-4-------------------|
|-0----0-----0---|-3-----3-----3-----|-2-------------|---2---------2-------|


                                  \3                                  \3
  Q  E Q   E Q     E E Q   Q   E +E    Q  E Q  E Q     E E Q   Q   E +E
|----------------|-------------------|---------------|---------------------|
|----------------|-------------------|---------------|---------------------|
|-3--3-4---4-6---|-6-9-9---9---9-(9)-|-3--3-4--4-6---|-6-9-9---9---9-(9)---|
|----------------|-------------------|---------------|---------------------|
|----------------|-------------------|---------------|---------------------|
|----------------|-------------------|---------------|---------------------|
|
| Q  E E E E E E   Q   E E E E E  E    Q  E Q  E E E   E E E E E E E  E
|----------------|-------------------|----2----2---2-|-----2---2-2----2----|
|----2---2-2---2-|-----3---3-3----3--|----2----2---2-|-----2---2-2----2----|
|----1---1-1---1-|-----0---0-0----0--|---------------|-------4-------------|
|----------------|-------------------|------4----4---|---------------------|
|----------------|-------------------|---------------|-4-------------------|
|-0----0-----0---|-3-----3-----3-----|-2-------------|---2---------2-------|


                                  \3                                  \3
  Q  E Q   E Q     E E Q   Q   E +E    Q  E Q  E Q     E E Q   Q   E +E
|----------------|-------------------|---------------|---------------------|
|----------------|-------------------|---------------|---------------------|
|-3--3-4---4-6---|-6-9-9---9---9-(9)-|-3--3-4--4-6---|-6-9-9---9---9-(9)---|
|----------------|-------------------|---------------|---------------------|
|----------------|-------------------|---------------|---------------------|
|----------------|-------------------|---------------|---------------------|
|
| Q  E E E E E E   Q   E E E E E  E    Q  E Q  E E E   E E E E E E E  E
|----------------|-------------------|----2----2---2-|-----2---2-2----2----|
|----2---2-2---2-|-----3---3-3----3--|----2----2---2-|-----2---2-2----2----|
|----1---1-1---1-|-----0---0-0----0--|---------------|-------4-------------|
|----------------|-------------------|------4----4---|---------------------|
|----------------|-------------------|---------------|-4-------------------|
|-0----0-----0---|-3-----3-----3-----|-2-------------|---2---------2-------|


                                               \3
   Q   E  Q    E Q        E   E  Q    Q     E +E
|---------------------|---------------------------|
|---------------------|---------------------------|
|--3---3--4----4-6----|---6---9--9----9-----9-(9)-|
|---------------------|---------------------------|
|---------------------|---------------------------|
|---------------------|---------------------------|
|
| Gtr III
|  Q   E  Q    Q    E    +E   E  Q    E  E  E  E
|-12--10-12---10---12-|-(12)-10-13---12-10-10-10--|
|-12--10-12---10---12-|-(12)-10-13---12-10-10-10--|
|---------------------|---------------------------|
|---------------------|---------------------------|
|---------------------|---------------------------|
|---------------------|---------------------------|
|
| Gtr II
|  Q   E  E E  E E  E     Q      E E  E  E  E  E
|---------------------|---------------------------|
|------2----2--2----2-|----------3----3--3-----3--|
|------1----1--1----1-|----------0----0--0-----0--|
|---------------------|---------------------------|
|---------------------|---------------------------|
|--0------0------0----|---3--------3--------3-----|


                                              \3
   Q   E  Q   E Q        E   E  Q    Q     E +E
|--------------------|-----------------------------|
|--------------------|-----------------------------|
|--3---3--4---4-6----|---6---9--9----9-----9-(9)---|
|--------------------|-----------------------------|
|--------------------|-----------------------------|
|--------------------|-----------------------------|
|
|  Q   E  Q   Q    E    +E   E  Q    E  E  E  E
|-12--10-12--10---12-|-(12)-10-13---12-10-10-10----|
|-12--10-12--10---12-|-(12)-10-13---12-10-10-10----|
|--------------------|-----------------------------|
|--------------------|-----------------------------|
|--------------------|-----------------------------|
|--------------------|-----------------------------|
|
|  Q   E  Q   E E  E     E   E  E E  E  E  E  E
|------2------2----2-|----------2----2--2-----2----|
|------2------2----2-|----------2----2--2-----2----|
|--------------------|------------4----------------|
|---------4-----4----|-----------------------------|
|--------------------|---4-------------------------|
|--2-----------------|-------2-------------2-------|


   Begin Fade
                                                 \3
     Q   E  Q    E Q        E   E  Q    Q     E +E
||----------------------|---------------------------|
||o---------------------|---------------------------|
||---3---3--4----4-6----|---6---9--9----9-----9-(9)-|
||----------------------|---------------------------|
||o---------------------|---------------------------|
||----------------------|---------------------------|
|
|    Q   E  Q    Q    E    +E   E  Q    E  E  E  E
||--12--10-12---10---12-|-(12)-10-13---12-10-10-10--|
||o-12--10-12---10---12-|-(12)-10-13---12-10-10-10--|
||----------------------|---------------------------|
||----------------------|---------------------------|
||o---------------------|---------------------------|
||----------------------|---------------------------|
|
|    Q   E  E E  E E  E     Q      E E  E  E  E  E
||----------------------|---------------------------|
||o------2----2--2----2-|----------3----3--3-----3--|
||-------1----1--1----1-|----------0----0--0-----0--|
||----------------------|---------------------------|
||o---------------------|---------------------------|
||---0------0------0----|---3--------3--------3-----|


                                              \3
   Q   E  Q   E Q        E   E  Q    Q     E +E
|--------------------|-----------------------------||
|--------------------|----------------------------o||
|--3---3--4---4-6----|---6---9--9----9-----9-(9)---||
|--------------------|-----------------------------||
|--------------------|----------------------------o||
|--------------------|-----------------------------||
|
|  Q   E  Q   Q    E    +E   E  Q    E  E  E  E
|-12--10-12--10---12-|-(12)-10-13---12-10-10-10----||
|-12--10-12--10---12-|-(12)-10-13---12-10-10-10---o||
|--------------------|-----------------------------||
|--------------------|-----------------------------||
|--------------------|----------------------------o||
|--------------------|-----------------------------||
|
|  Q   E  Q   E E  E     E   E  E E  E  E  E  E
|------2------2----2-|----------2----2--2-----2----||
|------2------2----2-|----------2----2--2-----2---o||
|--------------------|------------4----------------||
|---------4-----4----|-----------------------------||
|--------------------|---4------------------------o||
|--2-----------------|-------2-------------2-------||



Duration Legend
---------------
W - whole; H - half; Q - quarter; E - 8th; S - 16th; T - 32nd; X - 64th; a - acciaccatura
+ - note tied to previous; . - note dotted; .. - note double dotted
Uncapitalized letters represent notes that are staccato (1/2 duration)
Irregular groupings are notated above the duration line
Duration letters will always appear directly above the note/fret number it represents the
duration for.  Duration letters with no fret number below them represent rests.  Multi-
bar rests are notated in the form Wxn, where n is the number of bars to rest for.  Low
melody durations appear below the staff

Tablature Legend
----------------
 h   - hammer-on
 p   - pull-off
 b   - bend
 pb  - pre-bend
 r   - bend release (if no number after the r, then release immediately)
 /\  - slide into or out of (from/to "nowhere")
 s   - legato slide
 S   - shift slide
 - natural harmonic
[n]  - artificial harmonic
n(n) - tapped harmonic
 ~   - vibrato
 tr  - trill
 T   - tap
 TP  - trem. picking
 PM  - palm muting
\n/  - tremolo bar dip; n = amount to dip
 \n  - tremolo bar down
 n/  - tremolo bar up
/n\  - tremolo bar inverted dip
 =   - hold bend; also acts as connecting device for hammers/pulls
 <> - volume swell (louder/softer)
 x   - on rhythm slash represents muted slash
 o   - on rhythm slash represents single note slash

Misc Legend
-----------
 |  - bar
||  - double bar
||o - repeat start
o|| - repeat end
*|  - double bar (ending)
 :  - bar (freetime)
 $  - Segno
 &  - Coda
Tempo markers -  = BPM(8/16=s8/s16), where s8 = swing 8ths, s16 = swing 16ths

comments
We did not receive enough feedback on this tab! Please rate:
print report bad tab
1 2 3 4 5
I want to post or [tab]
guest
You may want to rate the tab now too:
select rating
Please do not post tabs as comments. Select "correction" instead!