Oops, an error
Loading. Please wait.

Hardest Part Tab

ver2
ver2

Solo

Whole song

Interactive

More versions @911Tabs.com
9,544 views 39 this week
1 commentread comment
1 2 3 4 5
accurate
x 5
add to favorites launch autoscroll
font size
0
reset
Autoscroll
+/-
esc
set tempo
stop
Contributor
Difficulty
intermediate
WARNING: You are trying to view
                                    content from Ultimate-Guitar.com
                                    in an unauthorized application,
                                    which is prohibited.

                                    Please use an official Ultimate
                                    Guitar Tabs application for iPhone,
                                    iPad or Android to access legitimate
                                    chords, guitar, bass, and drum tabs
                                    from Ultimate-Guitar.com database.

                                    Type "ultimate guitar tabs" in Apple
                                    App Store's or Android Market's
                                    search to find the application.
THE HARDEST PART

Capo 3rd Fret
All positions relative to capo

Intro:

Gtr 2 Acoustic Plays

 C        Em      A7sus4

Gtr 1 Electric
w/slight crunch and delay

E-----0----0----0---0---0----0---------------------------------|
B---1----1----0---0---3----3-----------------------------------|
G-0----0----0---0----0---0-------------------------------------|
D--------------------------------------------------------------|
A--------------------------------------------------------------|
E--------------------------------------------------------------|

E-----0----0---0---0---0---0---0-----0----0----0-------------|
B---3----3---1---1---1---1---3-----3----3----3---------------|
G-0----0---0---0---0---0---2-----2----2----2-----------------|
D------------------------------------------------------------|
A------------------------------------------------------------|
E------------------------------------------------------------|

Verse:

E--0-------------------------------------------------------------|
B--0-------------------------------------------------------------|
G--0-------------------------------------------------------------|
D----------------------------------------------------------------|
A----------------------------------------------------------------|
E----------------------------------------------------------------|

w/dist & octave effect

E----------------------------------------------------------|
B-7-7-7-5-5-5-5-5-7-7-7-8-8-8-8-8--------------------------|
G----------------------------------------------------------|
D----------------------------------------------------------|
A----------------------------------------------------------|
E----------------------------------------------------------|

E-----------------------------------------------------|
B--10-10-10-12-12-12-12-12-7-7-7-7-7-7-7-7-7-7-7------|
G-----------------------------------------------------|
D-----------------------------------------------------|
A-----------------------------------------------------|
E-----------------------------------------------------|

E-----------------------------------------------------------|
B-5-5-5-5-5-7-7-7-8-8-8-8-8---------------------------------|
G-----------------------------------------------------------|
D-----------------------------------------------------------|
A-----------------------------------------------------------|
E-----------------------------------------------------------|

E------------------------------------------------------|
B-10-10-10-12-12-12-12-12--7-7-7-7-7-7-7-7-------------|
G------------------------------------------------------|
D------------------------------------------------------|
A------------------------------------------------------|
E------------------------------------------------------|


cancel octave effect
let ring

Chrous:

E---3--3---3---3---3--3----3---3------------------------------|
B----0-------0-------0--------0-------------------------------|
G-5------5-------5-------5------------------------------------|
D-------------------------------------------------------------|
A-------------------------------------------------------------|
E-------------------------------------------------------------|

E----3---3---3---3---2---2---3---3---3---3---3----3---3-----|
B------0-------0--------0-------0---0--------0----0---0-----|
G-4--------4-------2--------5-----------5-------5-----------|
D-----------------------------------------------------------|
A-----------------------------------------------------------|
E-----------------------------------------------------------| x2

E----3---3------3----3---2---2-----2---2----------------------|
B------0-----------0-------0----------0-----------------------|
G-4---------4----------2--------2-----------------------------|
D-------------------------------------------------------------|
A-------------------------------------------------------------|
E-------------------------------------------------------------|

E-0-0---0--0--0---0--0-------------------------------------|
B-0-0---1--0--1---1--1-------------------------------------|
G-0-0---0--0--2---2--2--0----------------------------------|
D-2-0---2--0--2---2--2-----4-4-5-7-9-9-5-------------------|
A-2-0---3--2-----------------------------------------------|
E-0--------------------------------------------------------|

E----------------------------------------0------------------|
B----0-0---------------------------------1------------------|
G--2---------4---------------------------2------------------|
D--------4-4----2-5-7-9-9-5-7-9-9-4--2----------------------|
A----------------------------------------0------------------|
E-----------------------------------------------------------|

E-0-0-0-0--2-2-2-2-2-2---------------------------------------|
B-0-0-1-0--3-3-3-3-3-3---------------------------------------|
G-0-0-0-0--2-2-2-2-2-2---------------------------------------|
D-2-0-2-0--0-0-0-0-0-0---------------------------------------|
A-2---3--2---------------------------------------------------|
E-0----------------------------------------------------------|

Interlude:

E-----0----0----0---0---0----0---------------------------------|
B---1----1----0---0---3----3-----------------------------------|
G-0----0----0---0----0---0-------------------------------------|
D--------------------------------------------------------------|
A--------------------------------------------------------------|
E--------------------------------------------------------------|

E-----0----0---0---0---0---0---0-----0----0----0----0---0---|
B---3----3---1---1---0---0---3-----3----3----3----1---1-----|
G-0----0---0---0---0---0---0-----0----0----0----0---0-------|
D-----------------------------------------------------------|
A-----------------------------------------------------------|
E-----------------------------------------------------------|

Gtr 3 Electric

E-------------------------------------------------------------|
B-------------------------------------------------------------|
G--5-5-5-5-5-5-7-5--------------------------------------------|
D-------------------------------------------------------------|
A-------------------------------------------------------------|
E-------------------------------------------------------------|

Gtr 1 Electric

E-----0----0---0----0----0----0---0---------------------------|
B---0----0---3----3----3----3---1-----------------------------|
G-0----0---0----0----0----0---0-------------------------------|
D-------------------------------------------------------------|
A-------------------------------------------------------------|
E-------------------------------------------------------------|


E--------------------------------------------------------|
B--------------------------------------------------------|
G-4-4-4------------2-2-2-2-2-2-2-2-2-2-2-2-2-2-2-2-------|
D-------2-2-2-2-2----------------------------------------|
A--------------------------------------------------------|
E--------------------------------------------------------|

E---------------------------------------------------------|
B---------------------------------------------------------|
G-5-5-5-5-5-5-5-5-5-5-5-5-5-5-5-5-------------------------|
D---------------------------------------------------------|
A---------------------------------------------------------|
E---------------------------------------------------------|

E----------------------------------------------------------|
B----------------------------------------------------------|
G-7-7-7-7-7-7-7-7-5-5-5-5-5-5-7-5--------------------------|
D----------------------------------------------------------|
A----------------------------------------------------------|
E----------------------------------------------------------|

E-----0----0----0---0---0----0-----0----0---------------------|
B---0----0----3---3---3----3-----1----1-----------------------|
G-0----0----0---0----0---0-----0----0-------------------------|
D-------------------------------------------------------------|
A-------------------------------------------------------------|
E-------------------------------------------------------------|


E-----0----0---0---0---0---0---0-----0----0----0----0---0---|
B---3----3---1---1---0---0---3-----3----3----3----1---1-----|
G-0----0---0---0---0---0---0-----0----0----0----0---0-------|
D-----------------------------------------------------------|
A-----------------------------------------------------------|
E-----------------------------------------------------------|

E--------------------------------------------------------|
B--------------------------------------------------------|
G-4-4-4------------2-2-2-2-2-2-2-2-2-2-2-2-2-2-2-2-------|
D-------2-2-2-2-2----------------------------------------|
A--------------------------------------------------------|
E--------------------------------------------------------|


E---------------------------------------------------------|
B---------------------------------------------------------|
G-5-5-5-5-5-5-5-5-5-5-5-5-5-5-5-5-------------------------|
D---------------------------------------------------------|
A---------------------------------------------------------|
E---------------------------------------------------------|

E-----0----0---0---0---0---0---0-----0-----------------------|
B---1----1---3---3---3---3---1-----1-------------------------|
G-0----0---2---2---2---2---0-----0---------------------------|
D------------------------------------------------------------|
A------------------------------------------------------------|
E------------------------------------------------------------|


E--------------------------------------------------------|
B--------------------------------------------------------|
G-4-4-4------------2-2-2-2-2-2-2-2-2-2-2-2-2-2-2-2-------|
D-------2-2-2-2-2----------------------------------------|
A--------------------------------------------------------|
E--------------------------------------------------------|

E-------------------------------------------------------------|
B-------------------------------------------------------------|
G--5-5-5-5-5-5-7-5--------------------------------------------|
D-------------------------------------------------------------|
A-------------------------------------------------------------|
E-------------------------------------------------------------|

E-----0----0---0---0---0---0---0-----0-----------------------|
B---0----0---3---3---3---3---1-----1-------------------------|
G-0----0---2---2---2---2---0-----0---------------------------|
D------------------------------------------------------------|
A------------------------------------------------------------|
E------------------------------------------------------------|

E--------------------------------------------------------|
B--------------------------------------------------------|
G-4-4-4------------2-2-2-2-2-2-2-2-2-2-2-2-2-2-2-2-------|
D-------2-2-2-2-2----------------------------------------|
A--------------------------------------------------------|
E--------------------------------------------------------|

E-----------------------------------------------------------|
B-----------------------------------------------------------|
G--5-5-5-5-5-5-7-5-4-4-4------------------------------------|
D-----------------------------2-2-2-2-2---------------------|
A-----------------------------------------------------------|
E-----------------------------------------------------------|

E-----0----0---0---0---0---0---0-----0---0-----0-------------|
B---0----0---3---3---3---3---1-----1---0-----0---------------|
G-0----0---2---2---2---2---0-----0---0-----0-----------------|
D------------------------------------------------------------|
A------------------------------------------------------------|
E------------------------------------------------------------|

E----------------------------------------------------------|
B----------------------------------------------------------|
G----------------------------------------------------------|
D--2-2-2-2-2-2-2-2-2-2-2-2-2-2-2-2-------------------------|
A----------------------------------------------------------|
E----------------------------------------------------------|

E-------------------------------------------------------------|
B-------------------------------------------------------------|
G-------------------------------------------------------------|
D-5-5-5-5-5-5-5-5---------------------------------------------|
A-------------------------------------------------------------|
E-------------------------------------------------------------|

E-----0----0---0---0---0---0---0-----0------------------------|
B---3----3---3---3---1---1---1-----1--------------------------|
G-0----0---0---0---0---0---0-----0----------------------------|
D-------------------------------------------------------------|
A-------------------------------------------------------------|
E-------------------------------------------------------------|

E---------------------------------------------------------|
B---------------------------------------------------------|
G-7-7-7-7-7-7-7-7-7-7-7-7-7-7-7-4-------------------------|
D---------------------------------------------------------|
A---------------------------------------------------------|
E---------------------------------------------------------|

E-------------------------------------------------------------|
B-------------------------------------------------------------|
G-7-7-7-7-7-7-7-7---------------------------------------------|
D-------------------------------------------------------------|
A-------------------------------------------------------------|
E-------------------------------------------------------------|

E-----0----0---0---0---0---0---------------------------------|
B---3----3---3---3---3---3-----------------------------------|
G-2----2---2---2---2---2-------------------------------------|
D------------------------------------------------------------|
A------------------------------------------------------------|
E------------------------------------------------------------|

E-----0----0---0---0---0---0---0----------------------------|
B---1----1---0---0---3---3---3------------------------------|
G-0----0---0---0---0---0---0-----0---2----------------------|
D-----------------------------------------------------------|
A-----------------------------------------------------------|
E-----------------------------------------------------------|

E-----0----0---0---0---0---0---0-----------------------------|
B---1----1---0---0---3---3---3-------------------------------|
G-0----0---0---0---0---0---0-----0---2-----------------------|
D------------------------------------------------------------|
A------------------------------------------------------------|
E------------------------------------------------------------|
comments
print report bad tab
1 comment total.
0 reply
windjunky wrote on July 15 2013, 10:11 am

Sweet. Well worth the effort. Thanks man.

I want to post or [tab]
guest
You may want to rate the tab now too:
select rating
Please do not post tabs as comments. Select "correction" instead!