Oops, an error
Loading. Please wait.

See You Soon Tab

ver5
ver5
More versions @911Tabs.com
34,953 views 45 this week
4 commentsread comments
1 2 3 4 5
excellent!
x 10
Autoscroll
+/-
esc
set tempo
stop
Contributor
WARNING: You are trying to view
                                    content from Ultimate-Guitar.com
                                    in an unauthorized application,
                                    which is prohibited.

                                    Please use an official Ultimate
                                    Guitar Tabs application for iPhone,
                                    iPad or Android to access legitimate
                                    chords, guitar, bass, and drum tabs
                                    from Ultimate-Guitar.com database.

                                    Type "ultimate guitar tabs" in Apple
                                    App Store's or Android Market's
                                    search to find the application.
                             See you Soon - Coldpay

Tabbed by: Caltow

Tuning:EGDDBD Capo 2nd Fret

Okay,  it's a pain to tune the guitar to play this song but it's my favorite song so
worth it.  The above tab was close and I used it as a basis to start with and watched the
over and over.  This is EXACTLY how he plays it on the live dvd. I've played along and 
sounds great.  To make it sound the same you have to use your thumbs and index finger to
to make the right sounds... I don't think it sounds right if you use a pick... I've 
out all the chords.. I think you can figure out the strumming.. just note that the strumming 
he sings the verse is different than when he is playing the intro (you have to listen carefully)

Intro

d|--0----0---0--0-----------------------------------------------------------|
B|--3----5---7--0h2---------------------------------------------------------|
D|--0----0---0--0-----------------------------------------------------------|
D|--0----0---0--0-----------------------------------------------------------|
G|--4----6---7--2-----------------------------------------------------------|
E|--x----x---x--x-----------------------------------------------------------|

Last time through as follows:

d|--0----0---0--0---0---0---o-----------------------------------------------|
B|--3----5---7--0h2-8---7---0h2---------------------------------------------|
D|--0----0---0--0---0---0---0-----------------------------------------------|
D|--0----0---0--0---0---0---0-----------------------------------------------|
G|--4----6---7--2---9---7---2-----------------------------------------------|
E|--x----x---x--x---x---x---x-----------------------------------------------|

Verse (same as above but listen carefully to dvd- he strums it differently)

d|--0----0---0--0-----------------------------------------------------------|
B|--3----5---7--0h2---------------------------------------------------------|
D|--0----0---0--0-----------------------------------------------------------|
D|--0----0---0--0-----------------------------------------------------------|
G|--4----6---7--2-----------------------------------------------------------|
E|--x----x---x--x-----------------------------------------------------------|

Chorus

d|--2s---9---4---7---0---0--------------------------------------------------|
B|--0----0---0---0---7---0h2------------------------------------------------|
D|--2s---9---4---7---0---0--------------------------------------------------|
D|--0----0---0---0---0---0--------------------------------------------------|
G|--0----0---0---0---7---2--------------------------------------------------|
E|--x----x---x---x---x---x--------------------------------------------------|

d|--2s---9---4---7---0---0--------------------------------------------------|
B|--0----0---0---0---7---8--------------------------------------------------|
D|--2s---9---4---7---0---0--------------------------------------------------|
D|--0----0---0---0---0---0--------------------------------------------------|
G|--0----0---0---0---7---9--------------------------------------------------|
E|--x----x---x---x---x---x--------------------------------------------------|

d|--5s---9---4---7---0---0---0---0------------------------------------------|
B|--0----0---0---0---7---0h2-8---7------------------------------------------|
D|--5s---9---4---7---0---0---0---0------------------------------------------|
D|--0----0---0---0---0---0---0---0------------------------------------------|
G|--0----0---0---0---7---2---9---7------------------------------------------|
E|--x----x---x---x---x---x---x---x------------------------------------------|

Verse

d|--0----0---0--0-----------------------------------------------------------|
B|--3----5---7--0h2---------------------------------------------------------|
D|--0----0---0--0-----------------------------------------------------------|
D|--0----0---0--0-----------------------------------------------------------|
G|--4----6---7--2-----------------------------------------------------------|
E|--x----x---x--x-----------------------------------------------------------|

Chorus

d|--2s---9---4---7---0---0--------------------------------------------------|
B|--0----0---0---0---7---0h2------------------------------------------------|
D|--2s---9---4---7---0---0--------------------------------------------------|
D|--0----0---0---0---0---0--------------------------------------------------|
G|--0----0---0---0---7---2--------------------------------------------------|
E|--x----x---x---x---x---x--------------------------------------------------|

d|--2s---9---4---7---0---0--------------------------------------------------|
B|--0----0---0---0---7---8--------------------------------------------------|
D|--2s---9---4---7---0---0--------------------------------------------------|
D|--0----0---0---0---0---0--------------------------------------------------|
G|--0----0---0---0---7---9--------------------------------------------------|
E|--x----x---x---x---x---x--------------------------------------------------|

d|--2s---9---4---7---0---0---0---0------------------------------------------|
B|--0----0---0---0---7---0h2-8---7------------------------------------------|
D|--2s---9---4---7---0---0---0---0------------------------------------------|
D|--0----0---0---0---0---0---0---0------------------------------------------|
G|--0----0---0---0---7---2---9---7------------------------------------------|
E|--x----x---x---x---x---x---x---x------------------------------------------|

Then after the second chorus he plays the verse a few times then this end part a few times..

End Part

d|--0----0---0--------------------------------------------------------------|
B|--8----7---0h2------------------------------------------------------------|
D|--0----0---0--------------------------------------------------------------|
D|--0----0---0--------------------------------------------------------------|
G|--9----7---2--------------------------------------------------------------|
E|--x----x---x--------------------------------------------------------------|

Then I believe he ends on this chord

d|--0-----------------------------------------------------------------------|
B|--3-----------------------------------------------------------------------|
D|--0-----------------------------------------------------------------------|
D|--0-----------------------------------------------------------------------|
G|--4-----------------------------------------------------------------------|
E|--x-----------------------------------------------------------------------|
comments
print report bad tab
4 comments total. Showing first comments.
0 reply
leeyum wrote on July 18 2007, 01:44 am

great tab, dunno about everyone else but the two d's seem to kinda drone through the verses when they're not used, this is the easiest tab ive seen just wondering if either the G or D strings are fretted in the verses.

-1 reply
The_Fuzz22 wrote on December 10 2008, 09:07 am

Your numbers are upside-****ing-down.

0 reply
satir3 wrote on October 19 2013, 07:03 am

Great tab. 5 stars.
But I'd add a few little changes


Intro

d|--0----0---0--0-----------------------------------------------------------|
B|--3----5---7--0h2---------------------------------------------------------|
D|--0----0---0--0-----------------------------------------------------------|
D|--0----0---0--0-----------------------------------------------------------|
G|--4----6---7--2-----------------------------------------------------------|
E|--x----x---x--x-----------------------------------------------------------|

Last time through as follows:

d|--0----0---0--0---0---0---o-----------------------------------------------|
B|--3----5---7--0h2-8---7---0h2---------------------------------------------|
D|--0----0---0--0---0---0---0-----------------------------------------------|
D|--0----0---0--0---0---0---0-----------------------------------------------|
G|--4----6---7--2---9---7---2-----------------------------------------------|
E|--x----x---x--x---x---x---x-----------------------------------------------|

Verse:

d|--0----0---0--0-----------------------------------------------------------|
B|--3----5---7--0h2---------------------------------------------------------|
D|--0----0---0--0-----------------------------------------------------------|
D|--0----0---0--0-----------------------------------------------------------|
G|--4----6---7--2-----------------------------------------------------------|
E|--x----x---x--x-----------------------------------------------------------|

Chorus:

d|--2s---9---4---7---0---0--------------------------------------------------|
B|--0----0---0---0---7---0h2------------------------------------------------|
D|--0----0---0---0---0---0--------------------------------------------------|
D|--2s---9---4---7---0---0--------------------------------------------------|
G|--0----0---0---0---7---2--------------------------------------------------|
E|--x----x---x---x---x---x--------------------------------------------------|

d|--2s---9---4---7---0---0--------------------------------------------------|
B|--0----0---0---0---7---8--------------------------------------------------|
D|--0----0---0---0---0---0--------------------------------------------------|
D|--2s---9---4---7---0---9--------------------------------------------------|
G|--0----0---0---0---7---0--------------------------------------------------|
E|--x----x---x---x---x---x--------------------------------------------------|

d|--5s---9---4---7---0---0---0---0------------------------------------------|
B|--0----0---0---0---7---0h2-8---7------------------------------------------|
D|--0----0---0---0---0---0---0---0------------------------------------------|
D|--5s---9---4---7---0---0---9---9------------------------------------------|
G|--0----0---0---0---7---2---0---0------------------------------------------|
E|--x----x---x---x---x---x---x---x------------------------------------------|

Verse:

d|--0----0---0--0-----------------------------------------------------------|
B|--3----5---7--0h2---------------------------------------------------------|
D|--0----0---0--0-----------------------------------------------------------|
D|--0----0---0--0-----------------------------------------------------------|
G|--4----6---7--2-----------------------------------------------------------|
E|--x----x---x--x-----------------------------------------------------------|

Chorus:

d|--2s---9---4---7---0---0--------------------------------------------------|
B|--0----0---0---0---7---0h2------------------------------------------------|
D|--0----0---0---0---0---0--------------------------------------------------|
D|--2s---9---4---7---0---0--------------------------------------------------|
G|--0----0---0---0---7---2--------------------------------------------------|
E|--x----x---x---x---x---x--------------------------------------------------|

d|--2s---9---4---7---0---0--------------------------------------------------|
B|--0----0---0---0---7---8--------------------------------------------------|
D|--0----0---0---0---0---0--------------------------------------------------|
D|--2s---9---4---7---0---9--------------------------------------------------|
G|--0----0---0---0---7---0--------------------------------------------------|
E|--x----x---x---x---x---x--------------------------------------------------|

d|--2s---9---4---7---0---0---0---0------------------------------------------|
B|--0----0---0---0---7---0h2-8---7------------------------------------------|
D|--0----0---0---0---0---0---0---0------------------------------------------|
D|--2s---9---4---7---0---0---9---9------------------------------------------|
G|--0----0---0---0---7---2---0---0------------------------------------------|
E|--x----x---x---x---x---x---x---x------------------------------------------|

Wordless verse:

d|--0----0---0--0-----------------------------------------------------------|
B|--3----5---7--0h2---------------------------------------------------------|
D|--0----0---0--0-------------------

I want to post or [tab]
guest
You may want to rate the tab now too:
select rating
Please do not post tabs as comments. Select "correction" instead!