Oops, an error
Loading. Please wait.

Speed Of Sound Tab

ver3
ver3

Whole song

Interactive

More versions @911Tabs.com
8,540 views 15 this week
2 commentsread comments
1 2 3 4 5
accurate
x 2
Autoscroll
+/-
esc
set tempo
stop
Contributor
Hey! There's an official Ultimate Guitar app which is ideal
for learning songs when you're away from computer. Get the app
WARNING: You are trying to view
                                    content from Ultimate-Guitar.com
                                    in an unauthorized application,
                                    which is prohibited.

                                    Please use an official Ultimate
                                    Guitar Tabs application for iPhone,
                                    iPad or Android to access legitimate
                                    chords, guitar, bass, and drum tabs
                                    from Ultimate-Guitar.com database.

                                    Type "ultimate guitar tabs" in Apple
                                    App Store's or Android Market's
                                    search to find the application.
                      SPEED OF SOUND
                             As recorded by Coldplay
                            (From the 2005 Album X&Y)

Words and Music by Guy Berryman, Jon Buckland, Will Champion and Chris Martin

Gtr I (E A D G B E) - 'Gtr 1(clean)'
Gtr II (E A D G B E) - 'Gtr 2(dist) w/ slide'
Gtr III (E A D G B E) - 'Piano arr. for Guitar'
Gtr IV (E A D G B E) - 'Gtr. 4(slight dist)'
Gtr V (E A D G B E) - 'Gtr 5(dist) w/ slide'

 Intro
  Moderate Rock Q=124
  Asus4                          Em7
 4/4
  Gtr I
  <
  H    E Q  E   +Q   Q  E Q  E   +Q    Q  E  Q   E   +Q    Q  E  Q   E
|-0----0------|---------0------|----------0--------|----------0--------|
|--------3----|-----------3----|-------------3-----|-------------3-----|
|-----------2-|-(2)--2-------0-|-(0)---0---------0-|-(0)---0-----------|
|-------------|----------------|-------------------|-----------------4-|
|-------------|----------------|-------------------|-------------------|
|-------------|----------------|-------------------|-------------------|
|
| Gtr III
| H    E Q  E   +Q   Q  E Q  E   +Q    Q  E  Q   E   +Q    Q  E  Q   E
|------0------|---------0------|----------0--------|----------0--------|
|--------3----|-----------3----|-------------3-----|-------------3-----|
|-----------2-|-(2)--2-------0-|-(0)---0---------0-|-(0)---0-----------|
|-------------|--2-------------|-------------------|-----------------4-|
|-------------|--0-------------|-----2------(2)----|-----2------(2)----|
|-------------|----------------|--0----------------|--0----------------|
                 W                E  H      +Q.       E  H      +Q.


  D                  Asus4            Em7
  +Q    Q   E Q  E   +Q   Q  E Q  E   +Q    Q  E  Q   E   +Q    Q  E  Q   E
|-----------0------|---------0------|----------0--------|----------0---------|
|-------------3----|-----------3----|-------------3-----|-------------3------|
|----------------2-|-(2)--2-------0-|-(0)---0---------0-|-(0)---0------------|
|-(4)---4----------|----------------|-------------------|-----------------4--|
|------------------|----------------|-------------------|--------------------|
|------------------|----------------|-------------------|--------------------|
|
| +Q    Q   E Q  E   +Q   Q  E Q  E   +Q    Q  E  Q   E   +Q    Q  E  Q   E
|-----------0------|---------0------|----------0--------|----------0---------|
|-------------3----|-----------3----|-------------3-----|-------------3------|
|----------------2-|-(2)--2-------0-|-(0)---0---------0-|-(0)---0------------|
|-(4)-4-4----------|--2-------------|-------------------|-----------------4--|
|--5----5----------|--0-------------|-----2------(2)----|-----2------(2)-----|
|------------------|----------------|--0----------------|--0-----------------|
   E  E H.            W                E  H      +Q.       E  H      +Q.


                   Verse 1
  D                 A                       A          Em
  Gtr I
  +W                W          Wx7          W
|----------------||----------|------------|---------------|
|----------------||----------|------------|---------------|
|----------------||----------|------------|---------------|
|-(4)------------||----------|------------|---------------|
|----------------||----------|------------|---------------|
|----------------||----------|------------|---------------|
|
| Gtr III
| +W                W          Wx7          W
|----------------||----------|------------|---------------|
|----------------||----------|------------|---------------|
|----------------||----------|------------|---------------|
|-(4)------------||----------|------------|---------------|
|----------------||----------|------------|---------------|
|----------------||----------|------------|---------------|
|
| Gtr II                                  Gtr III
|      <            >
|  Q   H    +Q      W          Wx7          H    +Q.   E
|----------------||----------|------------|---------------|
|------7----(7)s=||=5--------|------------|------------0--|
|----------------||----------|------------|-2----(2)---0--|
|----------------||----------|------------|-2----(2)---2--|
|----------------||----------|------------|---------------|
|----------------||----------|------------|---------------|


               Em7              D                     A          Em
  Gtr III
  +H     +Q.   E   +H     +Q.   E   +H     +E  Q.     H    +Q.   E
|----------------|----------------|-----------------|---------------|
|-(0)----(0)---3-|-(3)----(3)-----|-----------------|------------0--|
|-(0)----(0)---0-|-(0)----(0)---2-|-(2)----(2)-2----|-2----(2)---0--|
|-(2)----(2)---2-|-(2)----(2)---4-|-(4)----(4)-4----|-2----(2)---2--|
|----------------|----------------|-----------------|---------------|
|----------------|----------------|-----------------|---------------|


               Em7              D
  Gtr I
                                     <
   W                W                H        E Q  E
|----------------|----------------|--0--------0------|
|----------------|----------------|-------------3----|
|----------------|----------------|----------------2-|
|----------------|----------------|------------------|
|----------------|----------------|------------------|
|----------------|----------------|------------------|
|
| Gtr III
| +H     +Q.   E   +H     +Q.   E   +E  E E E E Q  E
|----------------|----------------|-----------0------|
|-(0)----(0)---3-|-(3)----(3)-----|-------------3----|
|-(0)----(0)---0-|-(0)----(0)---2-|-(2)------------2-|
|-(2)----(2)---2-|-(2)----(2)---4-|-(4)---4----------|
|----------------|--------------5-|-(5)-5---5--------|
|----------------|----------------|------------------|


  Asus4            Em7                                     D
  Gtr I
  +Q   Q  E Q  E   +Q    Q  E  Q   E   +Q    Q  E  Q   E   +Q    Q   E Q  E
|---------0------|----------0--------|----------0--------|-----------0-------|
|-----------3----|-------------3-----|-------------3-----|-------------3-----|
|-(2)--2-------0-|-(0)---0---------0-|-(0)---0-----------|----------------2--|
|----------------|-------------------|-----------------4-|-(4)---4-----------|
|----------------|-------------------|-------------------|-------------------|
|----------------|-------------------|-------------------|-------------------|
|
| Gtr III
| +Q   Q  E Q  E   +Q    Q  E  Q   E   +Q    Q  E  Q   E   +Q    Q   E Q  E
|---------0------|----------0--------|----------0--------|-----------0-------|
|-----------3----|-------------3-----|-------------3-----|-------------3-----|
|-(2)--2-------0-|-(0)---0---------0-|-(0)---0-----------|----------------2--|
|--2-------------|-------------------|-----------------4-|-(4)-4-4-----------|
|--0-------------|-----2------(2)----|-----2------(2)----|--5----5-----------|
|----------------|--0----------------|--0----------------|-------------------|
|  W                E  H      +Q.       E  H      +Q.       E  E H.
|
| Gtr IV
|  <                <                   <                   <
|  W                W                   W                   W
|----------------|-------------------|-------------------|--2----------------|
|----------------|-------------------|-------------------|--3----------------|
|--2-------------|--0----------------|--0----------------|--2----------------|
|--2-------------|--2----------------|--2----------------|--0----------------|
|--0-------------|--2----------------|--2----------------|-------------------|
|----------------|--0----------------|--0----------------|-------------------|


  Asus4            Em7
  Gtr I
  +Q   Q  E Q  E   +Q    Q  E  Q   E   +Q    Q  E  Q   E
|---------0------|----------0--------|----------0--------|
|-----------3----|-------------3-----|-------------3-----|
|-(2)--2-------0-|-(0)---0---------0-|-(0)---0-----------|
|----------------|-------------------|-----------------4-|
|----------------|-------------------|-------------------|
|----------------|-------------------|-------------------|
|
| Gtr III
| +Q   Q  E Q  E   +Q    Q  E  Q   E   +Q    Q  E  Q   E
|---------0------|----------0--------|----------0--------|
|-----------3----|-------------3-----|-------------3-----|
|-(2)--2-------0-|-(0)---0---------0-|-(0)---0-----------|
|--2-------------|-------------------|-----------------4-|
|--0-------------|-----2------(2)----|-----2------(2)----|
|----------------|--0----------------|--0----------------|
|  W                E  H      +Q.       E  H      +Q.
|
| Gtr IV
|  <                <                   <
|  W                W                   W
|----------------|-------------------|-------------------|
|----------------|-------------------|-------------------|
|--2-------------|--0----------------|--0----------------|
|--2-------------|--2----------------|--2----------------|
|--0-------------|--2----------------|--2----------------|
|----------------|--0----------------|--0----------------|


                   Verse 2
  D                 A
  +W                W          Wx7
|----------------||----------|--------|
|----------------||----------|--------|
|----------------||----------|--------|
|-(4)------------||----------|--------|
|----------------||----------|--------|
|----------------||----------|--------|
|
|      Gtr II
|      <            >
|  Q   H    +Q      W          Wx7
|----------------||----------|--------|
|------7----(7)s=||=5--------|--------|
|----------------||----------|--------|
|-(4)------------||----------|--------|
|----------------||----------|--------|
|----------------||----------|--------|
| +W
|
|  <
|  W                W          Wx7
|--2-------------||----------|--------|
|--3-------------||----------|--------|
|--2-------------||----------|--------|
|--0-------------||----------|--------|
|----------------||----------|--------|
|----------------||----------|--------|


  A               Em7                               D
  Gtr V
  H    E  Q   E   +H     E Q  E   +H     E  Q   E   +H     E Q   E
|---------5s==3-|-(3)------3----|-----------3s==2-|-(2)------2s==5--|
|---------------|---------------|-----------------|-----------------|
|------6-(6)s=4-|-(4)----4------|--------4-(4)s=2-|-(2)----2-2s==6--|
|-7-------------|-------------5-|-(5)-------------|-------------/7--|
|---------------|---------------|-----------------|-----------------|
|---------------|---------------|-----------------|-----------------|


  A                 Em7                               D
  +H     +E  Q  E   +H     E Q  E   +H     E  Q   E   +W
|-(5)--------5s=3-|-(3)------3----|-----------3s==2-|-(2)----||
|-----------------|---------------|-----------------|--------||
|-(6)----(6)-6s=4-|-(4)----4------|--------4-(4)s=2-|-(2)----||
|-(7)-------------|-------------5-|-(5)-------------|--------||
|-----------------|---------------|-----------------|--------||
|-----------------|---------------|-----------------|--------||


   Pre-Chorus 1
    Gadd9             Aadd9             Bm7
    Gtr II
    E E E E E E E E   E E E E E E E E   E E E E E E E E   E E E E E E E E
||----5-----5-----5-|---5-----5-----5-|---5-----5-----5-|---5-----5-----5--||
||o-----0-----0-----|-----0-----0-----|-----0-----0-----|-----0-----0-----o||
||--7-----7-----7---|-6-----6-----6---|-4-----4-----4---|-4-----4-----4----||
||------------------|-----------------|-----------------|------------------||
||o-----------------|-----------------|-----------------|-----------------o||
||------------------|-----------------|-----------------|------------------||
|
|   Gtr III
|   E E E E E E E E   E E E E E E E E   E E E E E E E E   E E E E E E E E
||----5-----5-----5-|---5-----5-----5-|---5-----5-----5-|---5-----5-----5--||
||o-3-----3-----3---|-2-----2-----2---|-0-----0-----0---|-0-----0-----0---o||
||------4-----4-----|-----4-----4-----|-----4-----4-----|-----4-----4------||
||--0---------------|-2---------------|-4---------------|-4----------------||
||o-----------------|-0---------------|-2---------------|-2---------------o||
||--3---------------|-----------------|-----------------|------------------||
    W                 W                 W                 W


 Chorus 1
  G                         Bm                        D6
  Gtrs II, III
   E  E  E  E  E  E  E  E    E  E  E  E  E  E  E  E    E  E  E  E  E  E  E  E
|-10-10-10-10-10-10-10-10-|-10-10-10-10-10-10-10-10-|-10-10-10-10-10-10-10-10-|
|--0--0--0--0--0--0--0--0-|--0--0--0--0--0--0--0--0-|--0--0--0--0--0--0--0--0-|
|-12-12-12-12-12-12-12-12-|-11-11-11-11-11-11-11-11-|-11-11-11-11-11-11-11-11-|
|-------------------------|-------------------------|-------------------------|
|-------------------------|-------------------------|-------------------------|
|-------------------------|-------------------------|-------------------------|


  G                                                   Bm
   E  E  E  E  E  E  E  E    E  E  E  E  E  E  E  E    E  E  E  E  E  E  E  E
|-10-10-10-10-10-10-10-10-|-10-10-10-10-10-10-10-10-|-10-10-10-10-10-10-10-10-|
|--0--0--0--0--0--0--0--0-|--0--0--0--0--0--0--0--0-|--0--0--0--0--0--0--0--0-|
|-12-12-12-12-12-12-12-12-|-12-12-12-12-12-12-12-12-|-11-11-11-11-11-11-11-11-|
|-------------------------|-------------------------|-------------------------|
|-------------------------|-------------------------|-------------------------|
|-------------------------|-------------------------|-------------------------|


  F#madd11                  G
  Gtrs I, III
                                                       <
   W                         W                         H           E  Q     E
|-------------------------|-------------------------|--0-----------0----------|
|-------------------------|-------------------------|-----------------3-------|
|-------------------------|-------------------------|-----------------------2-|
|-------------------------|-------------------------|-------------------------|
|-------------------------|-------------------------|-------------------------|
|-------------------------|-------------------------|-------------------------|
|
| Gtrs II, III
|  E  E  E  E  E  E  E  E    E  E  E  E  E  E  E  E    E  E  E  E  E  E  E  E
|--9--9--9--9--9--9--9--9-|-10-10-10-10-10-10-10-10-|-10-10-10-10-10-10-10-10-|
|--0--0--0--0--0--0--0--0-|--0--0--0--0--0--0--0--0-|--0--0--0--0--0--0--0--0-|
|-11-11-11-11-11-11-11-11-|-12-12-12-12-12-12-12-12-|-12-12-12-12-12-12-12-12-|
|-------------------------|-------------------------|-------------------------|
|-------------------------|-------------------------|-------------------------|
|-------------------------|-------------------------|-------------------------|


  Asus4            Em7
  Gtr I
  +Q   Q  E Q  E   +Q    Q  E  Q   E   +Q    Q  E  Q   E
|---------0------|----------0--------|----------0--------|
|-----------3----|-------------3-----|-------------3-----|
|-(2)--2-------0-|-(0)---0---------0-|-(0)---0-----------|
|----------------|-------------------|-----------------4-|
|----------------|-------------------|-------------------|
|----------------|-------------------|-------------------|
|
| Gtr III
|  Q   Q  E Q  E   +Q    Q  E  Q   E   +Q    Q  E  Q   E
|---------0------|----------0--------|----------0--------|
|-----------3----|-------------3-----|-------------3-----|
|--2---2-------0-|-(0)---0---------0-|-(0)---0-----------|
|--2-------------|-------------------|-----------------4-|
|--0-------------|-----2------(2)----|-----2------(2)----|
|----------------|--0----------------|--0----------------|
   W                E  H      +Q.       E  H      +Q.


  D                  Asus4            Em7
  +Q    Q   E Q  E   +Q   Q  E Q  E   +Q    Q  E  Q   E
|-----------0------|---------0------|----------0---------|
|-------------3----|-----------3----|-------------3------|
|----------------2-|-(2)--2-------0-|-(0)---0---------0--|
|-(4)---4----------|----------------|--------------------|
|------------------|----------------|--------------------|
|------------------|----------------|--------------------|
|
| +Q    Q   E Q  E    Q   Q  E Q  E   +Q    Q  E  Q   E
|-----------0------|---------0------|----------0---------|
|-------------3----|-----------3----|-------------3------|
|----------------2-|--2---2-------0-|-(0)---0---------0--|
|-(4)-4-4----------|--2-------------|--------------------|
|--5----5----------|--0-------------|-----2------(2)-----|
|------------------|----------------|--0-----------------|
   E  E H.            W                E  H      +Q.


                                       Verse 3
                      D                 A          Em
  Gtr I
  +Q    Q  E  Q   E   +W                W          W          W
|----------0--------|----------------||----------|----------|------|
|-------------3-----|----------------||----------|----------|------|
|-(0)---0-----------|----------------||----------|----------|------|
|-----------------4-|-(4)------------||----------|----------|------|
|-------------------|----------------||----------|----------|------|
|-------------------|----------------||----------|----------|------|
|
| Gtr III                  Gtr II
|                          <            >
| +Q    Q  E  Q   E    Q   H    +Q      W          W          W
|----------0--------|----------------||----------|----------|------|
|-------------3-----|------7----(7)s=||=5--------|----------|------|
|-(0)---0-----------|----------------||----------|----------|------|
|-----------------4-|-(4)------------||----------|----------|------|
|-----2------(2)----|----------------||----------|----------|------|
|--0----------------|----------------||----------|----------|------|
|  E  H      +Q.      +W
|
| Gtr IV
|                                       <          <          <
|  W                   W                W          W          W
|-------------------|----------------||----------|----------|------|
|-------------------|----------------||----------|----------|------|
|-------------------|----------------||-2--------|-0--------|-0----|
|-------------------|----------------||-2--------|-2--------|-2----|
|-------------------|----------------||-0--------|-2--------|-2----|
|-------------------|----------------||----------|-0--------|-0----|


  D               A          Em         Emadd9     D
  Gtr IV
  <               <          <          <          <
  H    +E  Q.     W          W          W          H    H
|-2----(2)------|----------|-3--------|-2--------|-2---------|
|-3----(3)------|----------|-0--------|-0--------|-3---------|
|-2----(2)------|-2--------|-0--------|-0--------|-2----0----|
|-0----(0)-0----|-2--------|-2--------|-2--------|-0---------|
|---------------|-0--------|-2--------|-2--------|-----------|
|---------------|----------|-0--------|-0--------|-----------|


  A                Em7
  Gtr V
  H    E  Q    E    +H      E  Q   E
|---------9s==12-|-(12)-------12--10-|
|----------------|-------------------|
|------9-(9)s=12-|-(12)----12--------|
|-7--------------|-------------------|
|----------------|-------------------|
|----------------|-------------------|


                        D
   +H      E   Q    E    +H      E   Q   E
|-(10)--------10s==14-|-(14)--------14s==9--|
|---------------------|---------------------|
|---------12-(12)s=14-|-(14)----14-(14)s=9--|
|---------------------|---------------------|
|---------------------|---------------------|
|---------------------|---------------------|


  A                  Em7                                       D
  +H     E  Q    E    +H      E  Q   E    +H      E   Q    E    +W
|-(9)-------9s==12-|-(12)-------12--10-|-(10)--------10s==14-|-(14)----||
|------------------|-------------------|---------------------|---------||
|-(9)----9-(9)s=12-|-(12)----12--------|---------12-(12)s=14-|-(14)----||
|------------------|-------------------|---------------------|---------||
|------------------|-------------------|---------------------|---------||
|------------------|-------------------|---------------------|---------||


   Pre-Chorus 2
    Gadd9             Aadd9             Bm7
    Gtr II
    E E E E E E E E   E E E E E E E E   E E E E E E E E   E E E E E E E E
||----5-----5-----5-|---5-----5-----5-|---5-----5-----5-|---5-----5-----5--||
||o-----0-----0-----|-----0-----0-----|-----0-----0-----|-----0-----0-----o||
||--7-----7-----7---|-6-----6-----6---|-4-----4-----4---|-4-----4-----4----||
||------------------|-----------------|-----------------|------------------||
||o-----------------|-----------------|-----------------|-----------------o||
||------------------|-----------------|-----------------|------------------||
|
|   Gtr III
|   E E E E E E E E   E E E E E E E E   E E E E E E E E   E E E E E E E E
||----5-----5-----5-|---5-----5-----5-|---5-----5-----5-|---5-----5-----5--||
||o-3-----3-----3---|-2-----2-----2---|-0-----0-----0---|-0-----0-----0---o||
||------4-----4-----|-----4-----4-----|-----4-----4-----|-----4-----4------||
||--0---------------|-2---------------|-4---------------|-4----------------||
||o-----------------|-0---------------|-2---------------|-2---------------o||
||--3---------------|-----------------|-----------------|------------------||
|   W                 W                 W                 W
|
|   Gtr IV
|   E E E E E E E E   E E E E E E E E   E E E E E E E E   E E E E E E E E
||------------------|-----------------|-----------------|------------------||
||o-----------------|-----------------|-----------------|-----------------o||
||------------------|-----------------|-----------------|------------------||
||------------------|-----------------|-----------------|------------------||
||o-5-5-5-5-5-5-5-5-|-7-7-7-7-7-7-7-7-|-9-9-9-9-9-9-9-9-|-9-9-9-9-9-9-9---o||
||--3-3-3-3-3-3-3-3-|-5-5-5-5-5-5-5-5-|-7-7-7-7-7-7-7-7-|-7-7-7-7-7-7-7-0--||


 Chorus 2
  G                         Em
  Gtrs II, III
   E  E  E  E  E  E  E  E    E  E  E  E   E   E  E  E
|-10-10-10-10-10-10-10-10-|-10-10-10-10--10--10-10-10-|
|--0--0--0--0--0--0--0--0-|--0--0--0--0---0---0--0--0-|
|-12-12-12-12-12-12-12-12-|-11-11-11-11--11--11-11-11-|
|-------------------------|---------------------------|
|-------------------------|---------------------------|
|-------------------------|---------------------------|
|
| Gtr V
|  E  E  E  E  Q     Q       E  Q     E  +E   Q     E
|-------------10----------|----------10-(10)----------|
|-----0-10h12-------12----|----12------------12-------|
|-12----------------------|-11---------------------11-|
|-------------------------|---------------------------|
|-------------------------|---------------------------|
|-------------------------|---------------------------|


  D6                          G
    E   E  E  E  E  E  E  E    E  E  E  E   E   E  E  E
|--10--10-10-10-10-10-10-10-|-10-10-10-10--10--10-10-10--|
|---0---0--0--0--0--0--0--0-|--0--0--0--0---0---0--0--0--|
|--11--11-11-11-11-11-11-11-|-12-12-12-12--12--12-12-12--|
|---------------------------|----------------------------|
|---------------------------|----------------------------|
|---------------------------|----------------------------|
|
|  +E   E  E  E  Q     Q       E  Q     E  +E   Q     E
|---------------10----------|----------10-(10)-----------|
|-------0-10h12-------12----|----12------------12--------|
|-(11)----------------------|-12---------------------12--|
|---------------------------|----------------------------|
|---------------------------|----------------------------|
|---------------------------|----------------------------|


                              Em
    E   E  E  E  E  E  E  E    E  E  E  E   E   E  E  E
|--10--10-10-10-10-10-10-10-|-10-10-10-10--10--10-10-10-|
|---0---0--0--0--0--0--0--0-|--0--0--0--0---0---0--0--0-|
|--12--12-12-12-12-12-12-12-|-11-11-11-11--11--11-11-11-|
|---------------------------|---------------------------|
|---------------------------|---------------------------|
|---------------------------|---------------------------|
|
|  +E   E  E  E  Q     Q       E  Q     E  +E   Q     E
|---------------10----------|----------10-(10)----------|
|-------0-10h12-------12----|----12------------12-------|
|-(12)----------------------|-11---------------------11-|
|---------------------------|---------------------------|
|---------------------------|---------------------------|
|---------------------------|---------------------------|


  F#madd11                    G
    E   E  E  E  E  E  E  E    E  E  E  E   E   E  E  E
|---9---9--9--9--9--9--9--9-|-10-10-10-10--10--10-10-10--|
|---0---0--0--0--0--0--0--0-|--0--0--0--0---0---0--0--0--|
|--11--11-11-11-11-11-11-11-|-12-12-12-12--12--12-12-12--|
|---------------------------|----------------------------|
|---------------------------|----------------------------|
|---------------------------|----------------------------|
|
|  +E   E  E  E  Q     Q       E  E  E  E  +E   Q     E
|---------------------------|----------10-(10)-----------|
|-------0-12p10-14----10----|-10-12-10---------12--------|
|-(11)----------------------|------------------------11--|
|---------------------------|----------------------------|
|---------------------------|----------------------------|
|---------------------------|----------------------------|


  F#madd11                    G
    E   E  E  E  E  E  E  E    E  E  E  E   E   E  E  E
|---9---9--9--9--9--9--9--9-|-10-10-10-10--10--10-10-10-|
|---0---0--0--0--0--0--0--0-|--0--0--0--0---0---0--0--0-|
|--11--11-11-11-11-11-11-11-|-12-12-12-12--12--12-12-12-|
|---------------------------|---------------------------|
|---------------------------|---------------------------|
|---------------------------|---------------------------|
|
|  +E   E  E  E  Q     E  E    E  E  E  E  +E   Q     E
|---------------------------|----------14-(14)----------|
|-------0-12p10-14----10----|-10h12-10---------12-------|
|-(11)--------------------0-|-------------------------0-|
|---------------------------|---------------------------|
|---------------------------|---------------------------|
|---------------------------|---------------------------|


                               Interlude
                                D
   E  E  E  E   E   E   E  E      W           +W
|-10-10-10-10--10--10--10-10-||--10--------|-(10)----|
|--0--0--0--0---0---0---0--0-||--10--------|-(10)----|
|-12-12-12-12--12--12--12-12-||------------|---------|
|----------------------------||------------|---------|
|----------------------------||------------|---------|
|----------------------------||------------|---------|
|
|  E  E  E  E  +E   Q.            W           +W
|----------14-(14)-----------||-^10--------|-(10)----|
|-10h12-10---------12--------||-^10--------|-(10)----|
|----------------------------||-^11--------|-(11)----|
|----------------------------||-^12--------|-(12)----|
|----------------------------||-^12--------|-(12)----|
|----------------------------||-^10--------|-(10)----|


  Gtr IV
              <           <
  W           W           E E  H.          W           +W
|----------|-----------|---------------|-^10--------|-(10)----||
|----------|-----------|---------------|-^10--------|-(10)----||
|----------|-12--------|-11s9s11-------|-^11--------|-(11)----||
|----------|-----------|---------------|-^12--------|-(12)----||
|----------|-----------|---------------|-^12--------|-(12)----||
|----------|-----------|---------------|-^10--------|-(10)----||


   Pre-Chorus 3
                                                         1.
    Gadd9             Aadd9             Bm7               E
    Gtr II
    E E E E E E E E   E E E E E E E E   E E E E E E E E   E E E E E E E E
||----5-----5-----5-|---5-----5-----5-|---5-----5-----5-|---4-----4-----4--||
||o-----0-----0-----|-----0-----0-----|-----0-----0-----|-----0-----0-----o||
||--7-----7-----7---|-6-----6-----6---|-4-----4-----4---|-4-----4-----4----||
||------------------|-----------------|-----------------|------------------||
||o-----------------|-----------------|-----------------|-----------------o||
||------------------|-----------------|-----------------|------------------||


                      Chorus 3
  2.
  E                    G                         Em
                    Gtrs II, III
  E E E E E E E   E     E  E  E  E  E  E  E  E    E  E  E  E   E   E  E  E
|---4-----4---------||-10-10-10-10-10-10-10-10-|-10-10-10-10--10--10-10-10-|
|-----0-----0-------||--0--0--0--0--0--0--0--0-|--0--0--0--0---0---0--0--0-|
|-4-----4-----4-/11-||-12-12-12-12-12-12-12-12-|-11-11-11-11--11--11-11-11-|
|-------------------||-------------------------|---------------------------|
|-------------------||-------------------------|---------------------------|
|-------------------||-------------------------|---------------------------|
|
| Gtr V
| W                     E  E  E  E  Q     Q       E  Q     E  +E   Q     E
|-------------------||-------------10----------|----------10-(10)----------|
|-------------------||-----0-10h12-------12----|----12------------12-------|
|-------------------||-12----------------------|-11---------------------11-|
|-------------------||-------------------------|---------------------------|
|-------------------||-------------------------|---------------------------|
|-------------------||-------------------------|---------------------------|


  D6                          G
    E   E  E  E  E  E  E  E    E  E  E  E   E   E  E  E
|--10--10-10-10-10-10-10-10-|-10-10-10-10--10--10-10-10---|
|---0---0--0--0--0--0--0--0-|--0--0--0--0---0---0--0--0---|
|--11--11-11-11-11-11-11-11-|-12-12-12-12--12--12-12-12---|
|---------------------------|-----------------------------|
|---------------------------|-----------------------------|
|---------------------------|-----------------------------|
|
|  +E   E  E  E  Q     Q       E  Q     E  +E   Q     E
|---------------10----------|----------10-(10)------------|
|-------0-10h12-------12----|----12------------12---------|
|-(11)----------------------|-12---------------------12---|
|---------------------------|-----------------------------|
|---------------------------|-----------------------------|
|---------------------------|-----------------------------|


                              Em
    E   E  E  E  E  E  E  E    E  E  E  E   E   E  E  E
|--10--10-10-10-10-10-10-10-|-10-10-10-10--10--10-10-10-|
|---0---0--0--0--0--0--0--0-|--0--0--0--0---0---0--0--0-|
|--12--12-12-12-12-12-12-12-|-11-11-11-11--11--11-11-11-|
|---------------------------|---------------------------|
|---------------------------|---------------------------|
|---------------------------|---------------------------|
|
|  +E   E  E  E  Q     Q       E  Q     E  +E   Q     E
|---------------10----------|----------10-(10)----------|
|-------0-10h12-------12----|----12------------12-------|
|-(12)----------------------|-11---------------------11-|
|---------------------------|---------------------------|
|---------------------------|---------------------------|
|---------------------------|---------------------------|


  F#madd11                    G
    E   E  E  E  E  E  E  E    E  E  E  E   E   E  E  E
|---9---9--9--9--9--9--9--9-|-10-10-10-10--10--10-10-10--|
|---0---0--0--0--0--0--0--0-|--0--0--0--0---0---0--0--0--|
|--11--11-11-11-11-11-11-11-|-12-12-12-12--12--12-12-12--|
|---------------------------|----------------------------|
|---------------------------|----------------------------|
|---------------------------|----------------------------|
|
|  +E   E  E  E  Q     Q       E  E  E  E  +E   Q     E
|---------------------------|----------10-(10)-----------|
|-------0-12p10-14----10----|-10-12-10---------12--------|
|-(11)----------------------|------------------------11--|
|---------------------------|----------------------------|
|---------------------------|----------------------------|
|---------------------------|----------------------------|


  F#madd11                    G
  Gtr I
    W                          W
|---------------------------|--7------------------------|
|---------------------------|--x------------------------|
|---------------------------|--4------------------------|
|---------------------------|---------------------------|
|---------------------------|---------------------------|
|---------------------------|---------------------------|
|
| Gtrs II, III
|   E   E  E  E  E  E  E  E    E  E  E  E   E   E  E  E
|---9---9--9--9--9--9--9--9-|-10-10-10-10--10--10-10-10-|
|---0---0--0--0--0--0--0--0-|--0--0--0--0---0---0--0--0-|
|--11--11-11-11-11-11-11-11-|-12-12-12-12--12--12-12-12-|
|---------------------------|---------------------------|
|---------------------------|---------------------------|
|---------------------------|---------------------------|
|
| Gtr V
|  +E   E  E  E  Q     E  E    E  E  E  E  +E   Q     E
|---------------------------|----------14-(14)----------|
|-------0-12p10-14----10----|-10h12-10---------12-------|
|-(11)--------------------0-|-------------------------0-|
|---------------------------|---------------------------|
|---------------------------|---------------------------|
|---------------------------|---------------------------|


   W
|--9-------------------------|
|--x-------------------------|
|--6-------------------------|
|----------------------------|
|----------------------------|
|----------------------------|
|
|  E  E  E  E   E   E   E  E
|-10-10-10-10--10--10--10-10-|
|--0--0--0--0---0---0---0--0-|
|-12-12-12-12--12--12--12-12-|
|----------------------------|
|----------------------------|
|----------------------------|
|
|  E  E  E  E  +E   Q.
|----------14-(14)-----------|
|-10h12-10---------12--------|
|----------------------------|
|----------------------------|
|----------------------------|
|----------------------------|


  Gmaj9
    W                          W                           W
|--10----------------------|--12-----------------------|--14-----*|
|---x----------------------|---x-----------------------|---x-----*|
|---7----------------------|---9-----------------------|--11-----*|
|--------------------------|---------------------------|---------*|
|--------------------------|---------------------------|---------*|
|--------------------------|---------------------------|---------*|
|
|   E  E  E  E  E  E  E  E     E   E  E  E  E  E  E  E     W
|--10-10-10-10-10-10-10-10-|--10--10-10-10-10-10-10-10-|--10-----*|
|---0--0--0--0--0--0--0--0-|---0---0--0--0--0--0--0--0-|---0-----*|
|--12-12-12-12-12-12-12-12-|--12--12-12-12-12-12-12-12-|--12-----*|
|--------------------------|---------------------------|---------*|
|--------------------------|---------------------------|---------*|
|--------------------------|---------------------------|---------*|
|
|   W                         +W                          +W
|-^10----------------------|-(10)----------------------|-(10)----*|
|-^10----------------------|-(10)----------------------|-(10)----*|
|-^11----------------------|-(11)----------------------|-(11)----*|
|-^12----------------------|-(12)----------------------|-(12)----*|
|-^12----------------------|-(12)----------------------|-(12)----*|
|-^10----------------------|-(10)----------------------|-(10)----*|


Duration Legend
---------------
W - whole; H - half; Q - quarter; E - 8th; S - 16th; T - 32nd; X - 64th; a - acciaccatura
+ - note tied to previous; . - note dotted; .. - note double dotted
Uncapitalized letters represent notes that are staccato (1/2 duration)
Irregular groupings are notated above the duration line
Duration letters will always appear directly above the note/fret number it represents the
duration for.  Duration letters with no fret number below them represent rests.  Multi-
bar rests are notated in the form Wxn, where n is the number of bars to rest for.  Low
melody durations appear below the staff

Tablature Legend
----------------
 h   - hammer-on
 p   - pull-off
 b   - bend
 pb  - pre-bend
 r   - bend release (if no number after the r, then release immediately)
 /\  - slide into or out of (from/to "nowhere")
 s   - legato slide
 S   - shift slide
  - natural harmonic
[n]  - artificial harmonic
n(n) - tapped harmonic
 ~   - vibrato
 tr  - trill
 T   - tap
 TP  - trem. picking
 PM  - palm muting
\n/  - tremolo bar dip; n = amount to dip
 \n  - tremolo bar down
 n/  - tremolo bar up
/n\  - tremolo bar inverted dip
 =   - hold bend; also acts as connecting device for hammers/pulls
 <>  - volume swell (louder/softer)
 x   - on rhythm slash represents muted slash
 o   - on rhythm slash represents single note slash

Misc Legend
-----------
 |  - bar
||  - double bar
||o - repeat start
o|| - repeat end
*|  - double bar (ending)
 :  - bar (freetime)
 $  - Segno
 &  - Coda
Tempo markers -  = BPM(8/16=s8/s16), where s8 = swing 8ths, s16 = swing 16ths
comments
We did not receive enough feedback on this tab! Please rate:
print report bad tab
1 2 3 4 5
2 comments total.
0 reply
craZelz wrote on July 31 2007, 03:04 pm

=] good tab

0 reply
oiiopo wrote on October 22 2008, 06:04 am

Looks pretty similar to that other Power Tab, and that wasn't great. It just seems to be the chorus that doesn't really make it... otherwise pretty good.

I want to post or [tab]
guest
You may want to rate the tab now too:
select rating
Please do not post tabs as comments. Select "correction" instead!