Oops, an error
Loading. Please wait.

Aquamaria Tab

7,041 views 30 this week
no commentswrite comment
1 2 3 4 5
excellent!
x 5
Autoscroll
+/-
esc
set tempo
stop
Contributor
Difficulty
Tuning
intermediate
C G C F A D
Hey! There's an official Ultimate Guitar app which is ideal
for learning songs when you're away from computer. Get the app
WARNING: You are trying to view
                                    content from Ultimate-Guitar.com
                                    in an unauthorized application,
                                    which is prohibited.

                                    Please use an official Ultimate
                                    Guitar Tabs application for iPhone,
                                    iPad or Android to access legitimate
                                    chords, guitar, bass, and drum tabs
                                    from Ultimate-Guitar.com database.

                                    Type "ultimate guitar tabs" in Apple
                                    App Store's or Android Market's
                                    search to find the application.
Tabbed by: DanielBatty
Web: http://www.danielb.me/
-----------------------------------------------------------------------------
Standard Colour Haze; groovy licks and face-melting riffs. Here's Aquamaria: 
the first track of their 2006 release, Tempel.
-----------------------------------------------------------------------------
Artist: Colour Haze
Track: "Aquamaria"
Album: "Tempel"
Tab for: Guitar
Tuning: Drop C
-----------------------------------------------------------------------------
| /   slide up
| \   slide down
| h   hammer-on
| p   pull-off
| ~   vibrato
| b   bend
| x   ghost note
-----------------------------------------------------------------------------
(0:00)
 D|---------------|-----------------------|---------------|------------------------|
 A|---------------|-----------------------|---------------|------------------------|
 F|---------------|-----------------------|---------------|------------------------|
 C|---------------|-----------------------|---------------|------------------------|
 G|--------5---8~-|--------5-8p7-7-7h8-7~-|--------5---8~-|--------5-8p7-7-7h8-10\-|
 C|-0-0-/7---0----|-0-0-/7----------------|-0-0-/7---0----|-0-0-/7-----------------|

(0:12)
 D|---------------|-----------------------|---------------|------------------------|
 A|---------------|-----------------------|---------------|------------------------|
 F|---------------|-----------------------|---------------|------------------------|
 C|---------------|-----------------------|---------------|------------------------|
 G|--------5---8~-|--------5-8p7-7-7h8-7~-|--------5---8~-|--------5-8p7-7-7h8-10\-|
 C|-0-0-/7---0----|-0-0-/7----------------|-0-0-/7---0----|-0-0-/7-----------------|

(0:23)
 D|---------------|-----------------------|---------------|--------------------------|
 A|---------------|-----------------------|---------------|--------------------------|
 F|---------------|-----------------------|---------------|--------------------------|
 C|---------------|-----------------------|---------------|------7-7/10---------6/7~-|
 G|--------5---8~-|--------5-8p7-7-7h8-7~-|--------5---8~-|-8/10--------10-8h10------|
 C|-0-0-/7---0----|-0-0-/7----------------|-0-0-/7---0----|--------------------------|

(0:34)
 D|--------------|-----------------------|--------------|-------------|
 A|--------------|-----------------------|--------------|-------------|
 F|--------------|-----------------------|--------------|-------------|
 C|--------------|-----5-----------------|--------------|-------------|
 G|--------5---8-|-7h8---5-7/8-7-5-5h7-5-|--------5---8-|-8-7-5-3-3/5-|
 C|-0-0-/7---0---|-----------------------|-0-0-/7---0---|-------------|

(0:45)
 D|--------------------------|---------------------------|
 A|--------------------------|---------------------------|
 F|--------------------------|---------------------------|
 C|--------7-7-7----7h10-10~-|--------7-7-7-----7h10-----|
 G|---8h10-------10----------|---8h10-------10-------8~--|
 C|-0------------------------|-0-------------------------|

 D|-------------------------|---------------------------|
 A|-------------------------|---------------------------|
 F|-------------------------|---------------------------|
 C|--------7-7-7----7h10-10-|-10h12----------10-9h10p9~-|
 G|---8h10-------10---------|-------12-10-12------------|
 C|-0-----------------------|---------------------------|

(0:56)
 D|--------------------------|---------------------------|
 A|--------------------------|---------------------------|
 F|--------------------------|---------------------------|
 C|--------7-7-7----7h10-10~-|--------7-7-7-----7h10-----|
 G|---8h10-------10----------|---8h10-------10-------8~--|
 C|-0------------------------|-0-------------------------|

 D|-------------------------|-----------------------------|
 A|-------------------------|-----------------------------|
 F|-------------------------|-----------------------------|
 C|--------7-7-7----7h10-10-|-----------------------------|
 G|---8h10-------10---------|-10h12p10-9-10-9-9/10-9-5-5\-|
 C|-0-----------------------|-----------------------------|

(1:07)
 D|---------------|-----------------------|---------------|-----------------------|
 A|---------------|-----------------------|---------------|-----------------------|
 F|---------------|-----------------------|---------------|-----------------------|
 C|---------------|-----------------------|---------------|-----5-----------------|
 G|--------5---8~-|--------5-8p7-7-7h8-7~-|--------5---8~-|-7h8---5-7/8-7-5-5h7-5-|
 C|-0-0-/7---0----|-0-0-/7----------------|-0-0-/7---0----|-----------------------|

(1:18)
 D|------------------|------------------------|--------------|------------------------|
 A|------------------|------------------------|--------------|------------------------|
 F|------------------|------------------------|--------------|------------------------|
 C|------------------|------------------------|--------------|------7---------------0-|
 G|--------5-5p0--8~-|--------5-8p7-7-7h8-10\-|----5-5p0--8~-|-8/10---8/10-8-7h8p7----|
 C|-0-0-/7-----------|-0-0-/7-----------------|-/7-----------|------------------------|

(1:28)
 D|--------------------------|---------------------------|
 A|--------------------------|---------------------------|
 F|--------------------------|---------------------------|
 C|--------7-7-7----7h10-10~-|--------7-7-7-----7h10-----|
 G|---8h10-------10----------|---8h10-------10-------8~--|
 C|-0------------------------|-0-------------------------|

 D|-------------------------|---------------------------|
 A|-------------------------|---------------------------|
 F|-------------------------|---------------------------|
 C|--------7-7-7----7h10-10-|-10h12----------10-9h10p9~-|
 G|---8h10-------10---------|-------12-10-12------------|
 C|-0-----------------------|---------------------------|

(1:38)
 D|--------------------------|---------------------------|
 A|--------------------------|---------------------------|
 F|--------------------------|---------------------------|
 C|--------7-7-7----7h10-10~-|--------7-7-7-----7h10-----|
 G|---8h10-------10----------|---8h10-------10-------8~--|
 C|-0------------------------|-0-------------------------|

 D|-------------------------|------------------------------|
 A|-------------------------|------------------------------|
 F|-------------------------|-10h12------------------------|
 C|--------7-7-7----7h10-10-|-------12-10h12-------------0-|
 G|---8h10-------10---------|----------------12-10h12p10---|
 C|-0-----------------------|------------------------------|

(1:49)
 D|--------------------------------|-------------------------------|
 A|--------------------------------|-------------------------------|
 F|--------------------------------|-------------------------------|
 C|---------9-10-10p9-10-10h12-12~-|---------9-10-10p9-10-10h12-9~-|
 G|---10h12------------------------|---10h12-----------------------|
 C|-0------------------------------|-0-----------------------------|

 D|----------------------------------|----------------------------------|
 A|----------------------------------|----------------------------------|
 F|----------------------------------|----------------------------------|
 C|---------9-10-10p9-10-10h12-12-12-|-12/14-14-14-12-15p14-12-12p14-12-|
 G|---10h12--------------------------|----------------------------------|
 C|-0--------------------------------|----------------------------------|

(2:00)
 D|--------------------------------|-------------------------------|
 A|--------------------------------|-------------------------------|
 F|--------------------------------|-------------------------------|
 C|---------9-10-10p9-10-10h12-12~-|---------9-10-10p9-10-10h12-9~-|
 G|---10h12------------------------|---10h12-----------------------|
 C|-0------------------------------|-0-----------------------------|

 D|----------------------------------|-------------------------------|
 A|----------------------------------|-------------------------------|
 F|----------------------------------|-------------------------------|
 C|---------9-10-10p9-10-10h12-12-12-|-12/14-14-12-------12-12p10-12-|
 G|---10h12--------------------------|-------------12h15-------------|
 C|-0--------------------------------|-------------------------------|

(2:10)
 D|-------------------------------|-------------------------------|
 A|-------------------------------|-------------------------------|
 F|-------------------------------|-------------------------------|
 C|---------10----------10/12-12\-|---------10----------10/12-12\-|
 G|---10h12----12-12-12-----------|---10h12----12-12-12-----------|
 C|-0-----------------------------|-0-----------------------------|

 D|------------------------------|---------------------------------|
 A|------------------------------|---------------------------------|
 F|------------------------------|---------------------------------|
 C|---------10----------10/12-12-|---------10-------12----12h14----|
 G|---10h12----12-12-12----------|---10h12----12/14----14-------12-|
 C|-0----------------------------|-0-------------------------------|

(2:20)
 D|-------------------------------|-------------------------------|
 A|-------------------------------|-------------------------------|
 F|-------------------------------|-------------------------------|
 C|-------10-------12----12h14p12-|-------10----------12-12h14p12-|
 G|-10/12----12/14----14----------|-10/12----12-12/14-------------|
 C|-0-----------------------------|-0-----------------------------|

 D|-------------------------|---------------------------------|
 A|-------------------------|---------------------------------|
 F|-------------------------|---------------------------------|
 C|-------10----10-------12-|-------10h12-12-12/14-14-14-12---|
 G|-10/12----12----12/14----|-10/12---------------------------|
 C|-0-----------------------|-0-------------------------------|

(2:30 - 3:11) repeat
 D|--------------------------------------------------------------------|
 A|---13-13/15-15------------------------------------------------------|
 F|---10-10/12-12-14--14-14-14-14--14-14-14-14-------------------------|
 C|---------------12--12-12-12-12--15-15-15-15-14-14-14-14-14/16-16-16-|
 G|--------------------------------------------15-15-15-15-15/17-17-17-|
 C|-0------------------------------------------------------------------|

(3:12 -3:54) repeat face-melting riffage -_-
 D|-----------------------------------------------------|
 A|-----------------------------------------------------|
 F|------14-14------------------------------------------|
 C|---12-12-12-12--15-15-15-15\10-10-10-10--10h12-12-12-|
 G|---12-12-12-12--15-15-15-15\10-10-10-10--10h12-12-12-|
 C|-0-12-12-12-12--15-15-15-15\10-10-10-10--10h12-12-12-|

(3:55) 
 D|---------------------------------------------------------------|
 A|---15p13-15-15-------------12b13b12----10-------10-------------|
 F|---------------14p12-14-14----------12----12-12----------------|
 C|---------------------------------------------------12-12h14-12-|
 G|---------------------------------------------------------------|
 C|-0-------------------------------------------------------------|

(4:00) 
 D|-----------------------------------15-----------------------------------------------|
 A|---15p13-15-15--12-12h13-13--12h13----13p12p10-12p10-12--12b13-12-12p10-------10----|
 F|------------------------------------------------------------------------12-12----12-|
 C|------------------------------------------------------------------------------------|
 G|------------------------------------------------------------------------------------|
 C|-0----------------------------------------------------------------------------------|

(4:05) 
 D|---------------------------------------------------------------------------|
 A|---------------------------------------------------------------------------|
 F|-9h10h12-9-9-9h10-10-9h10-12h14--13/14-14-------13/14-14-------------------|
 C|------------------------------------------12-12----------12-12-14b15b14-12-|
 G|---------------------------------------------------------------------------|
 C|---------------------------------------------------------------------------|

(4:10) 
 D|----------------------------------------------------------------------------|
 A|-------------10-13--------------13------------------------------------------|
 F|----------10--------12h14-14-14-----10h12p10-9-10-9h10-9h10-12p9-9-9-9h10p9-|
 C|-10h12-12-------------------------------------------------------------------|
 G|----------------------------------------------------------------------------|
 C|----------------------------------------------------------------------------|

(4:15)
 D|--------------------------------------------------------------|
 A|--------------------------------------------------------------|
 F|----------9h10-9-10p9-10h12-9--------9-9h10-9-10h12-10-9h10-9-|
 C|-10h12-12----------------------10h12--------------------------|
 G|--------------------------------------------------------------|
 C|--------------------------------------------------------------|

(4:20)
 D|-----------------------------------------------------------------------|
 A|-----------------------------------------------13-13----13----13h15-15-|
 F|-------9-9-10p9-9-10p9-10-10/12-12-12-12/14-14-------14----14----------|
 C|-10h12-----------------------------------------------------------------|
 G|-----------------------------------------------------------------------|
 C|-----------------------------------------------------------------------|

(4:25)
 D|-------------------------------------------------------------------13-----|
 A|-15b17b15-13-15-13-15-13-15-15b17b15-13-15b17b15-13-15p13-15-13h15----13~-|
 F|--------------------------------------------------------------------------|
 C|--------------------------------------------------------------------------|
 G|--------------------------------------------------------------------------|
 C|--------------------------------------------------------------------------|

(4:30)
 D|-------------------------------------------------------------------------------|
 A|-15b17b15-13-15-13-15-13-15-15b17b15-13--/15----------/15-15-------------------|
 F|---------------------------------------------12h14-14--------12-12-12-12h14-12-|
 C|-------------------------------------------------------------------------------|
 G|-------------------------------------------------------------------------------|
 C|-------------------------------------------------------------------------------|

(4:36)
 D|--------------------------------------------------|
 A|--------------------------------------------------|
 F|--------------------------------------------------|
 C|-14h15-14-12-15-14-12--15-14-12-15p14-12-12h14-12-|
 G|--------------------------------------------------|
 C|--------------------------------------------------|

(4:41)
 D|---------------------------------------------------------------------------------|
 A|---------------------------------------------------------------------------------|
 F|---------------------------------------------------------------12-12-12-12h14----|
 C|-15-15-15-14-14-14-12-12-12--15-15-14-12-14-12--15-15-14-14-12----------------12-|
 G|---------------------------------------------------------------------------------|
 C|---------------------------------------------------------------------------------|

(4:46)
 D|-------------------------------------------------|
 A|-------------------------------------------------|
 F|-------------------------------------------------|
 C|-15-14-12-15-14-14-12-15-14-12-14-15-14-12h14-12-|
 G|-------------------------------------------------|
 C|-------------------------------------------------|

(4:51)
 D|-------------------------------------------------|
 A|-------------------------------------------------|
 F|-------------------------------------------------|
 C|-15-15-15-14-14-14-12-12-12-15-15-15-14-14-15-15-|
 G|-------------------------------------------------|
 C|-------------------------------------------------|

 D|-------------------------------------------------|
 A|-------------------------------------------------|
 F|-------------------------------------------------|
 C|-17-17-17-15-15-15-17-17-17-15-15-17-17h19-19-19-|
 G|-------------------------------------------------|
 C|-------------------------------------------------|

(4:56)
 D|-----------------------------------------------------------|
 A|-15----13h15-13-13\12-13p12--------------------------------|
 F|----------------------------12-/14-------------------------|
 C|-----------------------------------12-12--10-10-10/12-9----|
 G|--------------------------------------------------------10-|
 C|-----------------------------------------------------------|

(5:06)
 D|-15\13----13\12---12\10---10---10/12----------------|
 A|-------------------------------------12/13-13-15----|
 F|-------10-------9-------7----7--7/9--------------14-|
 C|--------------------------------------9/10-10-12----|
 G|-------------------------------------------------12-|
 C|----------------------------------------------------|

(5:10)
 D|----------------15---------17--------12-13\12-10-10~-|
 A|-------12-13-13--------------------------------------|
 F|-12-14----------12---12/14----12--10\9--10\9--7--7~--|
 C|-------9--10-10----12--------------------------------|
 G|-10-12-----------------------------------------------|
 C|-----------------------------------------------------|

(5:17)
 D|---------------------13\12-10-12-12\8-8-8/10-5-|
 A|--------13-13/15-------------------------------|
 F|-9/10-9----------15--10\9--7--9---9\5-5-5/7--2-|
 C|--------10-10/12-------------------------------|
 G|-----------------12----------------------------|
 C|-----------------------------------------------|

(5:26)
 D|----------------------------------------------|
 A|-10\8/10--------------------------------------|
 F|---------7/9-9/10-9-12--10\9-7-9\7--7/9\5-5---|
 C|--7\5/7-------------------------------------5-|
 G|---------5/7-7/8--7-10---8\7-5-7\5--5/7\3-----|
 C|----------------------------------------------|

(5:36 - 6:53) repeat, gradually getting more intense ;)
 D|---------------------------|
 A|---------------------------|
 F|---------------------------|
 C|---------------5-0-3-------|
 G|-5-0-3h5-0-3-5-------3-3-5-|
 C|---------------------------|

(6:54 - 7:34) repeat face-melting riffage -_-
 D|-----------------------------------------------------|
 A|-----------------------------------------------------|
 F|------14-14------------------------------------------|
 C|---12-12-12-12--15-15-15-15\10-10-10-10--10h12-12-12-|
 G|---12-12-12-12--15-15-15-15\10-10-10-10--10h12-12-12-|
 C|-0-12-12-12-12--15-15-15-15\10-10-10-10--10h12-12-12-|

(7:35 - 8:16) repeat
 D|--------------------------------------------------------------------|
 A|---13-13/15-15------------------------------------------------------|
 F|---10-10/12-12-14--14-14-14-14--14-14-14-14-------------------------|
 C|---------------12--12-12-12-12--15-15-15-15-14-14-14-14-14/16-16-16-|
 G|--------------------------------------------15-15-15-15-15/17-17-17-|
 C|-0------------------------------------------------------------------|

(8:16 - End) repeat
 D|--------------------------------------------------------------------|
 A|---13-13/15-15------------------------------------------------------|
 F|---10-10/12-12-14--14-14-14-14--14-14-14-14-------------------------|
 C|---------------12--12-12-12-12--15-15-15-15-14-14-14-14-14/16-16-16-|
 G|--------------------------------------------15-15-15-15-15/17-17-17-|
 C|-0------------------------------------------------------------------|
comments
print report bad tab
I want to post or [tab]
guest
You may want to rate the tab now too:
select rating
Please do not post tabs as comments. Select "correction" instead!