Oops, an error
Loading. Please wait.

Axe To Fall Tab

ver1
ver1

Whole song

Interactive

More versions @911Tabs.com
10,357 views 12 this week
no commentswrite comment
1 2 3 4 5
excellent!
x 2
Autoscroll
+/-
esc
set tempo
stop
Contributor
Difficulty
Tuning
intermediate
C G C F A D
Hey! There's an official Ultimate Guitar app which is ideal
for learning songs when you're away from computer. Get the app
WARNING: You are trying to view
                                    content from Ultimate-Guitar.com
                                    in an unauthorized application,
                                    which is prohibited.

                                    Please use an official Ultimate
                                    Guitar Tabs application for iPhone,
                                    iPad or Android to access legitimate
                                    chords, guitar, bass, and drum tabs
                                    from Ultimate-Guitar.com database.

                                    Type "ultimate guitar tabs" in Apple
                                    App Store's or Android Market's
                                    search to find the application.
Axe To Fall                                   


                                                                        Converge
Guitar



       <                                                                       
                       |----3----|    |----3----|                              
       H.              Q    Q    Q    Q    Q    Q       H        Q.       E    
D||--<>6------------|--------------------------------|------------------------|
A||-----------------|--------------------------------|------------------------|
F||-----------------|--8-----------------------------|------------------------|
C||-----------------|--8----3----4----4----3----1----|--0---------------------|
G||-----------------|--6----3----4----4----3----1----|--0---------------------|
C||-----------------|-------3----4----4----3----1----|--0--------0s------12~--|


  |----3----|    |----3----|                                       
  Q    Q    Q    Q    Q    Q       S S S S S S  S   S   H          
--------------------------------|---------------------------------|
--------------------------------|---------------------------------|
--8-----------------------------|--7-7-7-7-7-7--------------------|
--8----3----4----4----3----1----|--x-x-x-x-x-x--------------------|
--6----3----4----4----3----1----|--5-5-5-5-5-5--------------------|
-------3----4----4----3----1----|--------------(0)-(0)-12\--------|


  |----3----|    |----3----|                                    
  Q    Q    Q    Q    Q    Q       S S S S S S  E    H          
--------------------------------|------------------------------|
--------------------------------|------------------------------|
--8-----------------------------|--7-7-7-7-7-7-----------------|
--8----3----4----4----3----1----|--x-x-x-x-x-x-----------------|
--6----3----4----4----3----1----|--5-5-5-5-5-5-----------------|
-------3----4----4----3----1----|--------------(0)--12\--------|


                                               <          
  |----3----|    |----3----|                              
  Q    Q    Q    Q    Q    Q       Q    Q      E  Q.      
--------------------------------|------------<>0--L------|
--------------------------------|------------<>0--L------|
--8-----------------------------|------------------------|
--8----3----4----4----3----1----|--0---------------------|
--6----3----4----4----3----1----|--0---------------------|
-------3----4----4----3----1----|--0---------------------|


  |---3---| |--3-|   |-3|   |-3-|  |---3---| |--3-|   |-3|   |-3-|   
  S   S   S S S  S   E  S   S   E  S   S   S S S  S   E  S   S   E   
--------------------------------------------------------------------|
--------------------------------------------------------------------|
--------------------------------------------------------------------|
------------------------0h-10h-12------------------------0h-10h-12--|
--------------0h-9h-11-------------------------0h-9h-11-------------|
--0h-10h-12-L----------------------0h-10h-12-L----------------------|


  |---3---| |--3-|   |-3|   |-3-|  |---3---| |--3-|   |-3|   |-3-|   
  S   S   S S S  S   E  S   S   E  S   S   S S S  S   E  S   S   E   
--------------------------------------------------------------------|
--------------------------------------------------------------------|
--------------------------------------------------------------------|
------------------------0h-10h-12------------------------0h-10h-12--|
--------------0h-9h-11-------------------------0h-9h-11-------------|
--0h-10h-12-L----------------------0h-10h-12-L----------------------|


  |---3---| |--3-|   |-3|   |-3-|  |---3---| |--3-|   |-3|   |-3-|   
  S   S   S S S  S   E  S   S   E  S   S   S S S  S   E  S   S   E   
--------------------------------------------------------------------|
--------------------------------------------------------------------|
--------------------------------------------------------------------|
------------------------0h-10h-12------------------------0h-10h-12--|
--------------0h-9h-11-------------------------0h-9h-11-------------|
--0h-10h-12-L----------------------0h-10h-12-L----------------------|


        PM       PM         
   Q    E   Q    E   E  E   
---------------------------|
---------------------------|
--10-------10-------10-----|
---9--------9--------9-----|
---8----0---8----0---8-----|
--------0--------0---------|


  |--3--| |--3-|  |-3|  |-3|  |--3--| |--3-|  |-3|  |-3|   
  S  S  S S S  S  E  S  S  E  S  S  S S S  S  E  S  S  E   
----------------------------------------------------------|
----------------------------------------------------------|
----------------------------------------------------------|
---------------------0h-4h-6---------------------0h-4h-6--|
------------0h-3h-5---------------------0h-3h-5-----------|
--0h-4h-6-L-------------------0h-4h-6-L-------------------|


  |--3--| |--3-|  |-3|  |-3|  |--3--| |--3-|  |-3|  |-3|   
  S  S  S S S  S  E  S  S  E  S  S  S S S  S  E  S  S  E   
----------------------------------------------------------|
----------------------------------------------------------|
----------------------------------------------------------|
---------------------0h-4h-6---------------------0h-4h-6--|
------------0h-3h-5---------------------0h-3h-5-----------|
--0h-4h-6-L-------------------0h-4h-6-L-------------------|


  |--3--| |--3-|  |-3|  |-3|  |--3--| |--3-|  |-3|  |-3|   
  S  S  S S S  S  E  S  S  E  S  S  S S S  S  E  S  S  E   
----------------------------------------------------------|
----------------------------------------------------------|
----------------------------------------------------------|
---------------------0h-4h-6---------------------0h-4h-6--|
------------0h-3h-5---------------------0h-3h-5-----------|
--0h-4h-6-L-------------------0h-4h-6-L-------------------|


       PM      PM               PM      PM        
  Q    E  Q    E  E  E     Q    E  Q    E  E  E   
------------------------|------------------------|
------------------------|------------------------|
--7-------7-------7-----|--7-------7-------7-----|
--6-------6-------6-----|--6-------6-------6-----|
--5----0--5----0--5-----|--5----0--5----0--5-----|
-------0-------0--------|-------0-------0--------|


  |----3----|    |----3----|                              
  Q    Q    Q    Q    Q    Q       H        Q.       E    
--------------------------------|------------------------|
--------------------------------|------------------------|
--8-----------------------------|------------------------|
--8----3----4----4----3----1----|--0---------------------|
--6----3----4----4----3----1----|--0---------------------|
-------3----4----4----3----1----|--0--------0s------12~--|


  |----3----|    |----3----|                                       
  Q    Q    Q    Q    Q    Q       S S S S S S  S   S   H          
--------------------------------|---------------------------------|
--------------------------------|---------------------------------|
--8-----------------------------|--7-7-7-7-7-7--------------------|
--8----3----4----4----3----1----|--x-x-x-x-x-x--------------------|
--6----3----4----4----3----1----|--5-5-5-5-5-5--------------------|
-------3----4----4----3----1----|--------------(0)-(0)-12\--------|


  |----3----|    |----3----|                                    
  Q    Q    Q    Q    Q    Q       S S S S S S  E    H          
--------------------------------|------------------------------|
--------------------------------|------------------------------|
--8-----------------------------|--7-7-7-7-7-7-----------------|
--8----3----4----4----3----1----|--x-x-x-x-x-x-----------------|
--6----3----4----4----3----1----|--5-5-5-5-5-5-----------------|
-------3----4----4----3----1----|--------------(0)--12\--------|


  |----3----|    |----3----|                         
  Q    Q    Q    Q    Q    Q       W                 
--------------------------------|-------------------|
--------------------------------|-------------------|
--8-----------------------------|-------------------|
--8----3----4----4----3----1----|--0----------------|
--6----3----4----4----3----1----|--0----------------|
-------3----4----4----3----1----|--0----------------|


  |---3---| |--3-|   |-3|   |-3-|  |---3---| |--3-|   |-3|   |-3-|   
  S   S   S S S  S   E  S   S   E  S   S   S S S  S   E  S   S   E   
--------------------------------------------------------------------|
--------------------------------------------------------------------|
--------------------------------------------------------------------|
------------------------0h-10h-12------------------------0h-10h-12--|
--------------0h-9h-11-------------------------0h-9h-11-------------|
--0h-10h-12-L----------------------0h-10h-12-L----------------------|


  |---3---| |--3-|   |-3|   |-3-|  |---3---| |--3-|   |-3|   |-3-|   
  S   S   S S S  S   E  S   S   E  S   S   S S S  S   E  S   S   E   
--------------------------------------------------------------------|
--------------------------------------------------------------------|
--------------------------------------------------------------------|
------------------------0h-10h-12------------------------0h-10h-12--|
--------------0h-9h-11-------------------------0h-9h-11-------------|
--0h-10h-12-L----------------------0h-10h-12-L----------------------|


  |---3---| |--3-|   |-3|   |-3-|  |---3---| |--3-|   |-3|   |-3-|   
  S   S   S S S  S   E  S   S   E  S   S   S S S  S   E  S   S   E   
--------------------------------------------------------------------|
--------------------------------------------------------------------|
--------------------------------------------------------------------|
------------------------0h-10h-12------------------------0h-10h-12--|
--------------0h-9h-11-------------------------0h-9h-11-------------|
--0h-10h-12-L----------------------0h-10h-12-L----------------------|


        PM       PM         
   Q    E   Q    E   E  E   
---------------------------|
---------------------------|
--10-------10-------10-----|
---9--------9--------9-----|
---8----0---8----0---8-----|
--------0--------0---------|


  |--3--| |--3-|  |-3|  |-3|  |--3--| |--3-|  |-3|  |-3|   
  S  S  S S S  S  E  S  S  E  S  S  S S S  S  E  S  S  E   
----------------------------------------------------------|
----------------------------------------------------------|
----------------------------------------------------------|
---------------------0h-4h-6---------------------0h-4h-6--|
------------0h-3h-5---------------------0h-3h-5-----------|
--0h-4h-6-L-------------------0h-4h-6-L-------------------|


  |--3--| |--3-|  |-3|  |-3|  |--3--| |--3-|  |-3|  |-3|   
  S  S  S S S  S  E  S  S  E  S  S  S S S  S  E  S  S  E   
----------------------------------------------------------|
----------------------------------------------------------|
----------------------------------------------------------|
---------------------0h-4h-6---------------------0h-4h-6--|
------------0h-3h-5---------------------0h-3h-5-----------|
--0h-4h-6-L-------------------0h-4h-6-L-------------------|


  |--3--| |--3-|  |-3|  |-3|  |--3--| |--3-|  |-3|  |-3|   
  S  S  S S S  S  E  S  S  E  S  S  S S S  S  E  S  S  E   
----------------------------------------------------------|
----------------------------------------------------------|
----------------------------------------------------------|
---------------------0h-4h-6---------------------0h-4h-6--|
------------0h-3h-5---------------------0h-3h-5-----------|
--0h-4h-6-L-------------------0h-4h-6-L-------------------|


       PM      PM               PM      PM        
  Q    E  Q    E  E  E     Q    E  Q    E  E  E   
------------------------|------------------------|
------------------------|------------------------|
--7-------7-------7-----|--7-------7-------7-----|
--6-------6-------6-----|--6-------6-------6-----|
--5----0--5----0--5-----|--5----0--5----0--5-----|
-------0-------0--------|-------0-------0--------|


  |---3---| |--3-|   |-3|   |-3-|  |---3---| |--3-|   |-3|   |-3-|   
  S   S   S S S  S   E  S   S   E  S   S   S S S  S   E  S   S   E   
--------------------------------------------------------------------|
--------------------------------------------------------------------|
--------------------------------------------------------------------|
------------------------0h-10h-12------------------------0h-10h-12--|
--------------0h-9h-11-------------------------0h-9h-11-------------|
--0h-10h-12-L----------------------0h-10h-12-L----------------------|


  |---3---| |--3-|   |-3|   |-3-|  |---3---| |--3-|   |-3|   |-3-|   
  S   S   S S S  S   E  S   S   E  S   S   S S S  S   E  S   S   E   
--------------------------------------------------------------------|
--------------------------------------------------------------------|
--------------------------------------------------------------------|
------------------------0h-10h-12------------------------0h-10h-12--|
--------------0h-9h-11-------------------------0h-9h-11-------------|
--0h-10h-12-L----------------------0h-10h-12-L----------------------|


  |---3---| |--3-|   |-3|   |-3-|  |---3---| |--3-|   |-3|   |-3-|   
  S   S   S S S  S   E  S   S   E  S   S   S S S  S   E  S   S   E   
--------------------------------------------------------------------|
--------------------------------------------------------------------|
--------------------------------------------------------------------|
------------------------0h-10h-12------------------------0h-10h-12--|
--------------0h-9h-11-------------------------0h-9h-11-------------|
--0h-10h-12-L----------------------0h-10h-12-L----------------------|


        PM       PM         
   Q    E   Q    E   E  E   
---------------------------|
---------------------------|
--10-------10-------10-----|
---9--------9--------9-----|
---8----0---8----0---8-----|
--------0--------0---------|


  |--3--| |--3-|  |-3|  |-3|  |--3--| |--3-|  |-3|  |-3|   
  S  S  S S S  S  E  S  S  E  S  S  S S S  S  E  S  S  E   
----------------------------------------------------------|
----------------------------------------------------------|
----------------------------------------------------------|
---------------------0h-4h-6---------------------0h-4h-6--|
------------0h-3h-5---------------------0h-3h-5-----------|
--0h-4h-6-L-------------------0h-4h-6-L-------------------|


  |--3--| |--3-|  |-3|  |-3|  |--3--| |--3-|  |-3|  |-3|   
  S  S  S S S  S  E  S  S  E  S  S  S S S  S  E  S  S  E   
----------------------------------------------------------|
----------------------------------------------------------|
----------------------------------------------------------|
---------------------0h-4h-6---------------------0h-4h-6--|
------------0h-3h-5---------------------0h-3h-5-----------|
--0h-4h-6-L-------------------0h-4h-6-L-------------------|


  |--3--| |--3-|  |-3|  |-3|  |--3--| |--3-|  |-3|  |-3|   
  S  S  S S S  S  E  S  S  E  S  S  S S S  S  E  S  S  E   
----------------------------------------------------------|
----------------------------------------------------------|
----------------------------------------------------------|
---------------------0h-4h-6---------------------0h-4h-6--|
------------0h-3h-5---------------------0h-3h-5-----------|
--0h-4h-6-L-------------------0h-4h-6-L-------------------|


       PM      PM               PM      PM                  
  Q    E  Q    E  E  E     Q    E  Q    E  E  E     Q.      
------------------------|------------------------|---------|
------------------------|------------------------|---------|
--7-------7-------7-----|--7-------7-------7-----|---------|
--6-------6-------6-----|--6-------6-------6-----|---------|
--5----0--5----0--5-----|--5----0--5----0--5-----|---------|
-------0-------0--------|-------0-------0--------|---------|


                                    PM                               
  H        E  E  E  E     Q    Q    E  Q.        H.           E  E   
-----------------------|----------------------|---------------------|
-----------------------|----------------------|---------------------|
-----------------------|----------------------|---------------------|
--0--------------------|--4----4-------1------|--0------------L--3--|
--0--------6-----------|--4----4----3--1------|--0------------L--3--|
--0-----------6--5--3--|--4----4----3--1------|--0------------L--3--|


                                                             PM         
  E  Q    E  E  Q    E     H        E  E  E  E     Q    Q    E  Q.      
------------------------|-----------------------|----------------------|
------------------------|-----------------------|----------------------|
------------------------|-----------------------|----------------------|
--4-------1--3-------1--|--0--------------------|--4----4-------1------|
--4-------1--3-------1--|--0--------6-----------|--4----4----3--1------|
--4-------1--3-------1--|--0-----------6--5--3--|--4----4----3--1------|


     PM PM PM    PM PM          PM PM       PM PM                             
  E  E  E  E  E  E  E  E     E  E  E  E  E  E  E  E     H        E  E  E  E   
--------------------------|--------------------------|-----------------------|
--------------------------|--------------------------|-----------------------|
--7-----------7--------5--|--6--------3--5--------3--|--2--------------------|
--7-----------7--------3--|--4--------1--3--------1--|--0--------------------|
--5--0--0--0--5--0--0--3--|--4--4--4--1--3--3--3--1--|--0--------6-----------|
-----0--0--0-----0--0--3--|--4--4--4--1--3--3--3--1--|--0-----------6--5--3--|


            PM                                      PM PM       PM PM     
  Q    Q    E  Q.        H        E  E  E  E     E  E  E  E  E  E  E  E   
----------------------|-----------------------|--------------------------|
----------------------|-----------------------|--------------------------|
----------------------|-----------------------|--------------------------|
--4----4-------1------|--0-----------------3--|--4--------1--3--------1--|
--4----4----3--1------|--0--------6--------3--|--4--------1--3--------1--|
--4----4----3--1------|--0-----------6--5--3--|--4--4--4--1--3--3--3--1--|


                                    PM              PM PM PM    PM PM     
  H        E  E  E  E     Q    Q    E  Q.        E  E  E  E  E  E  E  E   
-----------------------|----------------------|--------------------------|
-----------------------|----------------------|--------------------------|
-----------------------|----------------------|--7-----------7--------5--|
--0--------------------|--4----4-------1------|--7-----------7--------3--|
--0--------6-----------|--4----4----3--1------|--5--0--0--0--5--0--0--3--|
--0-----------6--5--3--|--4----4----3--1------|-----0--0--0-----0--0--3--|


                   Feedback                     
     PM PM         W                            
  E  E  E  E  E    Q.        W                  
--------------------------|-------------------||
--------------------------|-------------------||
--6--------3--5-----------|-------------------||
--4--------1--3-----------|-------------------||
--4--4--4--1--3-----------|-------------------||
--4--4--4--1--3--<>3------|--L----------------||




Duration Legend
---------------
W - whole
H - half
Q - quarter
E - 8th
S - 16th
T - 32nd
X - 64th
. - note dotted
|-n-|  - n-tuplets


Tablature Legend
----------------
L - tied note
x - dead note
g - grace note
(n) - ghost note
> - accentuded note
NH - natural harmonic
AH - artificial harmonic
TH - tapped harmonic
SH - semi harmonic
PH - pitch harmonic
h - hammer on
p - pull off
b - bend
br - bendRelease
pb - preBend
pbr - preBendRelease
brb - bendReleaseBend
\n/ - tremolo bar dip
\n - tremolo bar dive
-/n - tremolo bar Release up
/n\ - tremolo bar inverted dip
/n - tremolo bar return
-\n - tremolo bar Release down
S - shift slide
s - legato slide
/ -  slide into from below or out of upwards
\ -  slide into from above or out of downwards
~ - vibrato
W - wide vibrato
tr - trill
TP - tremolo picking
T - tapping
S - slap
P - pop
< - fade in
^ - brush up
v - brush down
comments
We did not receive enough feedback on this tab! Please rate:
print report bad tab
1 2 3 4 5
I want to post or [tab]
guest
You may want to rate the tab now too:
select rating
Please do not post tabs as comments. Select "correction" instead!