Oops, an error
Loading. Please wait.

Concubine Tab

ver3
ver3

Whole song

More versions @911Tabs.com
377 views 1 this week
1 commentread comment
1 2 3 4 5
please rate
Autoscroll
+/-
esc
set tempo
stop
Contributor
Difficulty
intermediate
WARNING: You are trying to view
                                    content from Ultimate-Guitar.com
                                    in an unauthorized application,
                                    which is prohibited.

                                    Please use an official Ultimate
                                    Guitar Tabs application for iPhone,
                                    iPad or Android to access legitimate
                                    chords, guitar, bass, and drum tabs
                                    from Ultimate-Guitar.com database.

                                    Type "ultimate guitar tabs" in Apple
                                    App Store's or Android Market's
                                    search to find the application.
Converge - Dark Horse

Tuning - Drop C (C,G,C,F,A,D)

        Intro:
|---------------------------|
|---------------------------|
|---------------------------|
|---------------------------|
|--/5~~~~~~~~~~~~~~~~~~~----|
|---------------------------|

|----------------------------|
|----------------------------|
|----------------------------|
|---x\\\\\\\\\---------------|
|---x\\\\\\\\\-(pickslide)---|
|--12\\\\\\\\\---------------|

|----------------------------------------|
|----------------------------------------|
|-------14--9p0-10p0-12p0------10p0-9p7--|  8x
|--12p0-------------------12p0-----------|
|----------------------------------------|
|----------------------------------------|

|-----------------------------------|------------------------------|
|-------15--------15--------15------|--------15--------15~~~~~~~~--|
|-----------------------------------|---12--------12---14~~~~~~~~--|
|--15--------15--------15-----------|------------------------------|
|-----------------------------------|------------------------------|
|-----------------------------------|------------------------------|

Verse:
|----------------------------------------|
|----------------------------------------|
|-------14--9p0-10p0-12p0------10p0-9p7--|  8x
|--12p0-------------------12p0-----------|
|----------------------------------------|
|----------------------------------------|

|-----------------------------------|------------------------------|
|-------15--------15--------15------|--------15--------15~~~~~~~~--|
|-----------------------------------|---12--------12---14~~~~~~~~--|
|--15--------15--------15-----------|------------------------------|
|-----------------------------------|------------------------------|
|-----------------------------------|------------------------------|

Chorus:
|-------------------------|-------------------------|
|-------------------------|-------------------------|
|--7--7--7--7--7--7--10---|--6--6--6--6--6--6--8----|
|--7--7--7--7--7--7--10---|--6--6--6--6--6--6--8----|
|--5--5--5--5--5--5--8----|--4--4--4--4--4--4--6----|
|-------------------------|-------------------------|

-------------------------|-------------------------|
-------------------------|-------------------------|
--7--7--7--7--7--7--10---|--6--6--6--6--6--6--8----| x2
--7--7--7--7--7--7--10---|--6--6--6--6--6--6--8----|
--5--5--5--5--5--5--8----|--4--4--4--4--4--4--6----|
-------------------------|--6--6--6--6--6--6-------|


|-----------------------------------|------------------------------|
|-------15--------15--------15------|--------15--------15~~~~~~~~--|
|-----------------------------------|---12--------12---14~~~~~~~~--|
|--15--------15--------15-----------|------------------------------|
|-----------------------------------|------------------------------|
|-----------------------------------|------------------------------|

Verse 2:
|----------------------------------------|
|----------------------------------------|
|-------14--9p0-10p0-12p0------10p0-9p7--|  8x
|--12p0-------------------12p0-----------|
|----------------------------------------|
|----------------------------------------|

|-----------------------------------|------------------------------|
|-------15--------15--------15------|--------15--------15~~~~~~~~--|
|-----------------------------------|---12--------12---14~~~~~~~~--|
|--15--------15--------15-----------|------------------------------|
|-----------------------------------|------------------------------|
|-----------------------------------|------------------------------|

Chorus 2:
|-------------------------|-------------------------|
|-------------------------|-------------------------|
|--7--7--7--7--7--7--10---|--6--6--6--6--6--6--8----|
|--7--7--7--7--7--7--10---|--6--6--6--6--6--6--8----|
|--5--5--5--5--5--5--8----|--4--4--4--4--4--4--6----|
|-------------------------|-------------------------|

-------------------------|-------------------------|
-------------------------|-------------------------|
--7--7--7--7--7--7--10---|--6--6--6--6--6--6--8----| x2
--7--7--7--7--7--7--10---|--6--6--6--6--6--6--8----|
--5--5--5--5--5--5--8----|--4--4--4--4--4--4--6----|
-------------------------|--6--6--6--6--6--6-------|

|-----------------------------------|------------------------------|
|-------15--------15--------15------|--------15--------15~~~~~~~~--|
|-----------------------------------|---12--------12---14~~~~~~~~--|
|--15--------15--------15-----------|------------------------------|
|-----------------------------------|------------------------------|
|-----------------------------------|------------------------------|

Bridge I
|-------------------------|-------------------------|
|-11-11-11-11-11-11-11-11-|-------------------------|
|-13----13-13-13-13-13-13-|-14-14-14-14-14-14-14-14-|
|-------------------------|-------------------------|
|-------------------------|-------------------------|
|-------------------------|-------------------------|

|-------------------------|-----------------|
|-------------------------|-----------------|
|-11-11-11-11-11-11-11-11-|-8-8-8-8-8-8-8-8-|
|-------------------------|-----------------|
|-------------------------|-----------------|
|-------------------------|-----------------|





|-------------------------|-------------------------|
|-11-11-11-11-11-11-11-11-|-------------------------|
|-13-13-13-13-13-13-13-13-|-14-14-14-14-14-14-14-14-|
|-------------------------|-------------------------|
|-------------------------|-------------------------|
|-------------------------|-------------------------|

|-------------------------|-----------------|
|-------------------------|-----------------|
|-11-11-11-11-11-11-11-11-|-8-8-8-8-8-8-8-8-|
|-------------------------|-----------------|
|-------------------------|-----------------|
|-------------------------|-----------------|

Bridge II
|-------------------|------------------|
|-------------------|------------------|
|--7-7-7-7-7-7-5-7--|-8-8-8-8-8-8-7-8--|
|-------------------|------------------|
|-------------------|------------------|

|--------------------------|---------------------------|
|--------------------------|---------------------------|
|--10-10-10-10-10-10-8-10--|--12-12-12-12-12-12-10-12--|
|--------------------------|---------------------------|
|--------------------------|---------------------------|
|--------------------------|---------------------------|

|---------------------------|---------------------------|
|---------------------------|---------------------------|
|--14-14-14-14-14-14-12-14--|--15-15-15-15-15-15-14-15--|
|---------------------------|---------------------------|
|---------------------------|---------------------------|
|---------------------------|---------------------------|

|---------------------------|------------------------------|
|---------------------------|------------------------------|
|--17-17-17-17-17-17-15/19--|--19-19-19-19-19-19-----------|
|---------------------------|----------------------x\\\\\--|
|---------------------------|----------------------x\\\\\--|
|---------------------------|---------------------20\\\\\--|

Breakdown:
|------------------|-----------------|------------------|---------------------|
|------------------|-----------------|------------------|---------------------|
|--7-------7---10--|--6-------6---8--|--7-------7---10--|--6-6------6-6-------| 4x
|--7-------7---10--|--6-------6---8--|--7-------7---10--|--6-6------6-6-------|
|--5---0-0-5-0-8---|--4---0-0-4-0-6--|--5---0-0-5-0-8---|--6-6-0000-6-6-0000--|
|------0-0---0-----|------0-0---0----|------0-0---0-----|------0000-----0000--|

|--0~~~~~--|
|--0~~~~~--|
|--0~~~~~--|
|--0~~~~~--|
|--0~~~~~--|
|--0~~~~~--|

Verse 3:
|----------------------------------------|
|----------------------------------------|
|-------14--9p0-10p0-12p0------10p0-9p7--|  8x
|--12p0-------------------12p0-----------|
|----------------------------------------|
|----------------------------------------|

|-----------------------------------|------------------------------|
|-------15--------15--------15------|--------15--------15~~~~~~~~--|
|-----------------------------------|---12--------12---14~~~~~~~~--|
|--15--------15--------15-----------|------------------------------|
|-----------------------------------|------------------------------|
|-----------------------------------|------------------------------|





Chorus 3:
|-------------------------|-------------------------|
|-------------------------|-------------------------|
|--7--7--7--7--7--7--10---|--6--6--6--6--6--6--8----|
|--7--7--7--7--7--7--10---|--6--6--6--6--6--6--8----|
|--5--5--5--5--5--5--8----|--4--4--4--4--4--4--6----|
|-------------------------|-------------------------|

-------------------------|-------------------------|
-------------------------|-------------------------|
--7--7--7--7--7--7--10---|--6--6--6--6--6--6--8----| x2
--7--7--7--7--7--7--10---|--6--6--6--6--6--6--8----|
--5--5--5--5--5--5--8----|--4--4--4--4--4--4--6----|
-------------------------|--6--6--6--6--6--6-------|

|-----------------------------------|-------------------------------|
|-------15--------15--------15------|--------15--------15~~~~~~~~\--|
|-----------------------------------|---12--------12---14~~~~~~~~\--|
|--15--------15--------15-----------|-------------------------------|
|-----------------------------------|-------------------------------|
|-----------------------------------|-------------------------------|
comments
We did not receive enough feedback on this tab! Please rate:
print report bad tab
1 2 3 4 5
1 comment total.
0 reply
Idio-Lefty wrote on February 13 2013, 11:56 am

this is dark horse not concubine

I want to post or [tab]
guest
You may want to rate the tab now too:
select rating
Please do not post tabs as comments. Select "correction" instead!