Oops, an error
Loading. Please wait.

Arc-lite Tab

892 views 9 this week
no commentswrite comment
1 2 3 4 5
accurate
x 1
Autoscroll
+/-
esc
set tempo
stop
Contributor
Difficulty
advanced
WARNING: You are trying to view
                                    content from Ultimate-Guitar.com
                                    in an unauthorized application,
                                    which is prohibited.

                                    Please use an official Ultimate
                                    Guitar Tabs application for iPhone,
                                    iPad or Android to access legitimate
                                    chords, guitar, bass, and drum tabs
                                    from Ultimate-Guitar.com database.

                                    Type "ultimate guitar tabs" in Apple
                                    App Store's or Android Market's
                                    search to find the application.
Tune To E.
This tab is in two parts - one for all the main riffs and leads, and one for
all the rhythm guitars/rhythm overdubs.

PART ONE - The Main Riffs And Leads

------------------------------------------------------------------------------|
------------------------------------------------------------------------------|
------------------------------------------------------------------------------|
-4---4---5---4-2-------3---3---4---2-0-------4---4---5---4-2------------------|
-2---2-----------5-4-2-1---1-----------4-2-0-2---2-----------5-4-2------------|
------------------------------------------------------------------------------|
 0:03 - 0:22

------------------------|----------------------------|------------------------|
------------------------|-------------------5h8p5----|------------------------|
------------------------|-------------3h6p3----------|------------------------|
-2h5p2------------------|-------2h5p2----------------|------------------------|
-------4h7p4-1h4p1-4----|-1h4p1----------------------|------------------------|
-------------------2----|----------------------------|------------------------|
                 end1,3                        end2,4

-7----------------------------------7------12---------------------------------|
--7-7--------------------------------7-7-----12--12---------------------------|
---7--------------------------7-6-7---7-7------12-----------------------------|
-----9-7---------------------------------9---------14-12----------------------|
---------10-9-7-------------9----------------------------15-14-12-------------|
----------------10-9-6-7-10---------------------------------------15-14-11----|
 0:22 - 0:29

-------------------12---------------------------------------------------------|
---------------------12--12----------------------------------------------14---|
----------12-11-12-----12--12------------12-------------12-15------12-15------|
-----------------------------14-------14----14-------14---------14------------|
-------14-----------------------13-16----------16-16--------------------------|
-12-15------------------------------------------------------------------------|


----------12-|----------------------------------------------------------------|
-------14----|----------------------------------------------------------------|
-12-15-------|-12h15p12-------------------------------------------------------|
-------------|----------11h14p11-11h14p11-8h11p8-8h11p8-----------------------|
-------------|------------------------------------------10h13p10-10h13p10-----|
-------------|----------------------------------------------------------------|
              0:29 - 0:31 Guitar I

-----------|12h15p12----------------------------------------------------------|
-----------|---------11h14p11-11h14p11-8h11p8-8h11p8---------------11h14p11-9-|
-----------|-----------------------------------------9h12p9-9h12p9------------|
-8h11p8-9v-|------------------------------------------------------------------|
-----------|------------------------------------------------------------------|
-----------|------------------------------------------------------------------|
             0:29 - 0:31 Guitar II

------------------------------------------------------------------------------|
----------------------------------------------------------------------14------|
----------16----------------------------------16-------------------15---------|
-------16----16----------14-17-14----------16----------------14-17------------|
-14-17----------17-13-16----------16-14-17----------17-13-16------------------|
------------------------------------------------------------------------------|
 0:44 - 0:48 Guitar I

------------------------------------------------------------------------------|
------------------------------------------------------------------------------|
---------------------------------------------------6--------------------------|
--------9--------------------------9-------------8----------------------------|
------9---9--------7-10-7--------9----------7-10------------------------------|
-7-10-------10-6-9--------9-7-10--------6-9-----------------------------------|
 0:44 - 0:48 Guitar II

------------------------------------------------------------------------------|
------------------------------------------------------------------------------|
------------------------------------------------------------------------------|
----------14---------------------------------12--------------9----------------|
-------14----14-12------10-13-10----------12----12---------9---9---------10---|
-12-15-------------9-12----------12-10-14----------14-7-10-------10-9-12------|
 0:48 - 0:58 Guitar I [for Guitar II see end of tab.]

--------------------------------7-7-------------------------------------------|
-------------------------------7---7------------------------------------------|
------------------------------7-----7-----------------------------------------|
-------------------8-11------9-------9----------------------------------------|
-13-10--------7-10----------9---------9---------------------------------------|
-------12-6-9-----------7h10-----------10-------------------------------------|


------------------------------------------------------------------------------|
------------------------------------------------------------------------------|
------------------------------------------------------------------------------|
-------------------------------------------------------5--5-------------------|
-------------------------3--3--------------------------3--3-------------------|
-2-2-3p2-2-5p2-2-3p2-5p2-1--1--2-2-3p2-2-5p2-2-3p2-5p2------------------------|
 0:59 - 1:07

------------------------------------------------------------------------------|
------------------------------------------------------------------------------|
-------------------------------------------------------5--5-------------------|
-------------------------3--3--------------------------3--3-------------------|
-2-2-3p2-2-5p2-2-3p2-5p2-1--1--2-2-3p2-2-5p2-2-3p2-5p2------------------------|
------------------------------------------------------------------------------|
 1:07 - 1:16 [Rhythm Of Tommy's 1st Solo]

------------------------------------------------------------------------------|
------------------------------------------------------------------------------|
-------------------------------------------------*----------------------------|
---1-4---1-4-2-5-4-2-0-----1-4---1-4-2-5-4-2-0---2---*---*---*---*------------|
-2-----2---------------3-2-----2---------------3-----2---3---0---2---*--------|
---------------------------------------------------------------------4--------|
 1:25 - 1:39

------------------------------------------------------------------------------|
------------------------------------------------------------------------------|
-------------------------------------------------*----------------------------|
---3-6---3-6-4-7-6-4-------3-6---3-6-4-7-6-5-----4---*---*---*---*---*--------|
-4-----4-------------7-5-4-----4-------------7-5-----4---5---2---4---0--------|
------------------------------------------------------------------------------|


-12b14----12b14----12b14--12--------------------------------------------------|
------------------------------15--14--14h15p14h15p14-12b14----12--12b14-------|
----------------------------------------------------------------14------------|
------------------------------------------------------------------------------|
------------------------------------------------------------------------------|
------------------------------------------------------------------------------|
 1:39 - 2:05 <> Tommy's Solo [for rhythm backing, see end of tab]

-------------------------------------------------------10-12-14-12-10-12-10---|
-12--12b14----12------------------------------10-12-14------------------------|
---14-----------14-14h16p14\13h14p13-11-12-14---------------------------------|
------------------------------------------------------------------------------|
------------------------------------------------------------------------------|
------------------------------------------------------------------------------|


------------------------------------------------------------------------------|
-14-14b15-14-10-10h14p10--10-10h14p10--10-------------------------------------|
------------------------11-----------11----11--9--11--9------9----------------|
---------------------------------------------------------11-------------------|
----------------------------------------------------------------9b11-9--------|
------------------------------------------------------------------------------|


------------------------------------------------------------------------14-16-|
----------------12b14r12b14r12b14------------------------------------14-------|
--------------9------------------------11-13-14b16r14-13b14r13-11-------------|
---------9-11-----------------------11----------------------------------------|
-9-11-12----------------------------------------------------------------------|
------------------------------------------------------------------------------|


-16b17----16v-14h16p14-13h14p13h14p13------------21b22----21v----19-----------|
--------------------------------------14-14v------------------------19p17\15--|
------------------------------------------------------------------------------|
------------------------------------------------------------------------------|
------------------------------------------------------------------------------|
------------------------------------------------------------------------------|


------------------------------------------------------------------------------|
-h17p15\14h15p14\12-12b14---12------------------------------------------------|
--------------------------------14--13h14p13h14p13-11h13p11h13p11--11b13-r11--|
-----------------------------------------------------------------14-----------|
------------------------------------------------------------------------------|
------------------------------------------------------------------------------|


------------------------------------------------------------------------------|
------------------------------------------------------------------12b14-r12---|
---11b13r11b13r11b13r11v----------------------------9----9-11p9---------------|
-14----------------------6-7-9-7-9-11-9-11-12-11-12---12-------12-------------|
------------------------------------------------------------------------------|
------------------------------------------------------------------------------|


----------------12b14-----12b14r12b14r12b14r12-12-----12----------------------|
---12b14-r12b14----------------------------------15-14--15-14-15-14-12-15-14--|
-14---------------------------------------------------------------------------|
------------------------------------------------------------------------------|
------------------------------------------------------------------------------|
------------------------------------------------------------------------------|


------------------------------------------------------------------------------|
-12-9h10h12p10p9h10h12p10p9---------------------------------------------------|
---------------------------7h9h11p9p7-----------------------------------------|
-------------------------------------11p9p7-----------------------------------|
--------------------------------------------9\--------------------------------|
------------------------------------------------------------------------------|


------------------------------------------------------------------------------|
------------------------------------------------------------------------------|
-t11p7p4h7t11p7p4h7t11p7p4h7t11p7p4h7-t9p6p3h6t9p6p3h6t9p6ph6t9p6p3h6---------|
------------------------------------------------------------------------------|
------------------------------------------------------------------------------|
------------------------------------------------------------------------------|
 2:05 - 2:24 [for rhythm backing, see end of tab]

------------------------------------------------------------------------------|
----------------------------------t8p5p0h5t8p5p0h5t8p5p0h5t8p5p0h5------------|
-t8p4p2h4t8p4p2h4t8p4p2h4t8p4p2h4---------------------------------------------|
------------------------------------------------------------------------------|
------------------------------------------------------------------------------|
------------------------------------------------------------------------------|


------------------------------------------------------------------------------|
------------------------------------------------------------------------------|
-t9p6p2h6t9p6p2h6t9p6p2h6t9p6p2h6---------------------------------------------|
----------------------------------t11p8p4h8t11p8p4h8t11p8p4h8t11p8p4h8--------|
------------------------------------------------------------------------------|
------------------------------------------------------------------------------|


------------------------------------------------------------------------------|
--------------------------------------11h12--11-------------------------------|
-t11p7p4h7t11p7p4h7t11p7p4h7t11p7p4h7------------11---------------------------|
-----------------------------------------------------9\-----------------------|
------------------------------------------------------------------------------|
------------------------------------------------------------------------------|


---------------------------|--------------------------|-----------------------|
---------------------------|--------------------------|-----------------------|
---------------------------|--------------------------|-----------------------|
---------------------------|------------------8h11p8--|-----------------------|
-7h10p7-*-*-*--------*-*-*-|-7h10p7-----7h10p7------7-|-7h10p7-----4h7p4------|
--------0-0-0--6h9p6-0-0-0-|-------6h9p6--------------|-------6h9p6-----3h6p3-|
 2:24 - 2:33                                   end1,3  end2,4

------------------------------------------------------------------------------|
------------------------------------------------------------------------------|
------------------------------------------------------------------------------|
---2-----5-4-2--5-4-2---------------5-4-2-------2h5p2-------------------------|
-2---5-4--------------5-4-2-1-5-4-2-------5-4-2------*-*-*-1h4p1-*-*-*-4------|
-----------------------------------------------------0-0-0-------0-0-0-2------|
 2:33 - 2:43

------------------------------------------------------------------------------|
------------------------------------------------------------------------------|
----------------------------------2-------------------------------------------|
-*-*-*-*-*-*-*-*-*----2-----5-4-2---5-4-2---------------2h5p2-----------------|
-4-4-4-4-4-4-4-4-4--2---5-4---------------5-4-2-1-5-4-2------*-*-*-1h4p1-*----|
-2-2-2-2-2-2-2-2-2-------------------------------------------0-0-0-------0----|


--------------------------|-7h10p7----7h10p7----6h9p6---6h9p6-----7h107-------|
--------------------------|-------7---------7--------8-------8---------7------|
--------------------------|--------7---------7--------9-------9p6-------7-----|
--------*-*-*-*-*-*-*-*-*-|---------9---------9--------------------------9----|
-*-*-4--4-4-4-4-4-4-4-4-4-|---------------------------------------------------|
-0-0-2--2-2-2-2-2-2-2-2-2-|---------------------------------------------------|
                            2:53 - 3:01 Guitar I

-7h10p7----6h9p6-------9h12p9--|----------------------------------------------|
-------7--------8----11------11|----------------------------------------------|
--------7--------9/12----------|11p7h11p7-7h11p7h11p7-7-9p6h9p6-6-12p9h12p9---|
---------9---------------------|---------9-----------9---------8--------------|
-------------------------------|----------------------------------------------|
-------------------------------|----------------------------------------------|
                                2:53 - 3:01 Guitar II

-----|-15/18---12/15---9h12p9--9----12h15p12-9h12p9-------------------9h12p9\-|
-----|-----------------------11---------------------11h14p11-8h11p8-----------|
---9-|------------------------------------------------------------------------|
-11--|------------------------------------------------------------------------|
-----|------------------------------------------------------------------------|
-----|------------------------------------------------------------------------|
   x4  3:08 - 3:13 Guitar I

-6h9p6\-3h6p3-------6h9p6-3h6p3-------------|---------------------------------|
--------------5h8p5-------------5h8p5-------|---------------------------------|
--------------------------------------6h9p6-|-12h15p12\-9-12---6h9p6----------|
--------------------------------------------|-----------------------8h11p8----|
--------------------------------------------|---------------------------------|
--------------------------------------------|---------------------------------|
                                              3:08 - 3:13 Guitar II

------------------------------------------------------------------------------|
------------------------------------------------------------------------------|
-9h12p9-6h9p6--------------6h9p6----------------------------------------------|
--------------8h11p8-5h8p5-------8h11p8-5h8p5---------------------------------|
----------------------------------------------7h10p7--------------------------|
-----------------------------------------------------6h9p6--------------------|


------------------------------|-----------------------------|------------------|
---------12-------------------|-----------------------------|------------------|
------11------------9-12-9----|-----------------------------|------------------|
-9-12----------8-11--------11-|--------9--------------------|-9\---------------|
------------------------------|------9----------7-10-7------|-9\---------------|
------------------------------|-7-10--------6-9--------9----|-7\---------------|
 3:13 - 3:16 Guitar I       x4  3:13 - 3:16 Guitae II    x4   3:16-------------| - end


PART TWO - Rhythm Guitars

------------------------------------------------------------------------------|
------------------------------------------------------------------------------|
-4-********************--4-*********************---------------4-****-7-****--|
-4-444444444444444444444-2-222222222222222222222-3-****-6-****-2-2222-5-5555--|
-2-222222222222222222222-------------------------1-1111-4-4444----------------|
------------------------------------------------------------------------------|
 0:22 - 0:44 Rhythm Under Song's Main Theme

----------------------------|-------------------------------------------------|
----------------------------|-------------------------------------------------|
-******---------------------|-------------------------------------------------|
-888555******-------------4-|-*****-*****-*****-*****-*****-*****-***********-|
-------777444************-2-|777777444444555555222222444444111111222222222222-|
-------------666333000000---|-------------------------------------------------|
                             0:48 - 0:58 Guitar II Rhythm/Melody

------------------------------------------------------------------------------|
---****--****--****------****--****--****------****--****--****--****---------|
-6-66666-66666-66666-6-2-22222-22222-22222-2-4-44444-44444-44444-44444-5-6----|
-4-44444-44444-44444-4-0-00000-00000-00000-0-2-22222-22222-22222-22222-3-4----|
------------------------------------------------------------------------------|
------------------------------------------------------------------------------|
 1:39 - 2:05 Rhythm Under Tommy's Solo

------------------------------------------------------------------------------|
-****--****--****------****--****--****------****--****--****------****-------|
-66666-66666-66666-6-6-66666-66666-66666-6-6-66666-66666-66666-6-4-44444------|
-44444-44444-44444-4-4-44444-44444-44444-4-3-33333-33333-33333-3-2-22222------|
------------------------------------------------------------------------------|
------------------------------------------------------------------------------|


------------------------------------------------------------------------------|
-****--****------****--****--****----*-****--****--****-----------------------|
-44444-11111-1-4-44444-44444-44444-4-2-22222-22222-22222-2--------------------|
-22222-22222-2-1-11111-11111-11111-1-0-00000-00000-00000-0-6-****6-****-*-*-*-|
-----------------------------------------------------------4-44444-4444-5-4-2-|
------------------------------------------------------------------------------|


------------------------------------------------------------------------------|
------------------------------------------------------------------------------|
------------------------------------------------------------------------------|
-*-*-*-*-*-*-*-*-*-*-*-*-*-*-*-*-*-*-*-*-*------------------------------------|
-4-2---2-----------5-4-2-4-2---2-----------4----------------------------------|
-----5---5-4-5-4-4-----------5---5-4-5-4-4-2----------------------------------|


------------------------------------------------------------------------------|
------------------------------------------------------------------------------|
-************-***********-***********-***********-***********-***********-----|
-------000444------------------------222222222222-----------------------------|
-222222------444444444444222222222222------------444444444444111111111111-----|
------------------------------------------------------------------------------|
 2:05 - 2:24 Rhythm Under Tapping Part

------------------------------------------------------------------------------|
------------------------------------------------------------------------------|
-------------3/4--------------------------------------------------------------|
--***********-----4--0--------------------------------------------------------|
-222222222222-----------2-----------------------------------------------------|
------------------------------------------------------------------------------|
             ^this doubles with the lead guitar in octaves.
comments
We did not receive enough feedback on this tab! Please rate:
1 2 3 4 5
I want to post or [tab]
guest
You may want to rate the tab now too:
select rating
Please do not post tabs as comments. Select "correction" instead!