Oops, an error
Loading. Please wait.

Skeleton On Your Shoulders Tab

2,137 views 3 this week
no commentswrite comment
1 2 3 4 5
excellent!
x 1
Autoscroll
+/-
esc
set tempo
stop
Contributor
Difficulty
intermediate
Hey! There's an official Ultimate Guitar app which is ideal
for learning songs when you're away from computer. Get the app
WARNING: You are trying to view
                                    content from Ultimate-Guitar.com
                                    in an unauthorized application,
                                    which is prohibited.

                                    Please use an official Ultimate
                                    Guitar Tabs application for iPhone,
                                    iPad or Android to access legitimate
                                    chords, guitar, bass, and drum tabs
                                    from Ultimate-Guitar.com database.

                                    Type "ultimate guitar tabs" in Apple
                                    App Store's or Android Market's
                                    search to find the application.
-----0---0---------5---5-----0---0---0---0-------5---5-----5-----|
-------0---0-----5---5---------0---0---0-----------5------5------|
---------------------------------------------------------5-------|
---7-----------7-----------7---------------7---7--------7--------|
-0-----------8-----------0-------------------8---------8---------|
-----------------------------------------------------------------|

-----0---0---------5---5-------0-----0---------0---0-------------|
-------0---0-----5---5-------0---0-----0---------0---0-----------|
---------------------------7-------7-----------------------------|
---7-----------7---------5---------------7---7-------------------|
-0-----------8-----------------------------0---------------------|
-----------------------------------------------------------------|

-------5--5---------0---0---------0------------------------------|
-----5--5---5---------0---0------0-------------------------------|
--------------------------------4--------------------------------|
---7----------7---7---------\--5---------------------------------|
-8--------------0-------------0----------------------------------|
-----------------------------------------------------------------|

-------0---------------0---------------0---------------0------3x--|
.----0---0-----------0---0-----------0---0-----------0---0--------|
---4-------4---4---3-------3---3---2-------2---2---1-------1---1--|
-5-----------5---4-----------4---3-----------3---2-----------2----|
.-----------------------------------------------------------------|
-guitar1----------------------------------------------------------|
|                                                               |
-guitar2-(dist)-----------------------------------------------3x--|
------------------------------------------------------------------|
-4---------------3---------------2---------------1----------------|
-5---------------4---------------3---------------2----------------|
-5---------------4---------------3---------------2----------------|
------------------------------------------------------------------|
|                                                _______________|
|                                                           1.  |
-guitar3-(2ndtime)------------------------------------------------|
------------------------------------------------------------------|
------------------------------------------------------------------|
-5---------------4---------------3---------------2----------------|
-5---5---5---5---4---------------3---3---3---3---2----------------|
-3---3---3---3---2--2-2-2-2-2-2--1---1---1---1---0---0-0-0-0-0-0--|
______
 2.
--riff1-------------------------------------------------------2x--|
.-----------------------------------------------------------------|
----------------------------pm..----------------------------------|
----------/10--9---------------------------/10--9------9-------8--|
.2---------/8--7--------7---7--8--5-2-------/8--7-----10-------9--|
-0---0-0-0--------0-0-0-5---5--6--3-0--0-0-0-----0-0-0---0-0-0----|

-------------------------|riff1|-----------------|
-------------------------|-----|-----------------|
-------------------------|-----|-----------------|
-------------------------|-----|-------7-------6-|
---------2---3-2-5-3-2---|-----|-------8-------7-|
-3-2-5-3---5-----------5-|-----|-0-0-0---0-0-0---|




-------------------------------------|
-------------------------------------|
-------------------------------------|
-------------------------------------|
-------5---------4--------3--------2-|
-0-0-0-3--0-0-0--2--0-0-0-1--0-0-0-0-|

-riff2-pt1-----------------------------------|
---------------------------------------------|
------------------------------542---42-------|
------------------9--7-10--9-----542--5421-2-|
------------------7--5--8--7---------------2-|
-0000000000000000--------------------------0-|

-------------------------------------------|-riff2-pt1-----------|
-----------------------------653653-3------|---------------------|
-----------------------------------5-542---|---------------------|
------------------9--7-10--9-------------2-|---------------------|
------------------7--5--8--7-------------2-|---------------------|
-0000000000000000------------------------0-|---------------------|

-----------------------------------------------------------------|
-----------------------------653763-3----------------------------|
-----------------------------------5-542542--42--2---------------|
------------------9--7-10--9---------------54--54-542542---------|
------------------7--5--8--7----------------------------532------|
-0000000000000000------------------------------------------------|

-riff3-----------------------------|
.----------------------------------|
---------------------542---42----3-|
------------------------542--542-1-|
.---------^-------^----------------|
-2-2-2-2-3-2-2-2-5-2---------------|

-riff3cont------------------------------|
----------------------------------------|
---------------------542542-2-----------|
----------^-------^--------5-542542-----|
---------4-2-----5-2---------------532--|
-2-2-2-2-----2-2------------------------|

-riff4------------------------------------|
.--------------8-8~~----------------------|
---------------7-7~~--------------pm.....-|
------7/10-9--------------7/10-9----------|
.-----5/8--7---7-7~~------5/8--7--5--4--3-|
-0-00----------------0-00---------3--2--1-|


-----------------------------------------|riff3-----------------|
---------------8-8~~----------------6---.|riff4-----------------|
---------------7-7~~----------------5----|----------------------|
------7/10-9--------------7/10-9----3----|----------------------|
------5/8--7---7-7~~------5/8--7----5---.|----------------------|
-0-00----------------0-00----------------|----------------------|





-riff5----------------------^-----^-----------------------------|
---------------------3-0-0/6-3-3-3-0-0--------ph----ph----------|
------------^----4----------------------5------5\/--10\/--------|
-3-3--^----4-0-0---4--------------------3-33-3------------------|
-1-1-5-2-2------------------------------------------------------|
----------------------------------------------------------------|

----------------------------^-----^-----------------------------|
---------------------3-0-0/6-3-3-3-0-0------------------pm...---|
------------^----4----------------------------------------------|
-3-3--^----4-0-0---4--------------------7----7----7----/7-6-5---|
-1-1-5-2-2------------------------------5-55-5-55-5-55-/5-4-3---|
----------------------------------------------------------------|

-riff6----------------------------------------------------------|
.-----------------------------------------------------.---------|
-------------------------------------------------4--------------|
---4----4-----------^-------4----5-------------3----------------|
.--2-22-3-5--3/5\3-232-2----2-22-3-5-3-------2--------.---------|
----------3--1/3\1-------3---------3-1-1-1-1--------------------|

-riff7----------------------------------------------------------|
.-------------------------------------------------------------.-|
----------------------------------------------------------------|
-----4-----4-----4--------^---------4-----4-----4----/5-4-------|
.----------------------3-232-------------------------/3-2-5---.-|
-2-2---2-2---2-2---2-2-------3--2-2---2-2---2-2---2-2-----3-----|

-riff8----------------------------------------------------------|
---------------------------------------------------^^---------.-|
-----------4--------------------------------3-----2323-^--------|
-----5-----------542---2--------------3---------------232-^-----|
-2-2---2-2---2-2----542-542\1-4\1-1-1---1-1---1-1--------343--.-|
----------------------------------------------------------------|

------------------------------------------------------|-solo----|
-----------------------------pm.............----------|-riff4---|
------------------------------------------------------|---------|
-----4---5---4---5---4---5---4-4-4-4-4-4-4-4-----2----|---------|
-4-1-2---3---2---3---2---3---2-2-2-2-2-2-2-2-5-5-0--4-|---------|
---------------------------------------------3-3----2-|---------|

----------------------------------------------------------------|
--------------------------------------------------------------.-|
----------------------------------------------------------------|
-------------------------------------5-----4-----2--------------|
-2-2-2-2-2-2-2-2-2-2-2-2-2-2-2-2-2-2---2-2---2-2---2-2-5------.-|
----------------------------------------------------------------|

----------------------------------------------------------------|
--------------------------------------------------------------.-|
----------------------------------------------------------------|
-------------------------------------7-----6-----4--------------|
-4-4-4-4-4-4-4-4-4-4-4-4-4-4-4-4-4-4---4-4---4-4---4-4-7------.-|
----------------------------------------------------------------|






-riff5-
-riff2-
-riff3-
-riff4-
-riff5-
-riff6-
 riff7
-riff8----------------------------------------------------------|
----------------------------------------------------------------|
----------------------------------------------------------------|
------4\--------------------------------------------------------|
------2\--------------------------------------------------------|
----------------------------------------------------------------|
comments
We did not receive enough feedback on this tab! Please rate:
print report bad tab
1 2 3 4 5
I want to post or [tab]
guest
You may want to rate the tab now too:
select rating
Please do not post tabs as comments. Select "correction" instead!