Oops, an error
Loading. Please wait.

Son Of Lilith Tab

ver1
ver1

Whole song

Interactive

More versions @911Tabs.com
1,427 views 3 this week
no commentswrite comment
1 2 3 4 5
excellent!
x 1
Autoscroll
+/-
esc
set tempo
stop
Contributor
Difficulty
advanced
Hey! There's an official Ultimate Guitar app which is ideal
for learning songs when you're away from computer. Get the app
WARNING: You are trying to view
                                    content from Ultimate-Guitar.com
                                    in an unauthorized application,
                                    which is prohibited.

                                    Please use an official Ultimate
                                    Guitar Tabs application for iPhone,
                                    iPad or Android to access legitimate
                                    chords, guitar, bass, and drum tabs
                                    from Ultimate-Guitar.com database.

                                    Type "ultimate guitar tabs" in Apple
                                    App Store's or Android Market's
                                    search to find the application.
------|----------------------------------------------------2------------------|
------|-------------------------------------------------------2---------------|
------|------------------------------------------------5---------5------------|
-x\---|---------4---3--------------4---3---------------4------------4---------|
-x\---|-2---5---2---1------2---5---2---1-----2---------3---------------3------|
-x\---|-0---3--------------0---3-------------0----2-----------------------2---|
 0:00 - 0:16

-2--------2-|------------------------------------|---------|------------------|
----2-------|------------------------------------|---------|------------------|
-------4----|-------------------5---4------------|--5---4--|------------------|
------------|---4---4-3-2-----3---2-----4---3-2--|3---2---3|-5-555-5-5-5------|
------------|-2---2-------3-0---------2---2-----0|---------|-3-333-3-3-3------|
------------|------------------------------------|---------|------------------|
          x2  0:16 - 0:32                            rep1,3  rep2,@ rep4 x2

-----------------------|------------------------|-----------------------------|
-----------------------|------------------------|-----------------------------|
-4-----4-----4---2---5-|-4-----4-----4---2------|-4-----4---------------------|
-4-----3-----2---1---5-|-4-----3-----2---1------|-4-----3---------------------|
-2222--2-2-2-2-2-2---3-|-2222--2-2-2-2-2-2------|-2222--2-2-2-3-3---3-3-------|
-----------------------|-------------------2p1p0|-------------1-1---1-1-------|
 0:32 - 0:48                     end1,3                                 end2

-------------------------|----------------------------------------------------|
-------------------------|----------------------------------------------------|
-4-----4-----4-----------|-3----------3---3---3-3-3----------3----------------|
-4-----3-----2---1-------|-2----------2---2---2-2-2----------2----------------|
-2222--2-2-2-2-2-2-4\3\x-|-1111-1-1-1-1-1-1-1-1-1-1111-1-1-1-1----------------|
-------------------2\1\0-|-------------------------------------1-1-0-1-1------|
                end4       1:19 - 1:27

------------------------------------------------------------------------------|
------------------------------------------------------------------------------|
-4-4--4-4-4-5---2---5---4-4-4-4-4-4-5---2---5---------------------------------|
---4--4-4-4-5---2---5-----4-4-4-4-4-5---2---5-----4---4---5---4---4-------4---|
---2--2-2-2-3-3-0-0-3-----2-2-2-2-2-3---0---3-------------------------3-------|
------------------------------------------------2---2---2---2---2---2---2-----|
 1:27 - 1:58

----------------------------|-------------------------------------------------|
----------------------------|-------------------------------------------------|
----------------------------|2-2-2-2-2-2-------------2-2-2-2-2-2--------------|
---4---5---4---4---4--------|2-2-2-2-2-2-3-------3---2-2-2-2-2-2-3-------3----|
-----------------------5-4-3|0-0-0-0-0-0-1-1-5---1---0-0-0-0-0-0-1-1-5---1----|
-2---2---2---2---2---2-3-2-1|----------------3-3---------------------3-3------|
                   rep1,3

-------------------------------------------------|----------------------------|
-------------------------------------------------|----------------------------|
-------------------------------------------------|----------------------------|
---2---2---3---2---2-------2---2---3---2---5\4/5-|---6---6---7---6---6--------|
-----------------------1-------------------3\2/3-|-----------------------5----|
-0---0---0---0---0---0---0---0---0---0---0-------|-4---4---4---4---4---4---4--|
                                            rep2            rep4

-----------------------|----------------------|-------------------------------|
-----------------------|----------------------|-------------------------------|
-----------------------|-------------------5--|-------------------------------|
-6---6---7---6---------|-------------------4--|-------------------------------|
-----------------7\6\5-|-4--4--------------3--|-4--4--------------5/7\5-------|
---4---4---4---4-5\4\3-|-2--2--3p2-4p2-5p2----|-2--2--3p2-4p2-5p2-3/5\3-------|
                         1:58 - 2:13                        rep1,3

-------------------------|---------------------|------------------------------|
-------------------------|---------------------|------------------------------|
-------------------------|---------------------|------------------------------|
---------------2---3---5-|---------------------|------------------------------|
-4--4--------------------|-4--4--------5---3---|------------------------------|
-2--2--3p2-4-0---0---1-3-|-2--2--3p2-4-3---1---|------------------------------|
             rep2          rep2

---------------------------------------------------|--------------------------|
-----3-----------3-------------3-----------3-------|-----10-------------10----|
---2-----4-----2-----4-------2-----4-----2-----5\--|---9------11------9-------|
-----------4-----------4-------------4---------3\--|-------------11-----------|
-2-----2-----2-----2-----1-2-----2-----2-----2-----|-9------9-------9------9--|
---------------------------------------------------|--------------------------|
 3:24 - 3:41                                     x4  harmony part after rep2

---------------------------------------|--------------------------------------|
-------------10-------------10---------|-10b12-v---r12---r12---r12--r12--r12--|
-11--------9------11------9------12----|-----------*--------------------------|
----11---------------11----------10----|--------------------------------------|
-------8-9------9-------9------9-------|--------------------------------------|
---------------------------------------|--------------------------------------|
                                         3:41 - 4:38 Tommy's Solo

------------------------------------------------------------------------------|
-10---10---7---10p7--7--------ph----------------------------------------------|
-------------------10--10-7-9-9b10-r-9b10--v----9-7--7h9p7\6--b--7--rb7r------|
-------------------------------------------------------------------------7----|
---------------------------------------------------------------------------9--|
------------------------------------------------------------------------------|


------5-10----p9p7h9p7-------------------ph-----------------------------------|
----7------------------10-/-12--b--14----14---r12---15---14---17-17-17-17-17--|
---6--------------------------------------------------------------------------|
--7---------------------------------------------------------------------------|
-9----------------------------------------------------------------------------|
------------------------------------------------------------------------------|
                                                              trem

------------------------------------------------------------------------------|
-19-19-19-15-15-15-17-17-17-14-14-14-15-15-15-12-12-12-14-15--p14p12----------|
---------------------------------------------------------------------14p12----|
------------------------------------------------------------------------------|
------------------------------------------------------------------------------|
------------------------------------------------------------------------------|


------------------------------------------------------------------------------|
------------------------------------------------------------------------------|
-14p12\11h12p11---------------------------------------------------------------|
----------------14p12p11h12h14p12p11------------------------------------------|
-------------------------------------14p12p10---------------------------------|
----------------------------------------------14p12p10\9p7h9\5/10-9*10*9------|


------------------------------------------------------------------------------|
-----------------------------------11*12*11--14*15*14--14--10--12--14r12--10--|
--------------------------11*12*11--------------------------------------------|
---------8*9*8--11*12*11------------------------------------------------------|
-9*10*9-----------------------------------------------------------------------|
------------------------------------------------------------------------------|
                                                                   prebend

------------------------------------------------------------------------------|
-12--12-b-14---r-12-10-12--12v-------10-10-10-\-7-7-7-/-12-12-\-7-7-----------|
------------------------------------------------------------------------------|
------------------------------------------------------------------------------|
------------------------------------------------------------------------------|
------------------------------------------------------------------------------|


------------------------------------------------------------------------------|
-8h10p8p7h8p7-----------------------------7----------------7-8-10-8-7---------|
--------------9p7p6---b---7---6v----6-7-9---8-7-6*7*6-6h7h9-----------9-7-6---|
------------------------------------------------------------------------------|
------------------------------------------------------------------------------|
------------------------------------------------------------------------------|


------------------------------------------------------------------------------|
------------------------------------------------------------------------------|
-7-9-7-6----------------------------------------------------------------------|
---------9-7-5-9----------------------------------------------5h7h9p7p5-------|
----------------------5h7-5---------------5h7h9p7p5-----5h7h9----------9p7p5h-|
-----------------5h7h9------7-5-7-9-5-7-9-----------7h9-----------------------|


----------------------------------------------------7-10p9h10/14----13-11-13--|
----------------------------------10b12---r---10p7-7--------------------------|
-------6h7h9p7p6---------6h7h9/11-----------------9---------------------------|
--5h7h9---------9p7p5h7h9-----------------------------------------------------|
-9----------------------------------------------------------------------------|
------------------------------------------------------------------------------|


------------9-8-11p9p8-13p11p9-13---p12p10-12b13r12b13r12-------------10p9p8--|
-11---\6-------------------------------------------------10-\7-b8r7-----------|
------------------------------------------------------------------------------|
------------------------------------------------------------------------------|
------------------------------------------------------------------------------|
------------------------------------------------------------------------------|


-12p10p9-14p12p11-15p14p12-18----14----------14h18p14----------14h18----------|
------------------------------------16----16----------16----16-------16----16-|
---------------------------------------15----------------15-------------15----|
------------------------------------------------------------------------------|
------------------------------------------------------------------------------|
------------------------------------------------------------------------------|


----------------8h11p8--11-11---------------8/11------------12p9--------------|
-\--10--------10------10-----11\10--------10----13--------------10-10---------|
------11--8h11--------------------11--8h11--------14p11h14\9------9--9------9-|
--------10--------------------------10--------------------------------11--11--|
------------------------------------------------------------------------12----|
------------------------------------------------------------------------------|


----9h12p9-----9h12p9-----11/12p8---11/14p11-----14/17p14----14\11--11/14-16--|
--10------10-10------10-10-------10---------13-----------16-------13----------|
------------9----------9-----------8----------11-----------14-----------------|
------------------------------------------------------------------------------|
------------------------------------------------------------------------------|
------------------------------------------------------------------------------|


-16p14p13------------------13-13h16t21p16p13------13h16p13--------------------|
---------14h16p14-------14------------------14--14--------14----17b19--r17b---|
-----------------13--13-----------------------13------------13----------------|
------------------------------------------------------------------------------|
------------------------------------------------------------------------------|
------------------------------------------------------------------------------|
                                                                 hold

--------------------------14--------------------------------------------------|
-19r17b20r17b20r17b19r17-----17-14-16-b-17-r-16-b17r16-14-13-b-14-r-13-10-b---|
------------------------------------------------------------------------------|
------------------------------------------------------------------------------|
------------------------------------------------------------------------------|
------------------------------------------------------------------------------|


------------------------------------------------------------------------------|
-11-r-10-b-11-r-10-b-11-r-10-b-11-r-10-b-11-r-10-b-11-r-10-b-11-r-10------10\-|
------------------------------------------------------------------------------|
------------------------------------------------------------------------------|
------------------------------------------------------------------------------|
------------------------------------------------------------------------------|
                                                                    fdbk.

-------------------------------------|------------------|---------------------|
-------------------------------------|------------------|---------------------|
-------------------------------------|------------------|---------------------|
-------------------------------------|------------------|-4--4-4-4-4--4--4----|
-5--4--4--4\-----------7--5--5--5\---|-5------7--7------|-2--2-2-2-2--2--2----|
-3--2--2--2\-----------5--3--3--3\---|-3------5--5------|---------------------|
 3:41 - 4:11 Rhythm                x4          alt. end   4:11 - 4:26 Rhythm

------------------|----------------------------------|------------------------|
------------------|----------------------------------|------------------------|
------------------|----------------------------------|------------------------|
-8--8-8-8-8--8--8-|------------------7--7-7-7-7--7--7|-7--------7--7--7--7----|
-6--6-6-6-6--6--6-|8--8-8-8-8--8--8--5--5-5-5-5--5--5|-6--6-6-6-6--6--6--7----|
------------------|6--6-6-6-6--6--6------------------|-5--5-5-5-5--5--5--5----|
                                              rep1     rep2

----------------|-------------------------------------------------------------|
----------------|-------------------------------------------------------------|
----------------|-5--------5--5--5--------------------------------------------|
----------------|-4--------4--4--4--6---6-6-6-6--6--6-------------------------|
-2-2-2-4--4--4--|-3--3-3-3-3--3--3--4---4-4-4-4--4--4-------------------------|
-5-5-5-5--5--5--|-------------------------------------------------------------|
                  4:26 - 4:30

------------------------------------------------------------------------------|
------------------------------------------------------------------------------|
------------------------------------------------------------------------------|
-------4--3------------------------4--3-------------2-------------------------|
-2--5--2--1------------------2--5--2--1-------------0-------------------------|
-0--3------------------------0--3---------------------------------------------|
 5:54 - 6:10                                          x2

------------------------------------------------------------------------------|
------------------------------------------------------------------------------|
------------------------------------------------------------------------------|
-------4--3--333-3-333-3-333-------4--3--333-3-333--2--222--------------------|
-2--5--2--1--111-1-111-1-111-2--5--2--1--111-1-111--0--000--------------------|
-0--3------------------------0--3---------------------------------------------|
 6:10 - End  Guitar I                                     x infinity

------------------------------------------------------------------------------|
------------------------------------------------------------------------------|
------------------------------------------------------------------------------|
-----------------8---8-----------------------8--------------------------------|
------------------9---------------------------9-------------------------------|
-------------------13--------------------------13-----------------------------|
comments
We did not receive enough feedback on this tab! Please rate:
print report bad tab
1 2 3 4 5
I want to post or [tab]
guest
You may want to rate the tab now too:
select rating
Please do not post tabs as comments. Select "correction" instead!