Oops, an error
Loading. Please wait.

Tunnel Of Pain Tab

1,874 views 6 this week
no commentswrite comment
1 2 3 4 5
excellent!
x 3
Autoscroll
+/-
esc
set tempo
stop
Contributor
Difficulty
advanced
Hey! There's an official Ultimate Guitar app which is ideal
for learning songs when you're away from computer. Get the app
WARNING: You are trying to view
                                    content from Ultimate-Guitar.com
                                    in an unauthorized application,
                                    which is prohibited.

                                    Please use an official Ultimate
                                    Guitar Tabs application for iPhone,
                                    iPad or Android to access legitimate
                                    chords, guitar, bass, and drum tabs
                                    from Ultimate-Guitar.com database.

                                    Type "ultimate guitar tabs" in Apple
                                    App Store's or Android Market's
                                    search to find the application.
-------------------------------------------------|----------------------------|
-------------------------------------------------|----------------------------|
-----4-----5-----4-----5-----4-----5-----4-----5-|-----6-----7------6-----7---|
-3-6---6-3---6-3---6-3---6-3---6-3---6-3---6-3---|-5-8---8-5---5-5----8-5-----|
-------------------------------------------------|----------------------------|
-------------------------------------------------|----------------------------|
 0:03 - 0:06                                       0:06 - 0:16

------------------------------------------------------------------------------|
------------------------------------------------------------------------------|
------------------------------------------------------------------------------|
-0-0-10-7-0-8-5-0-10-7-0-5---0-8--5---9--5---8--5---9--5-0-8-5-5-7-5-5-8-5-5--|
---------------------------7--------7------7------7---------------------------|
------------------------------------------------------------------------------|


-------|----------------------------------------------------------------------|
-------|----------------------------------------------------------------------|
-------|-7---8---7---------------------------7---8---7------------------------|
-7-5-8-|-5---5---5---8-5-0-8-5-0-7-3-0-7-3-0-5---5---5---8-5-0-8-5-0-7---8----|
-------|-------------------------------------------------------------5---6----|
-------|----------------------------------------------------------------------|
     x2  0:16 - 0:27

------------------------------------------------------------------------------|
------------------------------------------------------------------------------|
-7---8---7---------------------------7---8---7--------------------------------|
-5---5---5---8-5-0-8-5-0-7-3-0-7-3-0-5---5---5---8-5-0-7-3-0-7---8---10-------|
-------------------------------------------------------------5---6---8--------|
------------------------------------------------------------------------------|


------------------------------------------------------------------------------|
------------------------------------------------------------------------------|
------------------------------------------------------------------------------|
-9-7-9---------------------------------9-7-9-----3---------------3------------|
-7-5-7-----2---2-2-2-2-2-2-------2-----7-5-7-----1---1-1-1-1-1-1-1-1-1-1-1-1--|
-------0-0-0---0-0-0-0-0-0-2-3-5-0---0-------0-0------------------------------|
 0:27 - 0:46

------------------------------------------------------------------------------|
--------------3-5-------------------------------------------------------------|
---------2-4-5----------------------------------------------------------------|
----2-4-5------------------------------------------9-7-9-----4---7------------|
-1-------------------2---------------2---------2---7-5-7-----2---5---3---3-3--|
---------------------0---0-0-0-0-0-0-0-0-0-0-0-0---------0-0---------1---1-1--|


---------------|--------------------------------------------------------------|
---------------|--------------------------------------------------------------|
---------------|--------------------------------------------------------------|
---------------|---3-6-3-3-7-3-3-6-3-7-3-3-----3-6-3-3-7-3-3-3---333---333--3-|
-3---3-3-3---3-|-5-----5-5---5-5---5---5---5-5-----5-5-----5-5---555---555--5-|
-1---1-1-1---1-|--------------------------------------------------------------|
           x2    0:46 - 0:55                                              x2

------------------------------------------------------------------------------|
------------------------------------------------------------------------------|
-4---4-4-4-4-5---5-5-5-5-4---4-4-4-4-2---2-2-2-2------------------------------|
-2---2-2-2-2-3---3-3-3-3-2---2-2-2-2-0---0-0-0-0------------------------------|
------------------------------------------------------------------------------|
------------------------------------------------------------------------------|
 1:14 - 1:17 Guitar I




-7p4---------5h8\7----------7h10----------------------------------------------|
----5-------6-----5--------8--------------------------------------------------|
-----4-----5-------4------7---------------------------------------------------|
------6---7---------6----9----------------------------------------------------|
-------7/8-----------7/10-----------------------------------------------------|
------------------------------------------------------------------------------|
 1:14 - 1:17 Guitar II

------------------------------------------------------------------------------|
------------------------------------------------------------------------------|
---------------------------------------------3-5-6-6-6-6-6-6-6\---------------|
-5-----5-----5h7---------------8\5-5-5-5-5-5-----4-4-4-4-4-4-4\---------------|
-7-7-7-7-7-7-----6-6-6-6-6-6-6-6\---------------------------------------------|
------------------------------------------------------------------------------|
 1:17 -1:21

------------------------------------------------------------------------------|
------------------------------------------------------------------------------|
-4---4-4-4-4-5---5-5-5-5-7---7-7-7-7-5---5-5-5-5------------------------------|
-2---2-2-2-2-3---3-3-3-3-5---5-5-5-5-3---3-3-3-3------------------------------|
------------------------------------------------------------------------------|
------------------------------------------------------------------------------|
 1:24 - 1:26 Guitar I

-7p4---------5h8/10p7----------5h8--------------------------------------------|
----5-------6--------8--------6-----------------------------------------------|
-----4-----5----------7------5------------------------------------------------|
------6---7------------9----7-------------------------------------------------|
-------7/8--------------10\8--------------------------------------------------|
------------------------------------------------------------------------------|
 1:24 - 1:26 Guitar II

------------------------------------------------------------------------------|
------------------------------------------------------------------------------|
--------------------------------------------3-5-6-----6-----6\----------------|
-5-----5-----5h7-8-----8-----8\-5-5-5-5-5-5-----4-4-4-4-4-4-4\----------------|
-7-7-7-7-7-7-----6-6-6-6-6-6-6\--------------------------------4-----4-----4--|
---------------------------------------------------------------6-6-6-6-6-6----|
 1:26 - 1:37

------------------------------------------------------------------------------|
------------------------------------------------------------------------------|
------------------------------------------------------------------------------|
-------------------2-----2---------5---6---5---6---5--6-----------------------|
-6-7-----7-----7---4-4-4-4-4-4-4-4-3---4---3---4---3--4-----------------------|
---5-5-5-5-5-5-5-5------------------------------------------------------------|
                                                        x2

------------------------------------------------------------------------------|
------------------------------------------------------------------------------|
------------------------------------------------------------------------------|
-5--4--------5--4---4------5--7-------5--4--3---------------------------------|
-5--4--------5--4---4------5--7-------5--4--3---------------------------------|
-3--2--------3--2---2------3--5-------3--2--1---------------------------------|
 1:47 - 2:14 Guitar I                                                     x2

----0------0--0----------------0------0--0-------------0------0--0--0---------|
-----0------0--0----0-0--0----0-0------0--0--0--0-------0------0--0--0-0-0----|
------4-3----3--3----3--3-3-------------3--3--3--3----------6---6--6--6-------|
-5------4--------------4----5------4--------4--4--4-5------7-7----------7-----|
-5------4-------------------5------4----------------5------7------------------|
-3------2-------------------3------2----------------3------5------------------|
 1:47 - 2:14 Guitar II [Acoustic]




----0-----0---0------0---|--------------------------------------------|-------|
-----0-----0--0-------0--|--------------------------------------------|-------|
------4-----3-2--------4-|--------------------------------------------|-------|
-5-----4------3----5-----|-2----2----2-----2--2--3------2----2----2---|-3---5-|
-5-----4------3----5-----|-2----2----2-----2--2--3------2----2----2---|-3---5-|
-3-----2------1----3-----|-0----0----0-----0--0--1------0----0----0---|-1---3-|
                       x2  2:20 - 2:38                                 end2,4

-7p4---4h7p4------------5h8----7p4---4h7p4------------5h8p5-5h8--7p4---4h7p4--|
----5-5-----5----------6----------5-5-----5----------6-----6--------5-5-------|
-----4-------4--------5------------4-------4--------5----------------4--------|
--------------6------7----------------------6------7--------------------------|
---------------7----8------------------------7----8---------------------------|
------------------------------------------------------------------------------|
 2:29 - 2:38 Lead Guitar

-------------5h8----7p4---4h7p4------------5h8/10p7---------------------------|
-5----------6----------5-5-----5----------6--------8--------------------------|
--4--------5------------4-------4--------5----------7-------------------------|
---6------7----------------------6------7------------9------------------------|
----7----8------------------------7----8--------------10----------------------|
------------------------------------------------------------------------------|


-----------5-----------5---------------------------------------------5--------|
-8b10v-------5h8-5---5---5h8p5-----8b10r8b10r8b10r8----------5---------5/8----|
-------------------7-----------7b9-----------------7-5-4-5-7---4-5-7----------|
------------------------------------------------------------------------------|
------------------------------------------------------------------------------|
------------------------------------------------------------------------------|
 2:38 - 2:58 Tommy's Solo

------------------------------------------------------------------------------|
-10-12b13-r12-10-12---b---13---v----6/15---15---15-18-17-15-------------------|
------------------------------------------------------------17-15-14----------|
---------------------------------------------------------------------17-15----|
------------------------------------------------------------------------------|
------------------------------------------------------------------------------|


----------------------------------------------------------------------13h17---|
-------------------------------------------------------------------15---------|
----------------------------------------------------------------14------------|
-14----------------------------------------------------------15---------------|
----17-15-13-------------------------------------------12h17------------------|
-------------17-15-13-10b12--10b12--r10-13-13-13-10h13------------------------|


-p13---------13h17p13----------13h17t22----x\---------------------------------|
----15----15----------15----15----------------x\-------------------ph----ph---|
-------14----------------14----------------------14\9--7b9---r7----7b9v--7b9--|
----------------------------------------------------------------10------------|
------------------------------------------------------------------------------|
------------------------------------------------------------------------------|


------------------------------------------------------------------------------|
-ph---------------------------------------------------------------------------|
-7b9--------------------------------------------------------------------------|
------9b10-7-9-6-7---7-----------ph-------------------------------------5-----|
-------------------8---8-7h8p7-6-7b10-----------------------------7\5-7---7---|
---------------------------------------7-8-5-5-8-5--5-8-5--5-8-5--------------|
                                                   bar tricks




------------------------------8---8---8-10b12-r10b13r10b13r10-----------------|
-------------------6h8p6-8/10---------------------------------13--------------|
---------5h7p5---5--------------------------------------------12b14r12--------|
-5-7p5h7-------7-------------------------------------------------------15-----|
------------------------------------------------------------------------------|
------------------------------------------------------------------------------|


------------------------------------------------------------------------------|
-13----13\---------------------------ph--------\------/\--------/-------------|
-12b14-12\---------------------------11-\-----/-\----/--\------/--------------|
------------/12-15-15-14-12-13-12-10-----\---/---\--/----\----/---------------|
------------------------------------------\-/-----\/------\--/----------------|
-------------------------------------------/---------------\/-----------------|
                                            bar madness

---------------------------------|----------------------------------|---------|
---------------------------------|----------------------------------|---------|
---------------------------------|----------------------------------|---------|
-----------------2---------------|-----------------7----------------|---------|
-3-0-0-0-0-0-0-0---3-3-3---2-2-2-|-8-5-5-5-5-5-5-5---8-8-8----7-7-7-|---------|
------------------------h4-4-4-4-|-------------------------h9-9-9-9-|---------|
 2:38 - 2:58 Rhythm           x2                                 x2

-17p13------13h17p13------13h17p13----16p12------12h16p12------12h16p12-------|
------15--15--------15--15--------15-------14--14--------14--14--------14-----|
--------14------------14------------14-------13------------13------------13---|
------------------------------------------------------------------------------|
------------------------------------------------------------------------------|
------------------------------------------------------------------------------|
 2:58 - 3:17 Lead Guitar

-19p15------15h19p15------15h19p15----18p14------14h18p14------14h18p14-------|
------17--17--------17--17--------17-------16--16--------16--16--------16-----|
--------16------------16------------16-------15------------15------------15---|
------------------------------------------------------------------------------|
------------------------------------------------------------------------------|
------------------------------------------------------------------------------|


-17p13------13h17p13------13h17p13----16p12------12h16p12------12h16p12-------|
------15--15--------15--15--------15-------14--14--------14--14--------14-----|
--------14------------14------------14-------13------------13------------13---|
------------------------------------------------------------------------------|
------------------------------------------------------------------------------|
------------------------------------------------------------------------------|


-12p8-----8h12p8-----8h12p8----13p10------10h13p10------10h13p10--------------|
-----10-10------10-10------10-------11--11--------11--11--------11------------|
-------9----------9----------9--------10------------10------------10----------|
------------------------------------------------------------------------------|
------------------------------------------------------------------------------|
------------------------------------------------------------------------------|
 end 1

-15p11------11h15p11------11h15p11-----14p10------10h14p10------10h14p10------|
------13--13--------13--13--------13--------12--12--------12--12--------12----|
--------12------------12------------12--------11------------11----------------|
------------------------------------------------------------------------------|
------------------------------------------------------------------------------|
------------------------------------------------------------------------------|
 end 2




------------------------------------------------------------------------------|
------------------------------------------------------------------------------|
------------------------------------------------------------------------------|
-7-----7-----7---6-----6-----6---9-----9-----9---8-----8-----8---7-----7------|
-5-5-5-5-5-5-5-5-4-4-4-4-4-4-4-4-7-7-7-7-7-7-7-7-6-6-6-6-6-6-6-6-5-5-5-5-5-5--|
------------------------------------------------------------------------------|
 2:58 - 3:18 Rhythm






---------------------|---------------------------------|----------------------|
---------------------|---------------------------------|----------------------|
---------------------|---------------------------------|----------------------|
-7---6-----6-----6---|---------------------------------|-5-----5-----5---4----|
-5-5-4-4-4-4-4-4-4-4-|-7-----7-----7---8-----8-----8---|-3-3-3-3-3-3-3-3-2-2--|
---------------------|-5-5-5-5-5-5-5-5-6-6-6-6-6-6-6-6-|----------------------|
                       end 1                             end 2

-------------|----------------------------------------------------------------|
-------------|----------------------------------------------------------------|
-------------|----------------------------------------------------------------|
---4-----4---|----------------------------------------------------------------|
-2-2-2-2-2-2-|----------------------------------------------------------------|
-------------|----------------------------------------------------------------|
comments
We did not receive enough feedback on this tab! Please rate:
print report bad tab
1 2 3 4 5
I want to post or [tab]
guest
You may want to rate the tab now too:
select rating
Please do not post tabs as comments. Select "correction" instead!