Oops, an error
Loading. Please wait.

Over Me Tab

2,001 views 5 this week
no commentswrite comment
1 2 3 4 5
accurate
x 1
Autoscroll
+/-
esc
set tempo
stop
Contributor
WARNING: You are trying to view
                                    content from Ultimate-Guitar.com
                                    in an unauthorized application,
                                    which is prohibited.

                                    Please use an official Ultimate
                                    Guitar Tabs application for iPhone,
                                    iPad or Android to access legitimate
                                    chords, guitar, bass, and drum tabs
                                    from Ultimate-Guitar.com database.

                                    Type "ultimate guitar tabs" in Apple
                                    App Store's or Android Market's
                                    search to find the application.
Band - Corrosion Of Conformity
Song - Over Me

Tuning: strings 1-5 one whole step, string 6 two whole steps.
Key:
pm - palm mute
\ - slide down
% - rest
/ - slide up
(x) - sound the note without picking, by sliding into it from a note
lower on the neck
(...)X(...) - 1st number indicates number of preceding staffs to repeat,
2nd number indicates number of repeats 
~ - vibrato
s - semi-tone bend
r - release bend
f - full bend
. - play, then immediately dampen
p - pull-off
p.h. - pinch harmonic
h - hammer-on
x - muted string
\\\ - pick scrape

Intro:
 pm			(Guitar 1)
|------------------------------------------------------------|
|------------------------------------------------------------|
|------------------------------------------------------------|
|----------0---0--12--0--5--7--0--8---8--10--8--10--8--8--8--|
|----------0---0--12--0--5--7--0--8---8--8---8--8---8--8--8--|
|-0-0-15\--0---0--12--0--5--7--0--8---8--8---8--8---8--8--8--|

 pm
|--------------------------------------------------|
|--------------------------------------------------|
|--------------------------------------------------|
|-0--0--12--0--5--7--0--8---8--10--8--10--8--8--8--|
|-0--0--12--0--5--7--0--8---8--8---8--8---8--8--8--|
|-0--0--12--0--5--7--0--8---8--8---8--8---8--8--8--|

 pm
|---------------------------------------------------|
|---------------------------------------------------|
|---------------------------------------------------|
|-0--0--12--0--5--7--0--8---8--10--8--10--8--8--10--|
|-0--0--12--0--5--7--0--8---8--8---8--8---8--8--10--|
|-0--0--12--0--5--7--0--8---8--8---8--8---8--8--10--|

|------------------------------------------------------|
|------------------------------------------------------|
|------------------------------------------------------|
|-10--10---10--10--10--10---10--10--10--10--10--10-----|
|-10--10---10--10--10--10---10--10--10--10--10--10--%--|
|-10--10---10--10--10--10---10--10--10--10--10--10-----|
|
|			(Guitar 2)
|----------------------------------------------------------|
|----------------------------------------------------------|
|----------------14-------------------------14-------------|
|-/(12)--15--12------12\-----/(12)--15--12------12---------| 1X1
|---------------------------------------------------15--\--|
|----------------------------------------------------------|

~
|------------------------------------------------------------------------|
|------------------------------------------------------------------------|
|----------------14-------------------------14---------------------------| 
|-/(12)--15--12------12\-----/(12)--15--12------12---17--19--sr--sr--sr--| 
|------------------------------------------------------------------------|
|------------------------------------------------------------------------|

* - this note carries over into verse
~
|---------------------|
|---------------------|
|---------------------|
|-sr--sr--sr--sr------|
|-----------------17--|
|---------------------|
|
| guitar three (fill 1)
|
.
|--------------------------------------------------|
|--------------------------------------------------|
|--------------------------------------------------|
|--------------------------------------------------| x2
|-----------------------------------15fr-------13--|
|--------------------------------------------------|

~
|--------------------------------------------------|
|--------------------------------------------------|
|--------------------------------------------------|
|--------------------------------------------------|
|-----------------------------------15fr-------15--|
|--------------------------------------------------|

Verse:
				(Guitar 1)
|----------------------------------------------------------------------|
|----------------------------------------------------------------------|
|----------------------------------------------------------------------|
|----------------------------------------------------------------------|
|----8------8------8------8--7--7--------8------8------8------8--7--7--|
|-0------0------0------0--------------0------0------0------0-----------|

|---------------------------------------------------------------------------|
|---------------------------------------------------------------------------|
|---------------------------------------------------------------------------|
|------------------------------------------------0-----0-----2--3--2--0-----|
|----8------8------8------8--7--7------8------8-----0-----3--------------2--|
|-0------0------0------0------------0------0--------------------------------|
|
|				(Guitar 2)
|---------------------------------------------------------------------------|
|---------------------------------------------------------------------------|
|---------------------------------------------------------------------------|
|---------------------------------------------------------------------------|
|---------------------------------------------------------------------------|
|---------------------------------------------------------------------------|

 pm
|---------------------------------------------------------------------------|
|---------------------------------------------------------------------------|
|---------------------------------------------------------------------------|
|------------------------------------------------------0--0--0--0--0--0--0--|
|------------------------------------------------------0--0--0--0--0--0--0--|
|------------------------------------------------------0--0--0--0--0--0--0--|

~ pm
|------------------------------------------------|
|------------------------------------------------|
|------------------------------------------------|
|--------12--12--0--0--8---0--0--10---10--12-----| 1X1
|--------12--12--0--0--8---0--0--10---10--10-----|
|-3---0--12--12--0--0--8---0--0--10---10--10--0--| 

~ pm
|--------------------------------------------------|
|--------------------------------------------------|
|--------------------------------------------------|
|--------12--12--0--0--8---0--0--10---10--12--10---|
|--------12--12--0--0--8---0--0--10---10--10--10---|
|-3---0--12--12--0--0--8---0--0--10---10--10--10---|

|------------------------------------------------------------|
|------------------------------------------------------------|
|------------------------------------------------------------|
|-10\5--5-----9---11--11---7--7--7--7--7--7--7------------0--|
|-10\5--5-----7---7---7----7--7--7--7--7--7--7------------0--|
|-10\5--5-----7---7---7----7--7--7--7--7--7--7--5s--5--3--0--|

Chorus:
|-----------------------------------------------|
|-----------------------------------------------|
|----7---7--7--7-----5---5-----4---4--4---------|
|----7---7--5--7-----5---5-----5---5--5---------| 1X1
|-0--5---5--5--5--0--3---3--0--2---2--2--0-0-0--|
|-0---------------0---------0------------0-0-0--|

|-------------------------------------------|
|-------------------------------------------|
|----7---7--7--7-----5---5-----4---4--4-----|
|----7---7--5--7-----5---5-----5---5--5--3--|
|-0--5---5--5--5--0--3---3--0--2---2--2--3--|
|-0---------------0---------0------------3--| 

|-------------------------------------------------|
|-------------------------------------------------|
|----------------------------------------------7--|
|-3--5p3--5p3--3--3/(5)---5--5--5--5--5--5--5--7--|
|-3--3----3----3--3/(5)---5--5--5--5--5--5--5--5--|
|-3--3----3----3--3/(5)---5--5--5--5--5--5--5--5--|

|--------------|
|--------------|
|--------------|
|-----------0--|
|-----------0--|
|-5s--5--3--0--|

Lead break:				    
p.h. ~ ~ ~ ~ ~ ~			(Guitar 1)
|------------------------------------------------------------------------------|
|--------------13---13h15p13\(10)----------------------------------------------|
|-12fr----------------------------12f---12f--12--------------------------------|
|--------14h15--------------------------------------14fr---12--12fr---fr---fr--|
|------------------------------------------------------------------------------|
|------------------------------------------------------------------------------|
|
|				(Guitar 2)
|----------------------------------------------------------------------|
|----------------------------------------------------------------------|
|----------------------------------------------------------------------|
|----------------------------------------------------------------------|
|--------------------------------------------10--12--10----------------|
|----------------------------------------------------------------------|
|
|		(Guitar 3)
 pm
|--------------------------------------------|
|--------------------------------------------|
|--------------------------------------------|
|----12---0--0--8---0--0--10---0--10--0--10--|
|----12---0--0--8---0--0--10---0--10--0--10--|
|-0--12---0--0--8---0--0--10---0--10--0--10--|

 pm
|--------------------------------------------------------|
|--------------------------------------------------------|
|--------------------------------------------------------|
|-0--0--12---0--0--8---0--0--10-10-10-10-10--10--10------|
|-0--0--12---0--0--8---0--0--10-10-10-10-10--12--10--%---|
|-0--0--12---0--0--8---0--0--10-10-10-10-10--10--10------|

Verse 2: (same as first, here's the only change) 
				(Guitar 1)
|----------------------------------------------------------------------|
|----------------------------------------------------------------------|
|----------------------------------------------------------------------|
|----------------------------------------------------------------------|
|----8------8------8------8--7--7--------8------8------8------8--7--7--|
|-0------0------0------0--------------0------0------0------0-----------|

|-------------------------------------------------------------------------|
|-------------------------------------------------------------------------|
|-------------------------------------------------------------------------|
|-------------------------------------------------------------0--2--3--2--|
|----8------8------8------8--7--7------8------8--7--0---0--3--------------|
|-0------0------0------0------------0------0------------------------------|

Chorus:
|-----------------------------------------------|
|-----------------------------------------------|
|----7---7--7--7-----5---5-----4---4--4---------|
|----7---7--5--7-----5---5-----5---5--5---------| 1X1
|-0--5---5--5--5--0--3---3--0--2---2--2--0-0-0--|
|-0---------------0---------0------------0-0-0--|

|-------------------------------------------|
|-------------------------------------------|
|----7---7--7--7-----5---5-----4---4--4-----|
|----7---7--5--7-----5---5-----5---5--5--3--|
|-0--5---5--5--5--0--3---3--0--2---2--2--3--|
|-0---------------0---------0------------3--| 

|-------------------------------------------------|
|-------------------------------------------------|
|----------------------------------------------7--|
|-3--5p3--5p3--3--3/(5)---5--5--5--5--5--5--5--7--|
|-3--3----3----3--3/(5)---5--5--5--5--5--5--5--5--|
|-3--3----3----3--3/(5)---5--5--5--5--5--5--5--5--|

|--------------|
|--------------|
|--------------|
|-----------0--|
|-----------0--|
|-5s--5--3--0--|

Intro:
 pm			(Guitar 1)
|------------------------------------------------------------|
|------------------------------------------------------------|
|------------------------------------------------------------|
|----------0---0--12--0--5--7--0--8---8--10--8--10--8--8--8--|
|----------0---0--12--0--5--7--0--8---8--8---8--8---8--8--8--|
|-0-0-15\--0---0--12--0--5--7--0--8---8--8---8--8---8--8--8--|

 pm
|--------------------------------------------------|
|--------------------------------------------------|
|--------------------------------------------------|
|-0--0--12--0--5--7--0--8---8--10--8--10--8--8--8--|
|-0--0--12--0--5--7--0--8---8--8---8--8---8--8--8--|
|-0--0--12--0--5--7--0--8---8--8---8--8---8--8--8--|

 pm
|---------------------------------------------------|
|---------------------------------------------------|
|---------------------------------------------------|
|-0--0--12--0--5--7--0--8---8--10--8--10--8--8--10--|
|-0--0--12--0--5--7--0--8---8--8---8--8---8--8--10--|
|-0--0--12--0--5--7--0--8---8--8---8--8---8--8--10--|

|------------------------------------------------------|
|------------------------------------------------------|
|------------------------------------------------------|
|-10--10---10--10--10--10---10--10--10--10--10--10-----|
|-10--10---10--10--10--10---10--10--10--10--10--10--%--|
|-10--10---10--10--10--10---10--10--10--10--10--10-----|
|
|			(Guitar 2)
|----------------------------------------------------------|
|----------------------------------------------------------|
|----------------14-------------------------14-------------|
|-/(12)--15--12------12\-----/(12)--15--12------12---------| 1X1
|---------------------------------------------------15--\--|
|----------------------------------------------------------|

~
|------------------------------------------------------------------------|
|------------------------------------------------------------------------|
|----------------14-------------------------14---------------------------| 
|-/(12)--15--12------12\-----/(12)--15--12------12---17--19--sr--sr--sr--| 
|------------------------------------------------------------------------|
|------------------------------------------------------------------------|

~
|---------------------|
|---------------------|
|---------------------|
|-sr--sr--sr--sr------|
|-----------------17--|
|---------------------|
|
|		
.			(Guitar 3)
|--------------------------------------------------|
|--------------------------------------------------|
|--------------------------------------------------|
|--------------------------------------------------| x2
|-----------------------------------15fr-------13--|
|--------------------------------------------------|

~
|--------------------------------------------------|
|--------------------------------------------------|
|--------------------------------------------------|
|--------------------------------------------------|
|-----------------------------------15fr-------15--|
|--------------------------------------------------|

Solo:

			(Guitar 1)
~ ~ ~ ~
|-13f--13--12---------------------------------------12--13f--|
|-----------------15--13-------------12--13-----15-----------|
|-------------------------12-----14--------------------------|
|------------------------------------------------------------|
|------------------------------------------------------------|
|------------------------------------------------------------|

~ ~ ~
|-13f-----13f-----15f-----15--13----------------------|
|---------------------------------15--13--------------|
|-----------------------------------------14--12--10--|
|-----------------------------------------------------|
|-----------------------------------------------------|
|-----------------------------------------------------|
| 
|			(Guitar 2)
|---------------------------------------------------------|
|---------------------------------------------------------|
|---------------------------------------------------------|
|-8--8--8--10---10--10--10---10--10--10---10--10---10-10--|
|-8--8--8--10---10--10--10---10--10--10---10--10---10-10--|
|-8--8--8--10---10--10--10---10--10--10---10--10---10-10--|

 pm
|--------------------------------------------------------------------|
|--------------------------------------------------------------------|
|--------------------------------------------------------------------|
|-10--14--10---10--14--10---10--14--10---10--0--10--0--10--0--10--0--|
|-10--14--10---10--14--10---10--14--10---10--0--10--0--10--0--10--0--|
|-10--14--10---10--14--10---10--14--10---10--0--10--0--10--0--10--0--|

Verse 3: (same as first, with these changes)
				(Guitar 1)
|----------------------------------------------------------------------|
|----------------------------------------------------------------------|
|----------------------------------------------------------------------|
|----------------------------------------------------------------------|
|----8------8------8------8--7--7--------8------8------8------8--7--5--|
|-0------0------0------0--------------0------0------0------0-----------|

|-----------------------------------------------------------------------|
|-----------------------------------------------------------------------|
|-----------------------------------------------------------------------|
|----------------------------------------------------------2--3---2-----|
|----8------8------8------8--7--7------8------8--7--0---3------------3--|
|-0------0------0------0------------0------0----------------------------|

Chorus:
|------------------------------------------------|
|------------------------------------------------|
|-----7---7--7--7-----5---5-----4---4--4---------|
|-----7---7--5--7-----5---5-----5---5--5---------| 1X1
|--0--5---5--5--5--0--3---3--0--2---2--2--0-0-0--|
|--0---------------0---------0------------0-0-0--|

|--------------------------------------------|
|--------------------------------------------|
|-----7---7--7--7-----5---5-----4---4--4-----|
|-----7---7--5--7-----5---5-----5---5--5--3--|
|--0--5---5--5--5--0--3---3--0--2---2--2--3--|
|--0---------------0---------0------------3--| 

|----------------------------------------------------------|
|----------------------------------------------------------|
|----------------------------------------------------------|
|-3--5p3--5p3--3--3/(5)---5--5--5--5--5--5--5--5--5--5--5--|
|-3--3----3----3--3/(5)---5--5--5--5--5--5--5--5--5--5--5--|
|-3--3----3----3--3/(5)---5--5--5--5--5--5--5--5--5--5--5--|

|--------------|
|--------------|
|--------------|
|-----------0--|
|-----------0--|
|-5s--5--3--0--|

|------------------------------------------------|
|------------------------------------------------|
|-----7---7--7--7-----5---5-----4---4--4---------|
|-----7---7--5--7-----5---5-----5---5--5---------| 1X3
|--0--5---5--5--5--0--3---3--0--2---2--2--0-0-0--|
|--0---------------0---------0------------0-0-0--|

Outro:
 pm		    (Guitar 1)
|-------------------------------------------------|
|-------------------------------------------------|
|-----------------------5---5-----4---4--4--------|
|--0--0-0--0--0--0-0-0--5---5-----5---5--5--------|
|--0--0-0--0--0--0-0-0--3---3--0--2---2--2-0-0-0--|
|--0--0-0--0--0--0-0-0---------0-----------0-0-0--| 1X1

 pm
|----------------------------------------------|
|----------------------------------------------|
|-----------------------5---5-----4------------|
|--0--0-0--0--0--0-0-0--5---5-----5---7--5--3--|
|--0--0-0--0--0--0-0-0--3---3--0--2---7--5--3--|
|--0--0-0--0--0--0-0-0---------0------7--5--3--|

|-----------------------------------------------|
|-----------------------------------------------|
|--------------------------------------------7--|
|-3--5p3--5p3--3--3/5---5--5--5--5--5--5--5--7--|
|-3--3----3----3--3/5---5--5--5--5--5--5--5--5--|
|-3--3----3----3--3/5---5--5--5--5--5--5--5--5--|

|----------------------------|
|----------------------------|
|-7--------------------------|
|-7-------------0-----\\\----|
|---------------0-----\\\-%--|
|-----5s--5--3--0-----\\\----|
|
|				(Guitar 2)
~ ~ ~ ~ ~ ~ ~ ~ ~ ~ ~ ~ 
|------------------------------------------------------------------------|
|------------------------------------------------------------------------|
|------------------------------------------------------------------------|
|------------------------------------------------------------------------|
|-5---7/(8)-----12---10---5---7/(8)-----12---10---5---7/(8)-----12---10--|
|------------------------------------------------------------------------|

~ ~ ~
|-------------------------------------------------------------|
|-------------------------------------------------------------|
|-------------------------------------------------------------|
|-------------------------------------------------------------|
|-12--10--8---8--10--8--10--8--8--7---8--7--8--7--8--7--5--5--|
|-------------------------------------------------------------|
comments
We did not receive enough feedback on this tab! Please rate:
print report bad tab
1 2 3 4 5
I want to post or [tab]
guest
You may want to rate the tab now too:
select rating
Please do not post tabs as comments. Select "correction" instead!