Oops, an error
Loading. Please wait.

Stonebreaker Tab

1,329 views 6 this week
no commentswrite comment
1 2 3 4 5
accurate
x 1
Autoscroll
+/-
esc
set tempo
stop
Contributor
Tuning
D A D G B E
WARNING: You are trying to view
                                    content from Ultimate-Guitar.com
                                    in an unauthorized application,
                                    which is prohibited.

                                    Please use an official Ultimate
                                    Guitar Tabs application for iPhone,
                                    iPad or Android to access legitimate
                                    chords, guitar, bass, and drum tabs
                                    from Ultimate-Guitar.com database.

                                    Type "ultimate guitar tabs" in Apple
                                    App Store's or Android Market's
                                    search to find the application.
#----------------------------------PLEASE NOTE---------------------------------#
#This file is the author's own work and represents their interpretation of the #
#song. You may only use this file for private study, scholarship, or research. #
#------------------------------------------------------------------------------#

STONEBREAKER
As recorded by Corrosion Of Conformity

Transcribed by unregistered
        



Gtr I (D A D G B E) - 'Untitled'
Gtr II (D A D G B E) - 'Untitled'

  Q=129
 4/4
  Gtr I
  PM  PM|   PM    ~~~~~~   PM  PM|   PM    ~~~~~~~~~~
  |-3-| |-3-| |-3-|        |-3-| |-3-| |-3-|  |--3---|
  E E E E E E E E E +Q     E E E E E E E E E +E  +E  E
|------------------------|-----------------------------|
|------------------------|-----------------------------|
|------------------------|-----------------------------|
|------------------------|-----------------------------|
|------------------------|-----------------------------|
|-0---0-0---0-3h5-3-(3)--|-0---0-0---0-3h5-3-(3)-(3)-x-|


  PM  PM|   PM    ~~~~~~   PM  PM|   PM    ~~~~~~
  |-3-| |-3-| |-3-|        |-3-| |-3-| |-3-|
  E E E E E E E E E +Q     E E E E E E E E E +Q
|------------------------|-------------------------|
|------------------------|-------------------------|
|------------------------|-------------------------|
|------------------------|-------------------------|
|------------------------|-------------------------|
|-0---0-0---0-3h5-3-(3)--|-0---0-0---0-3h5-3-(3)---|


    H.      Q    H    Q  Q
||-------------|------------|
||o------------|------------|
||-------------|------3-----|
||--5-------0--|-3----3--6--|
||o-5-------0--|-3----1--4--|
||--5-------0--|-3----------|


  PM  PM|   PM    ~~~~~~~~~~PM--|   PM|   PM    ~~~~~~
  |-3-| |-3-| |-3-|  |--3---|   |-3-| |-3-| |-3-|
  E E E E E E E E E +E  +E  E   E E E E E E E E E +Q
|-----------------------------|--------------------------||
|-----------------------------|-------------------------o||
|-----------------------------|--------------------------||
|-----------------------------|--------------------------||
|-----------------------------|-------------------------o||
|-0---0-0---0-3h5-3-(3)-(3)-x-|-0---0-0---0-3h5-3-(3)----||


          |-3--|       |-3--|
    Q  Q  E E +E  Q    E E +E  Q  Q  Q
||-------------------|------------------|
||o------------------|------------------|
||--7--7-------------|------------3-----|
||--7--7----6-(6)-6--|---3-(3)-3--3--6--|
||o-5--5--0-6-(6)-6--|-0-3-(3)-3--1--4--|
||--0--0--0-6-(6)-6--|-0-3-(3)-3--------|


  PM  PM|   PM    ~~~~~~   PM  PM|   PM    ~~~~~~
  |-3-| |-3-| |-3-|        |-3-| |-3-| |-3-|
  E E E E E E E E E +Q     E E E E E E E E E +Q
|------------------------|-------------------------||
|------------------------|------------------------o||
|------------------------|-------------------------||
|------------------------|-------------------------||
|------------------------|------------------------o||
|-0---0-0---0-3h5-3-(3)--|-0---0-0---0-3h5-3-(3)---||


    H.      Q    H    Q  Q
||-------------|------------|
||o------------|------------|
||-------------|------3-----|
||--5-------0--|-3----3--6--|
||o-5-------0--|-3----1--4--|
||--5-------0--|-3----------|


  PM  PM|   PM    ~~~~~~   PM  PM|   PM    ~~~~~~
  |-3-| |-3-| |-3-|        |-3-| |-3-| |-3-|
  E E E E E E E E E +Q     E E E E E E E E E +Q
|------------------------|---------------------------||
|------------------------|--------------------------o||
|------------------------|---------------------------||
|------------------------|---------------------------||
|------------------------|--------------------------o||
|-0---0-0---0-3h5-3-(3)--|-0---0-0---0-3h5-3-(3)-----||


    |----3----|        |----3----|        |----------3----------|
    E E E E E E H      E E E E E E H      E E E E E E E E E E E E
||-------------------|------------------|-------------------------|
||o------------------|------------------|-------------------------|
||--7-7-7-7-7-7-7----|-7-7-7-7-7-7-7----|-7-7-7-7-7-7-7-7-7-7-7-7-|
||--7-7-7-7-7-7-7----|-7-7-7-7-7-7-7----|-7-7-7-7-7-7-7-7-7-7-7-7-|
||o-5-5-5-5-5-5-5----|-5-5-5-5-5-5-5----|-5-5-5-5-5-5-5-5-5-5-5-5-|
||-------------------|------------------|-------------------------|


  |----3----|   |--3---|  |---3----|       |--3--|
  E E E E E E   E  +E  E +E    E  +E    Q  E +E  E +H       +W
|-------------------------------------|-------------------|--------|
|-------------------------------------|-------------------|--------|
|-7-7-7-7-7-7-/10-(10)-7-(7)-/10-(10)-|-7--5-(5)-5-(5)----|-(5)----|
|-7-7-7-7-7-7-/10-(10)-7-(7)-/10-(10)-|-7--5-(5)-5-(5)----|-(5)----|
|-5-5-5-5-5-5--/8--(8)-5-(5)--/8--(8)-|-5--3-(3)-3-(3)----|-(3)----|
|-------------------------------------|-------------------|--------|


  E E +H.        +W
|--------------|---------||
|--------------|--------o||
|-5s7-(7)------|-(7)-----||
|-5s7-(7)------|-(7)-----||
|-3s5-(5)------|-(5)----o||
|--------------|---------||


                      ~~~~~~                     ~~~~~~
    |-3-| |-----3-----|        |-3-| |-----3-----|
    S S E E E E E E E E +Q     S S E E E E E E E E +Q
||---------------------------|----------------------------||
||o--------------------------|---------------------------o||
||--5h7-5--------------------|-5h7-5----------------------||
||--------7-5-3---3h5-3-(3)--|-------7-5-3---3h5-3-(3)----||
||o-------------3------------|-------------3-------------o||
||---------------------------|----------------------------||


                            PM  PM|   PM    ~~~~~~
                            |-3-| |-3-| |-3-|
  H.      Q    H    Q  Q    E E E E E E E E E +Q
|------------|------------|-------------------------------|
|------------|------------|-------------------------------|
|------------|------3-----|-------------------------------|
|-5-------0--|-3----3--6--|-------------------------------|
|-5-------0--|-3----1--4--|-------------------------------|
|-5-------0--|-3----------|-0---0-0---0-3h5-3-(3)---------|
|
| Gtr II
|                                              |--3--|
| W            W            H           Q      E  E  E
|------------|------------|-------------------------------|
|------------|------------|-------------------------13----|
|------------|------------|-------------------------12b14-|
|------------|------------|-------------------------------|
|------------|------------|-------------------------------|
|------------|------------|-------------------------------|


    PM       PM|      PM       ~~~~~~
    |---3----|  |--3--|   |-3--|
    E      E E  E  E  E   E  E E +Q
|---------------------------------------|
|---------------------------------------|
|---------------------------------------|
|---------------------------------------|
|---------------------------------------|
|---0--------0--0-----0---3h=5-3-(3)----|
|
|               |--3--|
|  +Q           E  E  E  +Q       Q
|---------------------------------------|
|-(13)----------------------------------|
|-(12)pb14------------------------------|
|--------------12-10-12-(12)------------|
|---------------------------------------|
|---------------------------------------|


                                     PM               PM|      PM       ~~~~~~
                                     |-------3--------|  |--3--|  |--3--|
  H.      Q    H    Q  Q             E        E       E  E  E  E  E  E  E +Q
|------------|-------------------|--------------------------------------------------|
|------------|-------------------|--------------------------------------------------|
|------------|------3------------|--------------------------------------------------|
|-5-------0--|-3----3--6---------|--------------------------------------------------|
|-5-------0--|-3----1--4---------|--------------------------------------------------|
|-5-------0--|-3-----------------|---0----------------0--0-----0--3h=5--3-(3)-------|
|
|                      |-3--|        |---------------------3----------------------|
| W            H    Q  E E  E       +E       +E       E  E  E  E  E  E  E  E   E  E
|------------|-------------------|-------------------10-----------------------------|
|------------|-------------13b15-|-(13)pb15-(13)pb15----13-10----13p10----10--------|
|------------|-------------------|----------------------------12-------12-----12-10-|
|------------|-------------------|--------------------------------------------------|
|------------|-------------------|--------------------------------------------------|
|------------|-------------------|--------------------------------------------------|


   PM    PM|        PM       ~~~~~~
   |--3--|  |---3---|   |-3--|
   E  E  E  E    E  E   E  E E +Q
|------------------------------------|
|------------------------------------|
|------------------------------------|
|------------------------------------|
|------------------------------------|
|--0-----0--0-------0---3h=5-3-(3)---|
|
|                   ~~~~~~~
|  |-------3--------|
|  E  E  E  E    E  E  +Q       Q
|------------------------------------|
|------------------------------------|
|-12p10----12b14---10-(10)-----------|
|-------12---------------------------|
|------------------------------------|
|------------------------------------|


          |-3--|       |-3--|
    Q  Q  E E +E  Q    E E +E  Q  Q  Q
||-------------------|------------------|
||o------------------|------------------|
||--7--7-------------|------------3-----|
||--7--7----6-(6)-6--|---3-(3)-3--3--6--|
||o-5--5--0-6-(6)-6--|-0-3-(3)-3--1--4--|
||--0--0--0-6-(6)-6--|-0-3-(3)-3--------|


  PM  PM|   PM    ~~~~~~   PM  PM|   PM    ~~~~~~
  |-3-| |-3-| |-3-|        |-3-| |-3-| |-3-|
  E E E E E E E E E +Q     E E E E E E E E E +Q
|------------------------|-------------------------||
|------------------------|------------------------o||
|------------------------|-------------------------||
|------------------------|-------------------------||
|------------------------|------------------------o||
|-0---0-0---0-3h5-3-(3)--|-0---0-0---0-3h5-3-(3)---||


    H.      Q    H    Q  Q
||-------------|------------|
||o------------|------------|
||-------------|------3-----|
||--5-------0--|-3----3--6--|
||o-5-------0--|-3----1--4--|
||--5-------0--|-3----------|


  PM  PM|   PM    ~~~~~~   PM  PM|   PM    ~~~~~~
  |-3-| |-3-| |-3-|        |-3-| |-3-| |-3-|
  E E E E E E E E E +Q     E E E E E E E E E +Q
|------------------------|---------------------------||
|------------------------|--------------------------o||
|------------------------|---------------------------||
|------------------------|---------------------------||
|------------------------|--------------------------o||
|-0---0-0---0-3h5-3-(3)--|-0---0-0---0-3h5-3-(3)-----||


    |----3----|        |----3----|        |----------3----------|
    E E E E E E H      E E E E E E H      E E E E E E E E E E E E
||-------------------|------------------|-------------------------|
||o------------------|------------------|-------------------------|
||--7-7-7-7-7-7-7----|-7-7-7-7-7-7-7----|-7-7-7-7-7-7-7-7-7-7-7-7-|
||--7-7-7-7-7-7-7----|-7-7-7-7-7-7-7----|-7-7-7-7-7-7-7-7-7-7-7-7-|
||o-5-5-5-5-5-5-5----|-5-5-5-5-5-5-5----|-5-5-5-5-5-5-5-5-5-5-5-5-|
||-------------------|------------------|-------------------------|


  |----3----|   |--3---|  |---3----|       |--3--|
  E E E E E E   E  +E  E +E    E  +E    Q  E +E  E +H       +W
|-------------------------------------|-------------------|--------|
|-------------------------------------|-------------------|--------|
|-7-7-7-7-7-7-/10-(10)-7-(7)-/10-(10)-|-7--5-(5)-5-(5)----|-(5)----|
|-7-7-7-7-7-7-/10-(10)-7-(7)-/10-(10)-|-7--5-(5)-5-(5)----|-(5)----|
|-5-5-5-5-5-5--/8--(8)-5-(5)--/8--(8)-|-5--3-(3)-3-(3)----|-(3)----|
|-------------------------------------|-------------------|--------|


  E E +H.        +W
|--------------|---------||
|--------------|--------o||
|-5s7-(7)------|-(7)-----||
|-5s7-(7)------|-(7)-----||
|-3s5-(5)------|-(5)----o||
|--------------|---------||


                    ~~~~~~                     ~~~~~~
  |-3-| |-----3-----|        |-3-| |-----3-----|
  S S E E E E E E E E +Q     S S E E E E E E E E +Q
|--------------------------|--------------------------|
|--------------------------|--------------------------|
|-5h7-5--------------------|-5h7-5--------------------|
|-------7-5-3---3h5-3-(3)--|-------7-5-3---3h5-3-(3)--|
|-------------3------------|-------------3------------|
|--------------------------|--------------------------|


                                                        ~~~~~~
  |-3--| |--3---| |-3--| |--3---|   |-3--| |-----3------|
  S  S E E E  E E S  S E E E  E E   S  S E E E  E E E E E +Q
|---------------------------------|-----------------------------|
|---------------------------------|-----------------------------|
|-5h=7-5----------5h=7-5----------|-5h=7-5----------------------|
|--------7-5--3----------7-5--3---|--------7-5--3---3h5-3-(3)---|
|---------------3---------------3-|---------------3-------------|
|---------------------------------|-----------------------------|
|
| Gtr II
| |-3--| |--3---| |-3--| |--3---|   |-3--| |--3---| |-3-|
| S  S E E E  E E S  S E E E  E E   S  S E E E  E E E E E +Q
|---------------------------------|-----------------------------|
|-8h10-8----------8h10-8----------|-8-10-8----------------------|
|--------9-7-------------9-7------|--------9-7------------------|
|------------10-7------------10-7-|------------10-7-3h5-3-(3)---|
|---------------------------------|-----------------------------|
|---------------------------------|-----------------------------|


  H.      Q    H    Q  Q    H.      Q    H    Q  Q
|------------|------------|------------|------------|
|------------|------------|------------|------------|
|------------|------3-----|------------|------3-----|
|-5-------0--|-3----3--6--|-5-------0--|-3----3--6--|
|-5-------0--|-3----1--4--|-5-------0--|-3----1--4--|
|-5-------0--|-3----------|-5-------0--|-3----------|


                    H.=H
  H.      Q    H    Q  Q
|------------|------------|
|------------|------------|
|------------|------3-----|
|-5-------0--|-3----3--6--|
|-5-------0--|-3----1--4--|
|-5-------0--|-3----------|


    Q=113
        ~~                         ~~~
    E E H.         Q  Q  Q   Q    +W           H    H
||--------------|---------------|------------|------------||
||o-------------|---------------|------------|-----------o||
||--------------|---------------|------------|------------||
||--3-5-5-------|-/7--5--3--/5--|-(5)--------|-3----5-----||
||o-------------|---------------|------------|-1----3----o||
||--------------|---------------|------------|------------||
|
|   Gtr II
|       ~~                         ~~~
|   E E H.         Q  Q  Q   Q    +W           H    H
||--------------|---------------|------------|------------||
||o-------------|---------------|------------|-----------o||
||--------------|---------------|------------|------------||
||--3-5-5-------|-/7--8--7---5--|-(5)--------|-3----5-----||
||o-------------|---------------|------------|-1----3----o||
||--------------|---------------|------------|------------||


       ~~~                        ~~~
  E E  H.         Q  Q  Q   Q    +W           H    H
|--------------|---------------|------------|-----------|
|--------------|---------------|------------|-----------|
|--------------|---------------|------------|-----------|
|-3-5--5-------|-/7--5--3--/5--|-(5)--------|-3----5----|
|--------------|---------------|------------|-1----3----|
|--------------|---------------|------------|-----------|
|
|      ~~~                        ~~~
| E E +H.         Q  Q  Q   Q    +W           W
|--------------|---------------|------------|-----------|
|--------------|---------------|------------|-----------|
|--------------|---------------|------------|-----------|
|--------------|--3--5--7---5--|-(5)--------|-----------|
|-3-5-(5)------|---------------|------------|-----------|
|--------------|---------------|------------|-----------|


      ~~                   ~~~~~~~~~
  E E H.         Q  Q  Q   Q    +H.      Q    Q  Q   Q      Q
|-------------|---------------|-------------|------------------|
|-------------|---------------|-------------|------------------|
|-------------|---------------|-------------|------------------|
|-3-5-5-------|-/7--5--3--/5--|-(5)---------|--------2---------|
|-------------|---------------|----------1--|-5--1----------3--|
|-------------|---------------|-------------|------------------|
|
|     ~~                   ~~~~~~~~~
| E E H.         Q  Q  Q   Q    +H.      Q    Q  Q   H
|-------------|---------------|-------------|------------------|
|-------------|---------------|-------------|------------------|
|-------------|---------------|-------------|-------11pb12r====|
|-3-5-5-------|-/7--8--7---5--|-(5)---------|------------------|
|-------------|---------------|----------1--|-5--1-------------|
|-------------|---------------|-------------|------------------|


   W          +Q   E  E  E      E  Q     E  E  H     Q     Q  Q   Q  Q
|-----------|-------------------------|-----------------|---------------|
|-----------|-------------------------|-----------------|---------------|
|-----------|-------------------------|-----------------|---------------|
|--0--------|-(0)---------------------|-----------------|---------2-----|
|--0--------|-(0)--9-10--9-----10--9--|-12-10--5-----1--|--5--1------3--|
|--0--------|-(0)--0--0--0------0--0--|--0--0--0--------|---------------|
|
|  ~~                              ~~
|  W           Q   Q     Q         Q     E  E  H     Q     H      H
|-----------|-------------------------|-----------------|---------------|
|-----------|-------------------------|-----------------|---------------|
|-11--------|-----------11pb12r===11--|-14-12-11--------|---------------|
|-----------|-------------------------|-------------12--|-15-----14-----|
|-----------|-------------------------|-----------------|---------------|
|-----------|-------------------------|-----------------|---------------|


    Q=129
    H.      Q    H    Q  Q
||-------------|------------|
||o------------|------------|
||-------------|------3-----|
||--5-------0--|-3----3--6--|
||o-5-------0--|-3----1--4--|
||--5-------0--|-3----------|


  PM  PM|   PM    ~~~~~~   PM  PM|   PM    ~~~~~~
  |-3-| |-3-| |-3-|        |-3-| |-3-| |-3-|
  E E E E E E E E E +Q     E E E E E E E E E +Q
|------------------------|---------------------------||
|------------------------|--------------------------o||
|------------------------|---------------------------||
|------------------------|---------------------------||
|------------------------|--------------------------o||
|-0---0-0---0-3h5-3-(3)--|-0---0-0---0-3h5-3-(3)-----||


                                                                       ~~~
        |-3--|       |-3--|                   |-3--|       |-3--|
  Q  Q  E E +E  Q    E E +E  Q  Q  Q    Q  Q  E E +E  Q    E E +E  Q   H
|------------------|------------------|------------------|-------------------|
|------------------|------------------|------------------|------------[3]----|
|-7--7-------------|------------3-----|-7--7-------------|-------------------|
|-7--7----6-(6)-6--|---3-(3)-3--3--6--|-7--7----6-(6)-6--|---3-(3)-3---------|
|-5--5--0-6-(6)-6--|-0-3-(3)-3--1--4--|-5--5--0-6-(6)-6--|-0-3-(3)-3---------|
|-0--0--0-6-(6)-6--|-0-3-(3)-3--------|-0--0--0-6-(6)-6--|-0-3-(3)-3---------|


        |-3--|       |-3--|                   |-3--|       |-3--|
  Q  Q  E E +E  Q    E E +E  Q  Q  Q    Q  Q  E E +E  Q    E E +E  Q  Q  Q
|------------------|------------------|------------------|------------------|
|------------------|------------------|------------------|------------------|
|-7--7-------------|------------3-----|-7--7-------------|------------3-----|
|-7--7----6-(6)-6--|---3-(3)-3--3--6--|-7--7----6-(6)-6--|---3-(3)-3--3--6--|
|-5--5--0-6-(6)-6--|-0-3-(3)-3--1--4--|-5--5--0-6-(6)-6--|-0-3-(3)-3--1--4--|
|-0--0--0-6-(6)-6--|-0-3-(3)-3--------|-0--0--0-6-(6)-6--|-0-3-(3)-3--------|


  H    H
|-----------*|
|-----------*|
|-7---------*|
|-7---------*|
|-5---------*|
|-0---------*|



Duration Legend
---------------
W - whole; H - half; Q - quarter; E - 8th; S - 16th; T - 32nd; X - 64th; a - acciaccatura
+ - note tied to previous; . - note dotted; .. - note double dotted
Uncapitalized letters represent notes that are staccato (1/2 duration)
Irregular groupings are notated above the duration line
Duration letters will always appear directly above the note/fret number it represents the
duration for.  Duration letters with no fret number below them represent rests.  Multi-
bar rests are notated in the form Wxn, where n is the number of bars to rest for.  Low
melody durations appear below the staff

Tablature Legend
----------------
 h   - hammer-on
 p   - pull-off
 b   - bend
 pb  - pre-bend
 r   - bend release (if no number after the r, then release immediately)
 /\  - slide into or out of (from/to "nowhere")
 s   - legato slide
 S   - shift slide
 - natural harmonic
[n]  - artificial harmonic
n(n) - tapped harmonic
 ~   - vibrato
 tr  - trill
 T   - tap
 TP  - trem. picking
 PM  - palm muting
\n/  - tremolo bar dip; n = amount to dip
 \n  - tremolo bar down
 n/  - tremolo bar up
/n\  - tremolo bar inverted dip
 =   - hold bend; also acts as connecting device for hammers/pulls
 <> - volume swell (louder/softer)
 x   - on rhythm slash represents muted slash
 o   - on rhythm slash represents single note slash

Misc Legend
-----------
 |  - bar
||  - double bar
||o - repeat start
o|| - repeat end
*|  - double bar (ending)
 :  - bar (freetime)
 $  - Segno
 &  - Coda
Tempo markers -  = BPM(8/16=s8/s16), where s8 = swing 8ths, s16 = swing 16ths

comments
We did not receive enough feedback on this tab! Please rate:
1 2 3 4 5
I want to post or [tab]
guest
You may want to rate the tab now too:
select rating
Please do not post tabs as comments. Select "correction" instead!