Oops, an error
Loading. Please wait.

Radium Eyes Tab

ver3
ver3

Whole song

Interactive

More versions @911Tabs.com
2,472 views 3 this week
no commentswrite comment
1 2 3 4 5
excellent!
x 5
Autoscroll
+/-
esc
set tempo
stop
Contributor
Hey! There's an official Ultimate Guitar app which is ideal
for learning songs when you're away from computer. Get the app
WARNING: You are trying to view
                                    content from Ultimate-Guitar.com
                                    in an unauthorized application,
                                    which is prohibited.

                                    Please use an official Ultimate
                                    Guitar Tabs application for iPhone,
                                    iPad or Android to access legitimate
                                    chords, guitar, bass, and drum tabs
                                    from Ultimate-Guitar.com database.

                                    Type "ultimate guitar tabs" in Apple
                                    App Store's or Android Market's
                                    search to find the application.
Artist: Count Zero
Song: Radium Eyes    Song Length:3min 26sec/3:26
Tabbed By: O-52-A-50-R
Tuning: Standard for my tab

*****(Intro-Chorus1)Notes on D-String Optional *****


*This is my first tab, I'll try my hardest to get it right :)


INTRO ( 0:00-0:11)

Guitar 1
|---------------------------------------------------------------------|
|---------------------------------------------------------------------|
|-3-2--2-2-2-3-x-3-3-2--2-2-2-3-x-3-3-2--2-2-2-3-x-3-3-2--2-2-2-3-x-3-|
|---------------------------------------------------------------------|
|---------------------------------------------------------------------|
|---------------------------------------------------------------------|


Guitar 2
|--------------------------------------------------------------------|
|--------------------------------------------------------------------|
|--------------------------------------------------------------------|
|---------1------------1------------1------------1-------------------|
|3-3--3-3-1-1-3-3--3-3-1-1-3-3--3-3-1-1-3-3--3-3-1-1-----------------|
|3-3--3-3---1-3-3--3-3---1-3-3--3-3---1-3-3--3-3---1-----------------|

Verse 1 (0:11-0:57)
|--------------------------------------------|
|--------------------------------------------|
|--------------------------------------------|
|8--8-8-8---8--8-8-8---8--8-8-8---8--8-8-8-6-|
|8--8-8-8---8--8-8-8---8--8-8-8---8--8-8-8-6-|
|6--6-6-6---6--6-6-6---6--6-6-6---6--6-6-6-4-|


|-----------------------------------------------------------|
|-----------------------------------------------------------|
|-----------------------------------------------------------|
|5-5--5-5--5--4-4--4-4-x-4---5-5--5-5--5--4-4--4-4-x--10--8-|
|5-5--5-5--5--4-4--4-4-4-4---5-5--5-5--5--4-4--4-4-4--10--8-|
|3-3--3-3--3--2-2--2-2-0-2---3-3--3-3--3--2-2--2-2-0---8--6-|


|--------------------------------------------|
|--------------------------------------------|
|--------------------------------------------|
|8--8-8-8---8--8-8-8---8--8-8-8---8--8-8-8-6-|
|8--8-8-8---8--8-8-8---8--8-8-8---8--8-8-8-6-|
|6--6-6-6---6--6-6-6---6--6-6-6---6--6-6-6-4-|


|------10----------10----------10----------9----------9-------|
|---11----11----11----11----11----11----11---11----11---11----|
|12----------12----------12----------11---------11---------11-|
|-------------------------------------------------------------|
|-------------------------------------------------------------|
|-------------------------------------------------------------|

|------10----------10----------10----------9----------9-------|
|---11----11----11----11----11----11----11---11----11---11----|
|12----------12----------12----------11---------11---------11-|
|-------------------------------------------------------------|
|-------------------------------------------------------------|
|-------------------------------------------------------------|


Chorus1(0:57-1:11) **The tab for the chorus is not the exact notes in the song but 
fine when played in rythym with the song**

|------------------------------------------------------------|
|------------------------------------------------------------|
|------------------------------------------------------------|
|8-7---7-8---8-8-7---7-8---8-8-7---7------------7-7-7-8------|
|8-7---7-8---8-8-7---7-8---8-8-7---7----1-0-----7-7-7-8----1-|
|6-5-x-5-6-x-6-6-5-x-5-6-x-6-6-5-x-5--1------1--5-5-5-6--1---|


Verse 2 (1:11-1:46)

|------------------------------------------------------------|
|------------------------------------------------------------|
|------------------------------------3-3-6-6-8-8-10-10-13-13-|
|8-8--8-8-8--8-8--8-8-8--8-8--8-8-8--3-3-6-6-8-8-10-10-13-13-|
|8-8--8-8-8--8-8--8-8-8--8-8--8-8-8--1-1-4-4-6-6--8--8-11-11-|
|6-6--6-6-6--6-6--6-6-6--6-6--6-6-6--------------------------|


|---------------------------------------------|
|---------------------------------------------|
|---------------------------------------------|
|8--8-8-8---8--8-8-8-6--8--8-8-8---8--8-8-8-6-|
|8--8-8-8---8--8-8-8-6--8--8-8-8---8--8-8-8-6-|
|6--6-6-6---6--6-6-6-4--6--6-6-6---6--6-6-6-4-|

|-----------------------------------------------|
|-----------------------------------------------|
|----2-2-3--------2-2-3------2-2-3--------2-2-3-|
|5-5----------4-4-------5-5----------4-4--------|
|5-5----------4-4-------5-5----------4-4--------|
|3-3----------2-2-------3-3----------2-2--------|


Chorus 2 (1:46-1:57)


|------------------------------------------------------|
|------------------------------------------------------|
|------------------------------------------------------|
|---------1------------1------------1------------------|
|3-3--3-3-1-1-3-3--3-3-1-1-3-3--3-3-1-1-3-3--3-4-5-6-3-|
|3-3--3-3---1-3-3--3-3---1-3-3--3-3---1-3-3--3-4-5-6-3-|


Solo (1:57-2:38) *Obviously I'm amateur so this won't be perfect ( moslty the chords) *

|---------------10-9-8-7-7-7--7-8-9-9h10h11--7h8p7-0-1-2-3--15<1-|
|---------------10-9-8-------------------------------------------|
|---------0-----10-9-8-------------------------------------------|
|2-2--2-2-0-0-2--------------------------------------------------|
|2-2--2-2---0-2--------------------------------------------------|
|----------------------------------------------------------------|

|----------------12-12-12-12-12-12-12-12-12-12-10---3---0---5-3-0---|
|----------------12-12-12-12-12-12-12-12-12-------3---3---3-------3-|
|----------------12-12-12-12-12-12-12-12-12-------------------------|
|4-9<4---0-2-4------------------------------------------------------|
|------4-------4----------------------------------------------------|
|-------------------------------------------------------------------|

|5-5-5-5-3-0--0-----0--6-5-3---5-8-7<17-----------------|
|------------3--0-3----------3--------------------------|
|-------------------------------------------------------|
|---------------------------------------4-9<4---0-2-4---|
|---------------------------------------------4-------4-|
|-------------------------------------------------------|

|14p12-14p12-14p12-20-15-12-14p12-14p12-14p12----------------14-|
|---------------------------------------------------------------|
|-------------------------------------------------2-11-11-11----|
|---------------------------------------------4-4---------------|
|---------------------------------------------------------------|
|---------------------------------------------------------------|

|----------12----------14-|
|-------------------------|
|8-8-8-8-8----11-11-11----|
|-------------------------|
|-------------------------|
|-------------------------|

take time to look over the solo and listen to the song at
 the same time to see what I'm gettin' at)


Chorus 3 (2:38-3:01)

Guitar 1

|6-5--------------6-5--------------6-5--------------6-5---------------|
|----6-4--------------6-4--------------6-4--------------6-4-----------|
|--------5-3--------------5-3--------------5-3--------------5-3-------|
|------------7----------------7----------------7----------------7-----|
|--------------8-6--------------8-6--------------8-6--------------8-6-|
|---------------------------------------------------------------------|

Guitar 2

|------------------------------------------------------|
|------------------------------------------------------|
|------------------------------------------------------|
|---------1------------1------------1------------------|
|3-3--3-3-1-1-3-3--3-3-1-1-3-3--3-3-1-1-3-3--3-4-5-6-3-|
|3-3--3-3---1-3-3--3-3---1-3-3--3-3---1-3-3--3-4-5-6-3-|


Outro (3:01-3:26)

|----0----------------0---------4| 
|------0h2-3-3p2-0------0h2-3-0-5| 
|0h1---------------0h1----------4|  
|--------------------------------|
|--------------------------------|                    
|--------------------------------|

Play that 4 times and end on the 454--- chord
                                                       

LYRICS


VERSE1

Merry is the man
with money in his hand
with grease between the wheels
and lamps in his latrine

and stacks of fresh towels for his wet hands
Counting up all his toys
Draining tent fire from the neighbors
Sermons from soldier boys

like our young cadet
whose lords require sweat
til Spain is on its ass
surrend’ring Philippines

He‘s stuck in ruts wearing lead pants
buried chest-deep in a Maginot
Wondering when he'll touch flesh again
next chance he gets, he must tell her:


CHORUS1

“Oh, you've got Radium eyes”

VERSE 2

He can see his girl
with temporary curls,
Her doorbell fetching maid,
pour fêtes a la piscine

but she’s working, changing the bedpans
in cities where none but daughters roam
Stretchers fill ev'ry cathedral
tarpaulins drip from each broken dome


CHORUS 2

“You've got Radium eyes”

SOLO

(Day meets night in your eyes)


CHORUS 3

“Oh, you've got Radium eyes”
comments
print report bad tab
I want to post or [tab]
guest
You may want to rate the tab now too:
select rating
Please do not post tabs as comments. Select "correction" instead!