Oops, an error
Loading. Please wait.

Goodbye Megaton Tab

4,275 views 6 this week
no commentswrite comment
1 2 3 4 5
accurate
x 3
Autoscroll
+/-
esc
set tempo
stop
Contributor
WARNING: You are trying to view
                                    content from Ultimate-Guitar.com
                                    in an unauthorized application,
                                    which is prohibited.

                                    Please use an official Ultimate
                                    Guitar Tabs application for iPhone,
                                    iPad or Android to access legitimate
                                    chords, guitar, bass, and drum tabs
                                    from Ultimate-Guitar.com database.

                                    Type "ultimate guitar tabs" in Apple
                                    App Store's or Android Market's
                                    search to find the application.
Drop C. 
If you want me to seperate the guitars like I did with some of my other tabs, let me know...
I tried to get the timings for the tab right, but I don't really know how.
I think the dischords at 0:00-0:02 and 0:13-0:15 etc. are played by Guitar 1 live.
I don't know what effects are used, if you'd like you can tell me and I'll put it in this info.
Video of me playing it:

Lead (Guitar 1):
http://www.youtube.com/watch?v=TBwrf4l_rnc

Rhythm and Harmony (Guitar 2/3):
http://www.youtube.com/watch?v=mPD5yR8__lw

Guitar 1 - Lead guitar.
Guitar 2 - Rhythm guitar.
Guitar 3 - Extra/Harmony.

Guitar 1
|-------------------------------|
|-------------------------------|
|-151515151515-141414141414-----|
|--x-x-x-x-x-x--x-x-x-x-x-x-----|
|-131313131313-121212121212-----|
|---------------------------13\-|
|  b b b b b b  b b b b b b (slight bend and back)
|Guitar 2
|-----------------------------|
|-----------------------------|
|-----------------------------|
|-121212121212--0-0-0-0-0-----|
|-121212121212--0-0-0-0-0-----|
|-121212121212--0-0-0-0-0-13\-|
|
|Guitar 3
|---------------------------|
|-111111111111--------------|
|-141414141414--------------|
|---------------------------|
|--------------131313131313-|
|---------------------------|
                b b b b b b (slight bend and back)

|Guitar 1
|------------------------------------------------|
|------------------------------------------------|
|------------------------------------------------|
|------------------------------0~----------------|
|------------------------------0~----*Pick-----*-|
|-0-0-0-0-0000--0-0-0-0-0000---0~----*----Slide*-|
| . . . . ....          ....
|Guitar 2
|--------------------------------------------------|
|--------------------------------------------------|
|--------------------------------------------------|
|------------------------------0~------*Pick-----*-|
|------------------------------0~------*----Slide*-|
|-0-0-0-0-0000--0-0-0-0-0000---0~------------------|
  . . . . ....          ....

|Guitar 1
|------------------------------------------------------------------------------------------------|
|------------------------------------------------------------------------------------------------|
|-151515151515151515151515151515-141414141414-12\10101010-12\101010-15151515-10-141414-----------|
|--x-x-x-x-x-x-x-x-x-x-x-x-x-x-x--x-x-x-x-x-x--x--x-x-x-x--x--x-x-x--x-x-x-x--x--x-x-x------15---|
|-131313131313131313131313131313-121212121212-10\-8-8-8-8-10\-8-8-8-13131313--8-121212-12-13--13-|
|------------------------------------------------------------------------------------------------|
|  b b b b b b b b b (slight bend and return)
|Guitar 2
|-----------------------------------------------------------------------------|
|-----------------------------------------------------------------------------|
|-----------------------------------------------------------------------------|
|-121212121212121212--0-0-0-0-0-0-0-0-0--3-3-3-3-3-3-3-3-3--3-3-3-3-3-3-3-3-3-|
|-121212121212121212--0-0-0-0-0-0-0-0-0--1-1-1-1-1-1-1-1-1--3-3-3-3-3-3-3-3-3-|
|-121212121212121212--0-0-0-0-0-0-0-0-0--1-1-1-1-1-1-1-1-1--3-3-3-3-3-3-3-3-3-|
|
|Guitar 3
|---------------------------------------------|
|-111111111111111111--------------------------|
|-141414141414141414151515151515-141414141414-|
|--------------------x-x-x-x-x-x--x-x-x-x-x-x-|
|-------------------121212121212-121212121212-|
|---------------------------------------------|


|Guitar 1
|----------------------------------------------------------------------------------------|
|-------------------------------------------------------------------------------11111111-|
|-1515151515151515---------------------12\10101010-12\101010-15151515-10-141414-14141414-|
|--x-x-x-x-x-x-x-x----------------------x--x-x-x----x--x-x-x--x-x-x-x--x--x-x-x----------|
|-1313131313131313----0-0-0-0-0-0------10\-8-8-8-8-10\-8-8-8-13131313--8-121212----------|
|-----------------12/-0-0-0-0-0-0-0-0-0--------------------------------------------------|
|  b b b b b b b b    . . . . . .   .
|Guitar 2
|----------------------------------------------------------------------------|
|----------------------------------------------------------------------------|
|----------------------------------------------------------------------------|
|-1212121212121212----------------------3-3-3-3-3-3-3-3-3--3-3-3-3-3-3-3-3-3-|
|-1212121212121212----0-0-0-0-0-0-------1-1-1-1-1-1-1-1-1--3-3-3-3-3-3-3-3-3-|
|-121212121212121212/-0-0-0-0-0-0-0-0-0-1-1-1-1-1-1-1-1-1--3-3-3-3-3-3-3-3-3-|
|                     . . . . . .   .
|Guitar 3
|--------------------|
|-111111111111111111-|
|-141414141414141414-|
|--------------------|
|--------------------|
|--------------------|


|Guitar 1
|--------------------------------------------------------------------------------|
|--------------------------------------------------------------------------------|
|--------------------------------------------------------------------------------|
|--------------------------------------------------------------------------------|
|-13p12-13p12---13p12-13p12--------13p12-13p12----1111111111111111-8888-12121212-|
|------0-----0-0-----0-----12121212-----0-----0-0-1111111111111111-8888-12121212-|
|
|Guitar 2
|------------------------------------------------------------------------------------|
|------------------------------------------------------------------------------------|
|-------------------------------------------------1313131313131313-10101010----------|
|--------------------------------------------------x-x-x-x-x-x-x-x--x-x-x-x----------|
|-13p12-13p12---13p12-13p12--------13p12-13p12----1111111111111111--8-8-8-8-12121212-|
|------0-----0-0-----0-----12121212-----0-----0-0---------------------------12121212-|


|Guitar 1
|-------------------------------------------------------------------------------|
|-------------------------------------------------------------------------------|
|-------------------------------------------------------------------------------|
|-------------------------------------------------------------------------------|
|-13p12-13p12---13p12-13p12-------13p12-13p12----1111111111111111-8888-12121212-|
|------0-----0-0-----0-----12-0-12-----0-----0-0-1111111111111111-8888-12121212-|
|
|Guitar 2
|-----------------------------------------------------------------------------------|
|-----------------------------------------------------------------------------------|
|------------------------------------------------1313131313131313-10101010----------|
|-------------------------------------------------x-x-x-x-x-x-x-x--x-x-x-x----------|
|-13p12-13p12---13p12-13p12-------13p12-13p12----1111111111111111--8-8-8-8-12121212-|
|------0-----0-0-----0-----12-0-12-----0-----0-0---------------------------12121212-|


|Guitar 1
|------------------15b-|
|------------------19b-|
|----------------------|
|----------------------|
|-*Slide----*----------|
|-*-----Pick*----------|
| (Slide pick up toward the bridge)
|Guitar 2
|------------------15b-|
|------------------19b-|
|----------------------|
|----------------------|
|----------------------|
|-------------0-0-0----|
              . . .

|Guitar 1
|---------------------------------------------------------------------------|
|----------------------------------------------------------1111111111111111-|
|----------------------------------------------------------1414141414141414-|
|----------------------------------------------------------1515151515151515-|
|---------------------------------------------------------------------------|
|-12p0-0-12p0-0-0-12p0-0-12p0-0000-12p0-0-12p0-0-0--------------------------|
|      .      . .      .      ....      .        .
|Guitar 2
|-------------------------------------------------------------------|
|-------------------------------------------------------------------|
|-------------------------------------------------------------------|
|-------------------------------------------------------------------|
|--------------------------------------------------1111111111111111-|
|-12p0-0-12p0-0-0-12p0-0-12p0-0000-12p0-0-12p0-0-0-1111111111111111-|
       .      . .      .      ....      .        .

|Guitar 1
|-------------------------------|
|-------------------------------|
|---3---2---3---2---3---2-------|
|-------------------------------|
|-------------------------1---3-|
|-11--33--11--33--11--33--1---3-|
| ..  ..  ..  ..  ..  .. 
|Guitar 2
|-------------------------------|
|-------------------------------|
|---33------33------33----------|
|-------77------77------77------|
|-1---3---1---3---1---3---1---3-|
|-1---3---1---3---1---3---1---3-|


|Guitar 1
|-----------------------------13--------------|
|-1111--11--1010--10--88--8-----11-10--11--11-|
|-----10--10----10--10--10-10--------14--14---| x2
|---------------------------------------------|
|---------------------------------------------|
|---------------------------------------------|
|
|Guitar 2
|----------------------------------------|
|----------------------------------------|
|----------------------------------------| x2
|-55-5-555--33-3-333--11-1-111--11-1-111-|
|-55-5-555--33-3-333--11-1-111--11-1-111-|
|-55-5-555--33-3-333--11-1-111--11-1-111-|


|Guitar 1
|----------------------------10v-10v10v10v-13v13v13v13v-|
|-11v-11v11v11v-13v-13v13v13v---------------------------|
|-------------------------------------------------------|
|-------------------------------------------------------|
|-------------------------------------------------------|
|-------------------------------------------------------|
|
|Guitar 2
|----------------------------------------------|
|----------------------------------------------|
|----------------------------------------------|
|-55-5-555--1010-10-101010--33-3-333--33-3-333-|
|-55-5-555---8-8--8--8-8-8--11-1-111--11-1-111-|
|-55-5-555---8-8--8--8-8-8--11-1-111--11-1-111-|


|Guitar 1
|----------------------------------13---------13-|
|-1111--11--10b=r--10--88------------11-10--11---|
|-----10--10-----10--10--10-101010--------14-----|
|------------------------------------------------|
|------------------------------------------------|
|------------------------------------------------|
|
|Guitar 2
|----------------------------------------|
|----------------------------------------|
|----------------------------------------|
|-55-5-555--33-3-333--11-1-111--11-1-111-|
|-55-5-555--33-3-333--11-1-111--11-1-111-|
|-55-5-555--33-3-333--11-1-111--11-1-111-|


|Guitar 1
|-13----13----13----13----13------13----13----13----13----13------13~-------------|
|---11----11----11----11----11------11----11----11----11----11----11~-------------|
|-----14----14----14----14----14------14----14----14----14----14--14~-------------|
|---------------------------------------------------------------------------------|
|---------------------------------------------------------------------*Pick-----*-|
|---------------------------------------------------------------------*----Slide*-|
|
|Guitar 2
|---------------------------------------------------------------------------------|
|---------------------------------------------------------------------------------|
|---------------------------------------------------------------------------------|
|-1-1-1-1-1-1-1-1-1-1-1-1-1-1-----1-1-1-1-1-1-1-1-1-1-1-1-1-1------3~~~~~~~~~~~~~-|
|-1-1-1-1-1-1-1-1-1-1-1-1-1-1-----1-1-1-1-1-1-1-1-1-1-1-1-1-1------1~~~~~~~~~~~~~-|
|-1-1-1-1-1-1-1-1-1-1-1-1-1-1-----1-1-1-1-1-1-1-1-1-1-1-1-1-1------1~~~~~~~~~~~~~-|


|Guitar 1
|-13-----13-----13-----13-----13--13-----13-----13-----13-----13---------|
|---11-10--11-10--11-10--11-10--11--11-10--11-10--11-10--11-10--11-10-11-|
|------------------------------------------------------------------------|
|------------------------------------------------------------------------|
|------------------------------------------------------------------------|
|------------------------------------------------------------------------|
|  . .  .   .  .   .  .   .  .   .   .  .   .  .   .  .   .  .   .  .  .
|Guitar 2
|------------------------------------------------------------------------|
|------------------------------------------------------------------------|
|-10-----10-----10-----10-----10--10-----10-----10-----10-----10---------|
|---10-8---10-8---10-8---10-8---10--10-8---10-8---10-8---10-8---10-8--10-|
|------------------------------------------------------------------------|
|------------------------------------------------------------------------|
   . . .  . . .  . . .  . . .  . . . . .  . . .  . . .  . . .  . . .   .

|Guitar 1
|-----------------13-13----------------13-13----------------13-13----------------13-13-|
|---------11-11-11----------------11-11-------------11-11-11----------------11-11------|
|-12-12-12-------------12-12-12-12----------14-14-14-------------14-14-14-14-----------|
|--------------------------------------------------------------------------------------|
|--------------------------------------------------------------------------------------|
|--------------------------------------------------------------------------------------|
|  .  .  . .  .  .      .  .  .  . .  .      .  .  . .  .  .      .  .  .  . .  .
|Guitar 2
|--------------------------------------------------------------------------------------|
|--------------------------------------------------------------------------------------|
|-----------------10-10----------------10-10----------------10-10----------------10-10-|
|-8--8--8-10-10-10-----8--8--8--8-10-10-----7--7--7--8--8--8------7--7--7--7-8--8------|
|--------------------------------------------------------------------------------------|
|--------------------------------------------------------------------------------------|
  .  .  .  .  .  . .  ..  .  .  .  .  . .  ..  .  .  .  .  . .  . .  .  .  . .  . .  .

|Guitar 1
|-13-----13-----13-----13-----13--13-----13-----13-----13-----13---------|
|---11-10--11-10--11-10--11-10--11--11-10--11-10--11-10--11-10--11-10-11-|
|------------------------------------------------------------------------|
|------------------------------------------------------------------------|
|------------------------------------------------------------------------|
|------------------------------------------------------------------------|
|  . .  .   .  .   .  .   .  .   .   .  .   .  .   .  .   .  .   .  .  .
|Guitar 2
|------------------------------------------------------------------------|
|------------------------------------------------------------------------|
|-10-----10-----10-----10-----10--10-----10-----10-----10-----10---------|
|---10-8---10-8---10-8---10-8---10--10-8---10-8---10-8---10-8---10-8--10-|
|------------------------------------------------------------------------|
|------------------------------------------------------------------------|
|  . . .  . . .  . . .  . . .  . . . . .  . . .  . . .  . . .  . . .   .
|Guitar 3
|---------------------------------------------------------------|
|--------15------------15----------------15------------15-------|
|----------19------------19-15-------------19------------19-15--|
|---------------------------------------------------------------|
|---------------------------------------------------------------|
|---------------------------------------------------------------|

|Guitar 1
|-----------------13-13----------------13-13----------------13-13----------------13-13-|
|---------11-11-11----------------11-11-------------11-11-11----------------11-11------|
|-12-12-12-------------12-12-12-12----------14-14-14-------------14-14-14-14-----------|
|--------------------------------------------------------------------------------------|
|--------------------------------------------------------------------------------------|
|--------------------------------------------------------------------------------------|
|  .  .  . .  .  .      .  .  .  . .  .      .  .  . .  .  .      .  .  .  . .  .
|Guitar 2
|--------------------------------------------------------------------------------------|
|--------------------------------------------------------------------------------------|
|-----------------10-10----------------10-10----------------10-10----------------10-10-|
|-8--8--8-10-10-10-----8--8--8--8-10-10-----7--7--7--8--8--8------7--7--7--7-8--8------|
|--------------------------------------------------------------------------------------|
|--------------------------------------------------------------------------------------|
  .  .  .  .  .  . .  ..  .  .  .  .  . .  ..  .  .  .  .  . .  . .  .  .  . .  . .  .

|Guitar 1
|--------------------------------------------------------------|
|-11---11--11-11-11-11--11--11--11--11--11-11-11-11--11--11-11-|
|--------------------------------------------------------------|
|--------------------------------------------------------------|
|--------------------------------------------------------------|
|--------------------------------------------------------------|
|
|Guitar 2
|-----------------------------------------------------------|
|-11----10----11----10--11--11----10----11----10--11--------|
|---10-8--10-8--10-8--10--10--10-8--10-8--10-8--10--10-8-10-|
|-----------------------------------------------------------|
|-----------------------------------------------------------|
|-----------------------------------------------------------|
     . .   . .   . .   .   .   . .   . .   . .   .   . .  .

|Guitar 1
|-13-----13-----13-----13-----13--13-----13-----13-----13-----13---------|
|---11-10--11-10--11-10--11-10--11--11-10--11-10--11-10--11-10--11-10-11-|
|------------------------------------------------------------------------|
|------------------------------------------------------------------------|
|------------------------------------------------------------------------|
|------------------------------------------------------------------------|
|  . .  .   .  .   .  .   .  .   .   .  .   .  .   .  .   .  .   .  .  .
|Guitar 2
|------------------------------------------------------------------------|
|------------------------------------------------------------------------|
|-10-----10-----10-----10-----10--10-----10-----10-----10-----10---------|
|---10-8---10-8---10-8---10-8---10--10-8---10-8---10-8---10-8---10-8--10-|
|------------------------------------------------------------------------|
|------------------------------------------------------------------------|
   . . .  . . .  . . .  . . .  . . . . .  . . .  . . .  . . .  . . .   .

|Guitar 1
|-----------------13-13----------------13-13---------------------------|
|---------11-11-11----------------11-11-----11-11-11-11---11--11--11---|
|-12-12-12-------------12-12-12-12----------14-14-14-14-14--14--14--14-|
|----------------------------------------------------------------------|
|----------------------------------------------------------------------|
|----------------------------------------------------------------------|
|  .  .  . .  .  .      .  .  .  . .  .      
|Guitar 2
|-----------------------------------------------------------------------|
|-------------------------------------------10-10-10-10-----------------|
|-----------------10-10----------------10-1010-10-10-10-----------------|
|-8--8--8-10-10-10-----8--8--8--8-10-10------8--8--8--8-*--Pick-------*-|
|-------------------------------------------------------*------Slide--*-|
|-----------------------------------------------------------------------|
  .  .  .  .  .  . .  ..  .  .  .  .  . 

|Guitar 1
|----------------------------------------------------------|
|----------------------------------------------------------|
|----10----10-10-----10----10-10---------------------------|
|-8p7---8p7-------8p7---8p7-------8p7--8p7-----8p7--8p7----|
|------------------------------------6----6-6-----8----8-8-|
|----------------------------------------------------------|
|
|Guitar 2
|------------------------------------------------------------|
|------------------------------------------------------------|
|------------------------------------------------------------|
|-5-5-5-5-5-5--5--3-3-3-3-3-3--3--1-11-1-11-1--33333-7-7-7h8-|
|-5-5-5-5-5-5--5--3-3-3-3-3-3--3--1-11-1-11-1--33333---------|
|-5-5-5-5-5-5--5--3-3-3-3-3-3--3--1-11-1-11-1--33333---------|
                                                     . . . .

|Guitar 1
|--------------------------------------------------------------------------|
|--------------------------------------------------------------------------|
|----10----10-10-----10----10-10-------------------------------------------|
|-8p7---8p7-------8p7---8p7-------8p7-----8p7--------7h8-----7h8-----------|
|--------------------------------------6-------6--6------8--------8-8-8----|
|-----------------------------------------------------------------------8\-|
|
|Guitar 2
|--------------------------------------------------------------------------|
|-----8-----8--8--------------------10-11---10-11-11---11-10---11-10-------|
|--------------------10----10-10--10------10---------10------10------------|
|-8p7---8p7-------8p7---8p7------------------------------------------------|
|--------------------------------------------------------------------------|
|-----------------------------------------------------------------------8\-|


|Guitar 1
|--------------------------------------------------------------------------------|
|--------------------------------------------------------------------------------|
|--------------------------------------------------------------------------------|
|--------------------------------------------------------------------------------|
|-13p12-13p12---13p12-13p12--------13p12-13p12----1111111111111111-8888-12121212-|
|------0-----0-0-----0-----12121212-----0-----0-0-1111111111111111-8888-12121212-|
|
|Guitar 2
|-------------------------------------------------------------------------------------|
|-------------------------------------------------------------------------------------|
|-------------------------------------------------1313131313131313-10101010-----------|
|--------------------------------------------------x-x-x-x-x-x-x-x--x-x-x-x-----------|
|-13p12-13p12---13p12-13p12--------13p12-13p12----1111111111111111--8-8-8-8-12121212/-|
|------0-----0-0-----0-----12121212-----0-----0-0---------------------------12121212/-|


|Guitar 1
|-------------------------------------------------------------------------------|
|-------------------------------------------------------------------------------|
|-------------------------------------------------------------------------------|
|-------------------------------------------------------------------------------|
|-13p12-13p12---13p12-13p12-------13p12-13p12----1111111111111111-8888-12121212-|
|------0-----0-0-----0-----12-0-12-----0-----0-0-1111111111111111-8888-12121212-|
|
|Guitar 2
|-----------------------------------------------------------------------------------|
|-----------------------------------------------------------------------------------|
|------------------------------------------------1313131313131313-10101010----------|
|-------------------------------------------------x-x-x-x-x-x-x-x--x-x-x-x----------|
|-------13p12---13p12-13p12-------13p12-13p12----1111111111111111--8-8-8-8-12121212-|
|------------0-0-----0-----12-0-12-----0-----0-0---------------------------12121212-|


|Guitar 1
|-----------------------------------------------------------------------------------------------|
|--------------------------------------------------------------------------------------11111111-|
|-151515151515151515151515151515-141414141414-12\10101010-12\101010-15151515-10-141414-14141414-|
|--x-x-x-x-x-x-x-x-x-x-x-x-x-x-x--x-x-x-x-x-x--x--x-x-x-x--x--x-x-x--x-x-x-x--x--x-x-x----------|
|-131313131313131313131313131313-121212121212-10\-8-8-8-8-10\-8-8-8-13131313--8-121212----------|
|-----------------------------------------------------------------------------------------------|
|  b b b b b b b b b (slight bend and return)
|Guitar 2
|-----------------------------------------------------------------------------|
|-----------------------------------------------------------------------------|
|-----------------------------------------------------------------------------|
|-121212121212121212--0-0-0-0-0-0-0-0-0--3-3-3-3-3-3-3-3-3--3-3-3-3-3-3-3-3-3-|
|-121212121212121212--0-0-0-0-0-0-0-0-0--1-1-1-1-1-1-1-1-1--3-3-3-3-3-3-3-3-3-|
|-121212121212121212--0-0-0-0-0-0-0-0-0--1-1-1-1-1-1-1-1-1--3-3-3-3-3-3-3-3-3-|
|
|Guitar 3
|---------------------------------------------|
|-111111111111111111--------------------------|
|-141414141414141414151515151515-141414141414-|
|--------------------x-x-x-x-x-x--x-x-x-x-x-x-|
|-------------------121212121212-121212121212-|
|---------------------------------------------|


|Guitar 1
|------------------------------------------------------------------------------------------|
|------------------------------------------------------------------------------------------|
|-151515151515151515151515151515-141414141414-12\10101010-12\101010--12\10101010-12\101010-|
|--x-x-x-x-x-x-x-x-x-x-x-x-x-x-x--x-x-x-x-x-x--x--x-x-x-x--x--x-x-x---x--x-x-x-x--x--x-x-X-|
|-131313131313131313131313131313-121212121212-10\-8-8-8-8-10\-8-8-8--10\-8-8-8-8-10\-8-8-8-|
|------------------------------------------------------------------------------------------|
|  b b b b b b b b b (slight bend and return)
|Guitar 2
|------------------------------------------------------------------------------------------|
|------------------------------------------------------------------------------------------|
|------------------------------------------------------------------------------------------|
|-121212121212121212--0-0-0-0-0-0-0-0-0-0-0-0--1--3-3-3-3--1--3-3-3---1--3-3-3-3--1--3-3-3-|
|-121212121212121212--0-0-0-0-0-0-0-0-0-0-0-0--1--1-1-1-1--1--1-1-1---1--1-1-1-1--1--1-1-1-|
|-121212121212121212--0-0-0-0-0-0-0-0-0-0-0-0--1--1-1-1-1--1--1-1-1---1--1-1-1-1--1--1-1-1-|
|                     . . . . . . . . . . . .
|Guitar 3
|------------------------------------------------------------------------------------------|
|-111111111111111111-----------------------------------------------------------------------|
|-141414141414141414-----------------------------------------------------------------------|
|------------------------------------------------------------------------------------------|
|------------------------------------------------------------------------------------------|
|-----------------------------3\--/12\-----------------------------------------------------|


|Guitar 1
|-----------------------------------------------------|
|-----------------------------------------------------|
|-1515-151515-1515-15151515---14-14-14-14-14-14-14-14-|
|--x-x--x-x-x--x-x--x-x-x-x----x--x--x--x--x--x--x--x-|
|-1313-131313-1313-13131313---12-12-12-12-12-12-12-12-|
|-----------------------------------------------------|
|                              b  b  b  b  b  b  b  b (slight bend and return)
|Guitar 2
|-----------------------------------------------------|
|-----------------------------------------------------|
|-----------------------------------------------------|
|--3-3--3-3-3--3-3--3-3-3-3----3--3--3--3--3--3--3--3-|
|--1-1--1-1-1--1-1--1-1-1-1----1--1--1--1--1--1--1--1-|
|--1-1--1-1-1--1-1--1-1-1-1----1--1--1--1--1--1--1--1-|


|Guitar 1
|------------------------------------------|
|------------------------------------------|
|-----14141414-----14141414-----1414-14-14-|
|------x-x-x-x------x-x-x-x------x-x--x--x-|
|-----12121212-----12121212-----1212-12-12-|
|-0000---------0000---------0000----0--0---|
| ....         ....         ....    .  .
|Guitar 2
|------------------------------------------|
|------------------------------------------|
|-----14141414-----------------------------|
|------x-x-x-x-----15151515-----1515-15-15-|
|-----12121212-----13131313-----1313-13-13-|
|-0000---------0000---------0000----0--0---|
| ....         ....         ....    .  .


|Guitar 1
|------------------------------------------|
|------------------------------------------|
|-----14141414-----14141414-----1414-14-14-|
|------x-x-x-x------x-x-x-x------x-x--x--x-|
|-----12121212-----12121212-----1212-12-12-|
|-0000---------0000---------0000----0--0---|
| ....         ....         ....    .  .
|Guitar 2
|------------------------------------------|
|------------------------------------------|
|-----14141414-----------------------------|
|------x-x-x-x-----15151515-----1515-15-15-|
|-----12121212-----13131313-----1313-13-13-|
|-0000---------0000---------0000----0--0---|
| ....         ....         ....    .  .
|Guitar 3
|---------------------------------------[2]-----|
|----------------------------------------[2]----|
|-----------------------------------------[2]---|
|------------------------------------------[2]--|
|-------------------------------------------[2]-|
|-----------------------------------------------|


|Guitar 1
|------------------------------------------|
|------------------------------------------|
|-----14141414-----14141414-----1414-14-14-|
|------x-x-x-x------x-x-x-x------x-x--x--x-|
|-----12121212-----12121212-----1212-12-12-|
|-0000---------0000---------0000----0--0---|
| ....         ....         ....    .  .
|Guitar 2
|------------------------------------------|
|------------------------------------------|
|-----14141414-----------------------------|
|------x-x-x-x-----15151515-----1515-15-15-|
|-----12121212-----13131313-----1313-13-13-|
|-0000---------0000---------0000----0--0---|
| ....         ....         ....    .  .
|
|Guitar 3
|------------------------------------------|
|------------------------------------------|
|-----14141414-----14141414-----1414-14-14-|
|------x-x-x-x------x-x-x-x------x-x--x--x-|
|-----12121212-----12121212-----1212-12-12-|
|-0000---------0000---------0000----0--0---|
  ....         ....         ....    .  .

|Guitar 1
|------------------------------------|
|------------------------------------|
|------------------------------------|
|------------------------------------|
|------------------------------8-11\-|
|-00---00---0000---0-00-000000-8-11\-|
  ..   ..   ....   . .. ......

|Guitar 1
|-------------------------------|
|-------------------------------|
|-------------------------------|
|-------------------------------|
|-------------------------------|
|-0000--0000000-00-00-0-00-00-0-|
| ....  ....... .. ..   .. .. 
|
|Guitar 2
|-------------------------------|
|-------------------------------|
|-------------------------------|
|-------------------------------|
|-------------------------------|
|-0000--0000000-00-00-0-00-00-0-|
  ....  ....... .. ..   .. .. 

|Guitar 1
|-------------------------------|
|-------------------------------|
|-------------------------------|
|-------------------------------|
|-------------------------------|
|-0000--0000000-00-00-0---------|
| ....  ....... .. ..   
|
|Guitar 2
|-------------------------------|
|-------------------------------|
|-------------------------------|
|-------------------------------|
|-------------------------------|
|-0000--0000000-00-00-0-00-00-0-|
  ....  ....... .. ..   .. .. 

|Guitar 1
|-----------------------------------|
|-----------------------------------|
|-----------------------------------| x2
|-----------------------------------|
|-----------------------------------|
|-00-00-00-00-0-00-00-00-00-00-00-0-|
| .. .. .. .. . .. .. .. .. .. ..
|Guitar 2
|-----------------------------------|
|-----------------------------------|
|-----------------------------------| x2
|-----------------------------------|
|-----------------------------------|
|-00-00-00-00-0-00-00-00-00-00-00-0-|
  .. .. .. .. . .. .. .. .. .. ..

|Guitar 1
|------------------------------------------|
|------------------------------------------|
|-----14141414-----14141414-----1414-14-14-|
|------x-x-x-x------x-x-x-x------x-x--x--x-|
|-----12121212-----12121212-----1212-12-12-|
|-0000---------0000---------0000----0--0---|
| ....         ....         ....    .  .
|Guitar 2
|------------------------------------------|
|------------------------------------------|
|-----14141414-----------------------------|
|------x-x-x-x-----15151515-----1515-15-15-|
|-----12121212-----13131313-----1313-13-13-|
|-0000---------0000---------0000----0--0---|
  ....         ....         ....    .  .

|Guitar 1
|----------------------------------------------|
|----------------------------------------------|
|-----14141414-----14141414-----1414-----------|
|------x-x-x-x------x-x-x-x------x-x-----------|
|-----12121212-----12121212-----1212-----------|
|-0000---------0000---------0000----00-000-00~-|
| ....         ....         ....    .. ... ..
|Guitar 2
|----------------------------------------------|
|----------------------------------------------|
|-----14141414---------------------------------|
|------x-x-x-x-----15151515-----1515-----------|
|-----12121212-----13131313-----1313-----------|
|-0000---------0000---------0000----00-000-00~-|
| ....         ....         ....    .. ... ..
|
|Guitar 3
|----------------------------------------------|
|----------------------------------------------|
|-----14141414-----14141414-----1414-----------|
|------x-x-x-x------x-x-x-x------x-x-----------|
|-----12121212-----12121212-----1212-----------|
|-0000---------0000---------0000----00-000-00~-|
  ....         ....         ....    .. ... ..


Key:

b = Bend
r = Release Bend
. = Palm Mute
~ = Let Ring
v = Vibrato
P = Pull Off
H = Hammer On
[] = Harmonic
comments
We did not receive enough feedback on this tab! Please rate:
print report bad tab
1 2 3 4 5
I want to post or [tab]
guest
You may want to rate the tab now too:
select rating
Please do not post tabs as comments. Select "correction" instead!