Oops, an error
Loading. Please wait.

You Think Youre John Fucking Locke Tab

ver1
ver1

Whole song

Interactive

More versions @911Tabs.com
2,216 views 21 this week
no commentswrite comment
1 2 3 4 5
excellent!
x 1
add to favorites launch autoscroll
font size
0
reset
Autoscroll
+/-
esc
set tempo
stop
Contributor
Difficulty
Tuning
intermediate
C G C F A D
WARNING: You are trying to view
                                    content from Ultimate-Guitar.com
                                    in an unauthorized application,
                                    which is prohibited.

                                    Please use an official Ultimate
                                    Guitar Tabs application for iPhone,
                                    iPad or Android to access legitimate
                                    chords, guitar, bass, and drum tabs
                                    from Ultimate-Guitar.com database.

                                    Type "ultimate guitar tabs" in Apple
                                    App Store's or Android Market's
                                    search to find the application.
*****SCROLL TO BOTTOM FOR DURATION AND TABLATURE LEGEND*****                    


(You Think You're) John Fucking Locke                       


                                                                    Counterparts
GUITAR 1 - Alex
     <                        PM PM PM PM            
     W                   Q    S  S  S  S  Q    Q     
D||--3----------------|--3----------------3----3----|
A||--x----------------|--x----------------x----x----|
F||--5----------------|--5----------------5----5----|
C||--5----------------|--5----x--x--x--x--5----5----|
G||--0----------------|--0----0--0--0--0--0----0----|
C||-------------------|-----------------------------|
 
 
  PM    PM                                                                   
  E  E  E  E   E   E  Q       H        E  E  E  E     E  Q    Q    E  E  E   
---------------------------|-----------------------|------------------------|
-----------5h--6p--5-------|-----------8--L--L--L--|------------------------|
-----7----------------5----|--L--------------------|------------------------|
--7-----7------------------|-----------------------|--5--5----5----5--5--5--|
---------------------------|-----------------------|--3--3----3----3--3--3--|
---------------------------|-----------------------|--3--3----3----3--3--3--|
 
 
                                   PM      PM      PM      
  E  Q    Q    E  E  E     E   E   E   E   E   E   E   E   
------------------------|---------------------------------|
------------------------|---------------------------------|
------------------------|---------------------------------|
--5--5----5----5--5--5--|--9--10--------------------------|
--3--3----3----3--3--3--|----------x--10------------------|
--3--3----3----3--3--3--|------------------x--10---x--10--|
 
 
  PM     PM                                                      
  E   E  E   E  E   E   E   E     E   E   E  E   E   E  E   E    
-------------------------------|--------------------------------|
-------------------12--12--12--|--------------------------------|
-------------------12--12--12--|---------12---------12--7S--9S--|
-------------------10--10--10--|--9--10------9--10--------------|
----------------x--------------|--------------------------------|
--x--12--x--14--x--------------|--------------------------------|
 
 
          T       T       T                 PM      PM     PM     
  E   E   E   E   E   E   E   E     E   E   E   E   E   E  E  E   
---------------------------------|-------------------------------|
---------------------------------|-------------------------------|
--7S--9--17p--9--16p--9--19p--9--|-------------------------------|
---------------------------------|--9--10------------------------|
---------------------------------|----------x--10----------------|
---------------------------------|------------------x--10--x--7--|
 
 
   PM     PM                                              
   E  E   E   E  E  E   E    E     E  Q    Q    E  E  E   
--------------------------------|------------------------|
--------------------------------|------------------------|
--------------------------------|------------------------|
--------------------------------|--5--5----5----5--5--5--|
-----------------x--7h--8h--10--|--3--3----3----3--3--3--|
---x--9---x--10--x--------------|--3--3----3----3--3--3--|
 
 
  E  Q    Q    E  E  E      H        H            E   Q     Q     E  S S S S  
------------------------|---------------------|---0---0-----0-----0----------|
------------------------|---------------------|--13--13----13----13----------|
--4--4----4----4--4--4--|---------------------|--10--10----10----10----------|
--5--5----5----5--5--5--|--10--------5--------|------------------------------|
--3--3----3----3--3--3--|---7--------3--------|------------------------------|
--3--3----3----3--3--3--|---7--------2--------|------------------------------|
 
 
     E   Q     Q     E  S S S S        E   Q     Q     E  S S S S  
|----0---0-----0-----0--x-x-x-x---||--17--17----17----17--x-x-x-x-|
|---13--13----13----13--x-x-x-x---||--13--13----13----13--x-x-x-x-|
|*--10--10----10----10--x-x-x-x-*-||----------------------x-x-x-x-|
|*------------------------------*-||------------------------------|
|---------------------------------||------------------------------|
|---------------------------------||------------------------------|
 
 
                              PM      PM          PM  PM      
   Q.       Q.       Q        E   E   E   E   E   E   E   E   
--13-------13-------13----|--------------10------------------|
--17b------17b------17----|------13----------13----------13--|
--------------------------|--10------10----------10--10------|
--------------------------|----------------------------------|
--------------------------|----------------------------------|
--------------------------|----------------------------------|
 
 
   PM      PM             PM  PM                                     
              |---3---|                                              
   E   E   E  E   E   E   E   E   E      E   Q     Q     E  S S S S  
--------------0h--8p--0--------------|--17--17----17----17--x-x-x-x-|
------13-------------------------13--|--13--13----13----13--x-x-x-x-|
--10------10-------------10--10------|--14--14----14----14--x-x-x-x-|
-------------------------------------|------------------------------|
-------------------------------------|------------------------------|
-------------------------------------|------------------------------|
 
 
   |-----3-----|                  |----3----|               
   Q     Q     Q     H            Q    Q    Q    Q    Q     
--20----20----20----20\--------|---------------------------|
-------------------------------|---------------------------|
-------------------------------|---------------------------|
-------------------------------|--5----5----5----5---------|
-------------------------------|--3----3----3----3---------|
-------------------------------|--3----3----3----3---------|
 
 
           |----3----|                            
  H        Q    Q    Q       Q    Q    Q    Q     
--------------------------|----------------------|
--------------------------|----------------------|
--------------------------|----------------------|
-----------5----5----5----|--5---------5----L----|
-----------3----3----3----|--3---------3----L----|
-----------3----3----3----|--3---------3----L----|
 
 
   |-----3-----|    |----3----|                            
   Q     Q     Q    Q    Q    Q       Q    Q    Q    Q     
-----------------------------------|----------------------|
-----------------------------------|----------------------|
-----------------------------------|----------------------|
--10----10----10----5----5----5----|----------------------|
---7-----7-----7----3----3----3----|----------------------|
---7-----7-----7----3----3----3----|----------------------|
 
 
  |----3----|                                                            
  Q    Q    Q    Q    Q       Q    Q    Q    Q        H        H         
---------------------------|----------------------|---------------------|
---------------------------|----------------------|---------------------|
---------------------------|----------------------|---------------------|
--5----5----5----5---------|------------5---------|--10--------5--------|
--3----3----3----3---------|------------3---------|---7--------3--------|
--3----3----3----3---------|------------3---------|---7--------2--------|
 
 
  |----3----|                          |----3----|                            
  Q    Q    Q    Q    Q       H        Q    Q    Q       Q    Q    Q    Q     
---------------------------|--------------------------|----------------------|
---------------------------|--------------------------|----------------------|
---------------------------|--------------------------|----------------------|
--0----0----0----0---------|-----------0----0----0----|------------0---------|
--0----0----0----0---------|-----------0----0----0----|------------0---------|
--0----0----0----0---------|-----------0----0----0----|------------0---------|
 
 
  W                   W                   W                   W                 
--3----------------|--L----------------|--L----------------|--L----------------|
--0----------------|--L----------------|--L----------------|--L----------------|
--5----------------|--L----------------|--L----------------|--L----------------|
--3----------------|--L----------------|--L----------------|--L----------------|
--3----------------|--L----------------|--L----------------|--L----------------|
--3----------------|--L----------------|--L----------------|--L----------------|
 
 
  Q    Q    Q    Q       E  Q    Q    E  E  E     E  Q    Q    E  E  E   
------------3---------|------------------------|------------------------|
-----------------0----|------------------------|------------------------|
----------------------|------------------------|------------------------|
--5-------------------|--5--5----5----5--5--5--|--5--5----5----5--5--5--|
--3-------------------|--3--3----3----3--3--3--|--3--3----3----3--3--3--|
--2-------------------|--3--3----3----3--3--3--|--3--3----3----3--3--3--|
 
 
                      PM PM PM PM                         PM PM PM PM 
   E   Q     Q     E  S  S  S  S      E   Q     Q     E   S  S  S  S  
----------------------------------|----------------------------------|
----------------------------------|----------------------------------|
----------------------------------|---7---7-----7-----7--------------|
--10--10----10----10--------------|---7---7-----7-----7---7--7--7--7-|
---7---7-----7-----7--7--7--7--7--|--10--10----10----10--10-10-10-10-|
---7---7-----7-----7--7--7--7--7--|----------------------------------|
 
 
  E  Q    Q    E  E  E     E  Q    Q    E  E  E   
------------------------|------------------------|
------------------------|------------------------|
------------------------|------------------------|
--7--5----5----5--5--5--|--7--5----5----5--5--5--|
--3--3----3----3--3--3--|--3--3----3----3--3--3--|
--3--3----3----3--3--3--|--3--3----3----3--3--3--|
 
 
                                         PM         PM          
   E   Q     Q     E   E   E      E   E  E   E   E  E   E   E   
------------------------------|--15---------10---------12------|
------------------------------|------13---------13---------13--|
------------------------------|----------0----------0----------|
--10--10----10----10--10--10--|--------------------------------|
---7---7-----7-----7---7---7--|--------------------------------|
---7---7-----7-----7---7---7--|--------------------------------|
 
 
                PM PM PM PM                  PM PM PM PM  
  Q.     Q.     S  S  S  S     Q.     Q.     S  S  S  S   
----------------------------|----------------------------|
----------------------------|----------------------------|
----------------------------|----------------------------|
--7------5------------------|--7------5------------------|
--3------3------3--3--3--3--|--3------3------3--3--3--3--|
--3------3------3--3--3--3--|--3------3------3--3--3--3--|
 
 
   Q.     Q.      Q         Q.     Q.      Q       E  Q    Q    E  E  E   
------------------------|-----------------------|------------------------|
------------------------|-----------------------|------------------------|
----------0-------------|----------0------------|------------------------|
--10-------------10S----|--12-------------12----|--7--5----5----5--5--5--|
---0------L-------L-----|--10------L-------L----|--3--3----3----3--3--3--|
------------------------|-----------------------|--3--3----3----3--3--3--|
 
 
  E  Q    Q    E  E  E      E   Q     Q     E   E   E   
------------------------|------------------------------|
------------------------|------------------------------|
------------------------|------------------------------|
--7--5----5----5--5--5--|--10--10----10----10--10--10--|
--3--3----3----3--3--3--|---7---7-----7-----7---7---7--|
--3--3----3----3--3--3--|---7---7-----7-----7---7---7--|
 
 
      PM PM PM  PM                    PM PM PM    PM       
   E  E  E  E   E  E   E  E     E  E  E  E  E  E  E  S  S  
-----------------------------|----------------------------|
-----------------------------|----------------------------|
-------------------7------5--|--L--5-----------5-----5S-5-|
--10--9--9--9--10-----10--2--|--L--2--2--2--2--2--2--2S-5-|
---7--5--5--5---7------------|----------------------------|
---7--5--5--5---7------------|----------------------------|
 
 
        PM PM       PM             PM PM PM       PM  
  E  E  E  E  E  E  E  E     E  E  E  E  E  E  E  E   
--------------------------|--------------------------|
--------------------------|--------------------------|
--L--5--------5--7-----5--|--L--5-----------5--------|
--L--5--5--5--5--5--5--5--|--L--5--------------5-----|
-----------------------8--|--L--8--8--8--8--------8--|
--------------------------|--------------------------|
 
 
  PM       PM                      PM PM PM    PM       
  E  E  E  E  E  E  E  E     E  E  E  E  E  E  E  S  S  
--------------------------|----------------------------|
--------------0-----------|----------------------------|
-----5-----------5-----5--|--L--5-----------5-----5S-5-|
--------5-----------5--2--|--L--2--2--2--2--2--2--2S-5-|
--8--------8--------------|----------------------------|
--------------------------|----------------------------|
 
 
        PM PM                      PM PM PM PM PM     
  E  E  E  E  E  E  E  E     E  E  E  E  E  E  E  E   
--------------------------|--------------------------|
--------------------------|-----------------------6--|
--L--5--------5--7-----5--|--L--5-----------------5--|
--L--5--5--5--5--5-----5--|--L--5-----------------5--|
-----------------------8--|--L--8--8--8--8--8--8-----|
--------------------------|--------------------------|
 
 
  PM PM PM    PM                   PM PM PM    PM       
  E  E  E  E  E  E  E  E     E  E  E  E  E  E  E  S  S  
--------------------------|----------------------------|
-----------6-----5--5-----|----------------------------|
-----------5-----5--5--5--|--L--5-----------5-----5S-5-|
-----------5-----5--5--2--|--L--2--2--2--2--2--2--2S-5-|
--8--8--8-----8-----------|----------------------------|
--------------------------|----------------------------|
 
 
        PM PM       PM             PM PM PM       PM  
  E  E  E  E  E  E  E  E     E  E  E  E  E  E  E  E   
--------------------------|--------------------------|
--------------------------|--------------------------|
--L--5--------5--7-----5--|--L--5-----------5--------|
--L--5--5--5--5--5--5--5--|--L--5--5--5--5-----5--5--|
-----------------------8--|--L--8--8--8--8--------8--|
--------------------------|--------------------------|
 
 
  PM       PM                      PM PM PM    PM       
  E  E  E  E  E  E  E  E     E  E  E  E  E  E  E  S  S  
--------------------------|----------------------------|
--------------0-----------|----------------------------|
-----5-----------5-----5--|--L--5-----------5-----5S-5-|
--5-----5--5--------5--2--|--L--2--2--2--2--2--2--2S-5-|
--8--------8--------------|----------------------------|
--------------------------|----------------------------|
 
 
        PM PM                      PM PM PM PM PM PM    PM PM PM PM            
  E  E  E  E  E  E  E  E     E  E  E  E  E  E  E  E     E  E  E  E  E  Q.      
--------------------------|--------------------------|------------------------|
--------------------------|--------------------------|------------------------|
--L--5--------5--7-----5--|--L--5--------------------|--5--5--5--5--5---------|
--L--5--5--5--5--5-----9--|--L--9-----------9--9--9--|--9--9--9--9--9---------|
-----------------------8--|--L--8--8--8--8--8--8--8--|--8--8--8--8--8---------|
--------------------------|--------------------------|------------------------|
 
 
                              PM PM    PM PM                           
  E.  E.  E  E  E     E.  E.  S  S  E  S  S  Q       E.  E.  E  E  E   
-------------------|------------------------------|-------------------|
-------------------|------------------------------|-------------------|
-------------------|------------------------------|-------------------|
-------------------|----------------7--------5----|-------------------|
--8---8---8--8-----|--8---8---------3--------2----|--8---8---8--8-----|
--7---7---5--5-----|--7---7---3--3--3--3--3--3----|--7---7---5--5-----|
 
 
          PM PM                                              
  E.  E.  S  S  E  E  E  E     S E.  E     E.  E.  E  E  E   
----------------------------|-----------|-------------------|
----------------------------|-----------|-------------------|
----------------------------|-----------|-------------------|
----------------------------|----5------|-------------------|
--8---8---------3--7--------|--------2--|--8---8---8--8-----|
--7---7---7--7--------3--3--|--L--------|--7---7---5--5-----|
 
 
                                  PM PM    PM PM                           
   E.   E.   E   E  E     E.  E.  S  S  E  S  S  Q       E.  E.  E  E  E   
-----------------------|------------------------------|-------------------|
-----------------------|------------------------------|-------------------|
--14---14---17--12-----|------------------------------|-------------------|
---x----x----x---x-----|----------------7--------5----|-------------------|
--12---12---15--10-----|--8---8---------3--------2----|--8---8---8--8-----|
-----------------------|--7---7---3--3--3--3--3--3----|--7---7---5--5-----|
 
 
          PM PM                                            PM PM     
  E.  E.  S  S  E  E  E  E     S E.  E      E.  E.  Q.     S  S  E   
----------------------------|-----------|---------------------------|
----------------------------|-----------|---------------------------|
----------------------------|-----------|---------------------------|
----------------------------|----5------|---------------------------|
--8---8---------3--7--------|--------2--|------------------0--0-----|
--7---7---7--7--------3--3--|--L--------|--/4---3---0------0--0-----|
 
 
  PM PM PM PM PM PM    PM PM   PM PM      PM PM PM PM PM PM    PM PM   PM  
  S  S  S  S  S  S  E  S  S  S S  S  S    S  S  S  S  S  S  E  S  S  S S   
---------------------------------------|----------------------------------|
---------------------------------------|----------------------------------|
---------------------------------------|----------------------------------|
---------------------------------------|----------------------------------|
--0--0--0--0--0--0-----0--0----0--0----|--0--0--0--0--0--0-----0--0----0--|
--0--0--0--0--0--0-----0--0----0--0----|--0--0--0--0--0--0-----0--0----0--|
 
 
  PM   PM PM    PM PM PM PM       PM PM PM PM PM PM    PM PM   PM PM    
  S  S S  S  E  S  S  S  S  E     S  S  S  S  S  S  E  S  S  S S  S  S  
-------------------------------|---------------------------------------|
-------------------------------|---------------------------------------|
-------------------------------|---------------------------------------|
-------------------------------|---------------------------------------|
--0----0--0-----0--0--0--0-----|--0--0--0--0--0--0-----0--0----0--0----|
--0----0--0-----0--0--0--0-----|--0--0--0--0--0--0-----0--0----0--0----|
 
 
  PM PM PM PM PM PM    PM PM   PM    PM   PM PM    PM PM PM PM PM PM  
  S  S  S  S  S  S  E  S  S  S S     S  S S  S  E  S  S  S  S  S  S   
----------------------------------|----------------------------------|
----------------------------------|----------------------------------|
----------------------------------|----------------------------------|
----------------------------------|----------------------------------|
--0--0--0--0--0--0-----0--0----0--|--0----0--0-----0--0--0--0--0--0--|
--0--0--0--0--0--0-----0--0----0--|--0----0--0-----0--0--0--0--0--0--|
 
 
  PM PM   PM PM      PM PM   PM    PM   PM PM    PM PM PM PM     
  S  S  S S  S  S E  S  S  S S     S  S S  S  E  S  S  S  S  E   
--------------------------------|-------------------------------|
--------------------------------|-------------------------------|
--------------------------------|-------------------------------|
--------------------------------|-------------------------------|
--0--0----0--0-------0--0----0--|--0----0--0-----0--0--0--0-----|
--0--0----0--0-------0--0----0--|--0----0--0-----0--0--0--0-----|
 
 
  PM PM   PM PM      PM PM   PM PM   PM PM    PM PM   PM PM      PM PM PM    
  S  S  S S  S  S E  S  S  S S  S  S S  S     S  S  S S  S  S E  S  S  S  S  
-------------------------------------------|--------------------------------|
-------------------------------------------|--------------------------------|
-------------------------------------------|--------------------------------|
-------------------------------------------|--------------------------------|
--0--0----0--0-------0--0----0--0----0--0--|--0--0----0--0-------0--0--0----|
--0--0----0--0-------0--0----0--0----0--0--|--0--0----0--0-------0--0--0----|
 
 
  PM PM PM PM PM PM     PM PM   PM PM   PM PM  
  S  S  S  S  S  S   E  S  S  S S  S  S S  S   
---------------------0------------------------|
---------------------8------------------------|
---------------------0------------------------|
--------------------10------------------------|
--0--0--0--0--0--0---8--0--0----0--0----0--0--|
--0--0--0--0--0--0------0--0----0--0----0--0--|
 
 
     PM PM         PM PM PM PM              
  E  S  S   E   E  S  S  S  S  E  E  E  E   
-------------------------------------------|
------------8---8--------------------1--0--|
------------0---0--------------2--0--2--0--|
-----------10--10--------------3--2--------|
-----0--0---8---0--0--0--0--0--------------|
-----0--0----------0--0--0--0--------------|
 
 
  W                Q.     Q.     Q     
--------------------------------------|
--------------------------------------|
--5----------------5------L------L----|
--3----------------L------3------L----|
--3----------------L------L------3----|
--3----------------L------L------L----|
 
 
     PM PM PM PM    PM PM PM PM PM    PM PM PM    PM PM PM PM             
  E  S  S  S  S  E  S  S  S  S  S  E  S  S  S  E  S  S  S  S  E.  E.  E   
--------------------------------------------------------------3----------|
------------------------------------------------------------------0------|
--5--------------5-----------------5-----------5----------------------5--|
--0--0--0--0--0--0--0--0--0--0--0--0--0--0--0--0--0--0--0--0-------------|
--x--x--x--x--x--x--x--x--x--x--x--x--x--x--x--x--x--x--x--x-------------|
--5--5--5--5--5--5--5--5--5--5--5--5--5--5--5--5--5--5--5--5-------------|
 
 
   E.   E.   E   Q        E.   E.   E   Q        E.   E.   E   Q     
----------------------|----------------------|----------------------|
---8----8----8---8----|---0----0----0---0----|---8----8----8---8----|
---0----0----0---0----|---0----0----0---0----|---0----0----0---0----|
--10---10---10--10----|--10---10---10--10----|--10---10---10--10----|
---8----8----8---8----|---8----8----8---8----|---8----8----8---8----|
----------------------|----------------------|----------------------|
 
 
   E.   E.   E   E.   E.   E      E.   E.   E   Q        E.   E.   E   Q     
------------------------------|---0----0----0---0----|--10---10---10--10----|
---0----0----0---0----0----0--|--13---13---13--13----|--13---13---13--13----|
---0----0----0---0----0----0--|--10---10---10--10----|--10---10---10--10----|
--10---10---10--10---10---10--|----------------------|----------------------|
---8----8----8---8----8----8--|----------------------|----------------------|
------------------------------|----------------------|----------------------|
 
 
   E.   E.   E   Q        E.   E.   E   E.   E.   E   
---8----8----8---8----|--15---15---15--15---15---15--|
--12---12---12--12----|--13---13---13--13---13---13--|
--10---10---10--10----|--10---10---10--10---10---10--|
----------------------|------------------------------|
----------------------|------------------------------|
----------------------|------------------------------|
 
 
   E   E   E   E  E  Q.         Q.      Q.      Q       W                 
----------------------------|------------------------|-------------------|
----------------------------|------------------------|-------------------|
---------------------0------|--17------16------12----|-------------------|
--10--10--10--10-----9------|---x-------x-------x----|-------------------|
---7---7---7---7------------|--15------14------10----|-------------------|
---7---7---7---7------------|------------------------|-------------------|
 
 
  E  Q    Q    E  E  E     E  Q    Q    E  E  E   
------------------------|------------------------|
------------------------|------------------------|
------------------------|------------------------|
--5--5----5----5--5--5--|--5--5----5----5--5--5--|
--3--3----3----3--3--3--|--3--3----3----3--3--3--|
--3--3----3----3--3--3--|--3--3----3----3--3--3--|
 
 
   E   E  E   E   E   E  E   E     E  E  E  E  E  E  E  E   
--------------------------------|--------------------------|
--------------------------------|--------------------------|
--------------------------------|--------------------------|
--10--10-----10--10--10-----10--|--5--5-----5--7--5-----5--|
---7---7------7---7---7------7--|--3--3-----------------3--|
---7---7------7---7---7------7--|--2--2-----------------2--|
 
 
   T           T           T           T           
   |---3---|   |---3---|   |---3---|   |---3---|   
   E   E   E   E   E   E   E   E   E   E   E   E   
--------------------------------------------------|
--------------------------------------------------|
--------------------------14p--5h--7--12p--5h--7--|
--------------14p--5h--7--------------------------|
--15p--5h--7--------------------------------------|
--------------------------------------------------|
 
 
          PM PM          PM PM                                          
  E    E  S  S   E    E  S  S   E  E      E   E  E   E   E   E  E   E   
--8h--10--------10h--12------------8--|--------------------------------|
--8----L--8--8---8----L--8--8--12-----|--------------------------------|
--------------------------------------|---9---9------9---9---9------9--|
--------------------------------------|--10--10-----10--10--10-----10--|
--------------------------------------|---7---7------7---7---7------7--|
--------------------------------------|---7---7------7---7---7------7--|
 
 
                        |----3----|                          |----3----|     
  E  H.           E     Q    Q    Q    Q    Q       H        Q    Q    Q     
---------------------|---------------------------|--------------------------|
---------------------|---------------------------|--------------------------|
---------------------|---------------------------|--------------------------|
--5------------------|--5----5----5----5---------|-----------5----5----5----|
--3------------------|--3----3----3----3---------|-----------3----3----3----|
--2------------------|--3----3----3----3---------|-----------3----3----3----|
 
 
                         |-----3-----|     |-----3-----|     
  Q    Q    H            Q     Q     Q     Q     Q     Q     
---------------------|--------------------------------------|
---------------------|--------------------------------------|
---------------------|--------------------------------------|
--5---------5--------|--10----10----10----12----12----12----|
--3---------3--------|---7-----7-----7----10----10----10----|
--3---------2--------|---7-----7-----7----10----10----10----|
 
 
  |----3----|                          |----3----|                           
  Q    Q    Q    Q    Q       H        Q    Q    Q       Q    Q    H         
---------------------------|--------------------------|---------------------|
---------------------------|--------------------------|---------------------|
---------------------------|--------------------------|---------------------|
--5----5----5----5---------|-----------5----5----5----|---------------------|
--3----3----3----3---------|-----------3----3----3----|---------------------|
--3----3----3----3---------|-----------3----3----3----|---------------------|
 
 
                                      |----3----|               
  Q    Q     Q       Q    H           Q    Q    Q    Q    Q     
------------------|----------------|---------------------------|
------------------|----------------|---------------------------|
------------------|----------------|---------------------------|
--5---------10----|--L----5--------|--5----5----5----5---------|
--3----------7----|--L----3--------|--3----3----3----3---------|
--3----------7----|--L----2--------|--3----3----3----3---------|
 
 
           |----3----|                           
  H        Q    Q    Q       Q    Q    H         
--------------------------|---------------------|
--------------------------|---------------------|
--------------------------|---------------------|
-----------5----5----5----|--5---------5--------|
-----------3----3----3----|--3---------3--------|
-----------3----3----3----|--3---------2--------|
 
 
   |-----3-----|     |-----3-----|       |----3----|               
   Q     Q     Q     Q     Q     Q       Q    Q    Q    Q    Q     
--------------------------------------|---------------------------|
--------------------------------------|---------------------------|
--------------------------------------|---------------------------|
--10----10----10----12----12----12----|--5----5----5----5---------|
---7-----7-----7----10----10----10----|--3----3----3----3---------|
---7-----7-----7----10----10----10----|--3----3----3----3---------|
 
 
           |----3----|                                              
  H        Q    Q    Q       Q    Q    H           Q    Q     Q     
--------------------------|---------------------|------------------|
--------------------------|---------------------|------------------|
--------------------------|---------------------|------------------|
-----------5----5----5----|---------------------|--5---------10----|
-----------3----3----3----|---------------------|--3----------7----|
-----------3----3----3----|---------------------|--3----------7----|
 
 
                   |----3----|                          |----3----|     
  Q    H           Q    Q    Q    Q    Q       H        Q    Q    Q     
----------------|---------------------------|--------------------------|
----------------|---------------------------|--------------------------|
----------------|---------------------------|--------------------------|
--L----5--------|--5----5----5----5---------|-----------5----5----5----|
--L----3--------|--3----3----3----3---------|-----------3----3----3----|
--L----2--------|--3----3----3----3---------|-----------3----3----3----|
 
 
                         |-----3-----|     |-----3-----|     
  Q    Q    H            Q     Q     Q     Q     Q     Q     
---------------------|--------------------------------------|
---------------------|--------------------------------------|
---------------------|--------------------------------------|
--5---------5--------|--10----10----10----12----12----12----|
--3---------3--------|---7-----7-----7----10----10----10----|
--3---------2--------|---7-----7-----7----10----10----10----|
 
 
  W                  
-------------------||
--0----------------||
--5----------------||
--5----------------||
--3----------------||
--3----------------||





GUITAR 2 - Jesse
     <                        PM PM PM PM                 PM PM    PM PM        
     W                   Q    S  S  S  S  Q    Q       E  E  E  E  E  E   Q     
D||--3----------------|--3--------------------------|--------------------------|
A||--x----------------|--x--------------------------|--------------------------|
F||--5----------------|--5----------------9----7----|--------------------------|
C||--5----------------|--5----x--x--x--x--x----x----|--7--------9--------10----|
G||--0----------------|--0----0--0--0--0--7----5----|--3--3--3--5--5--5---7----|
C||-------------------|-----------------------------|--3--3--3--5--5--5---7----|
 
 
  W                    E   Q     Q     E   E   E   
-------------------|------------------------------|
-------------------|------------------------------|
-------------------|--14--14----14----12---L--12--|
--L----------------|---x---x-----x-----x---L---x--|
--L----------------|--12--12----12----10---L--10--|
--L----------------|------------------------------|
 
 
                                         PM      PM     PM     
   E   Q     Q     E   E   E     E   E   E   E   E   E  E  E   
------------------------------|-------------------------------|
------------------------------|-------------------------------|
--17--17----17----12---L--12--|-------------------------------|
---x---x-----x-----x---L---x--|--9--10------------------------|
--15--15----15----10---L--10--|----------x--10----------------|
------------------------------|------------------x--10--x--7--|
 
 
  PM    PM                                              
  E  E  E   E  E  E   E    E     E  Q    Q    E  E  E   
------------------------------|------------------------|
------------------------------|------------------------|
------------------------------|------------------------|
------------------------------|--5--5----5----5--5--5--|
---------------x--7h--8h--10--|--3--3----3----3--3--3--|
--x--9--x--10--x--------------|--3--3----3----3--3--3--|
 
 
                                   PM     PM     PM      
  E  Q    Q    E  E  E     E   E   E   E  E   E  E   E   
------------------------|-------------------------------|
------------------------|-------------------------------|
------------------------|-------------------------------|
--5--5----5----5--5--5--|--9--10----------x--12--x--10--|
--3--3----3----3--3--3--|----------x--10----------------|
--3--3----3----3--3--3--|-------------------------------|
 
 
  PM    PM                                              
  E  E  E  E  E  E    E    E     E  Q    Q    E  E  E   
------------------------------|------------------------|
------------------------------|------------------------|
------------------------------|------------------------|
--x--9-----------9h--10h--12--|--5--5----5----5--5--5--|
--------x--7--x---------------|--3--3----3----3--3--3--|
--------------x---------------|--3--3----3----3--3--3--|
 
 
  E   E  E  E  S  S  E  E  E     H        H           E  Q    Q    E  S S S S  
------------------------------|--------------------|--------------------------|
------------8-----------------|--------------------|--------------------------|
---------5-----4h-5p-4--0-----|--0-----------------|--------------------------|
--5h--7--------------------2--|--3--------5--------|--5--5----5----5----------|
------------------------------|-----------3--------|--3--3----3----3----------|
------------------------------|-----------2--------|--3--3----3----3----------|
 
 
                    PM PM PM PM                           PM PM PM PM  
    E  Q    Q    E  S  S  S  S         E   Q     Q     E  S  S  S  S   
|---------------------------------||----------------------------------|
|---------------------------------||----------------------------------|
|*------------------------------*-||----------------------------------|
|*--5--5----5----5--------------*-||--10--10----10----10--------------|
|---3--3----3----3--3--3--3--3----||---7---7-----7-----7--7--7--7--7--|
|---3--3----3----3--3--3--3--3----||---7---7-----7-----7--7--7--7--7--|
 
 
                  PM PM PM PM                    PM PM PM PM  
  E  Q    Q    E  S  S  S  S     E  Q    Q    E  S  S  S  S   
------------------------------|--3--3----3----3--------------|
------------------------------|--x--x----x----x--------------|
------------------------------|--5--5----5----5--------------|
--5--5----5----5--------------|--3--3----3----3--------------|
--3--3----3----3--3--3--3--3--|--3--3----3----3--3--3--3--3--|
--2--2----2----2--2--2--2--2--|--3--3----3----3--3--3--3--3--|
 
 
                  PM PM PM PM                        PM PM PM PM  
  E  Q    Q    E  S  S  S  S      E   Q     Q     E  S  S  S  S   
--3--3----3----3--------------|----------------------------------|
--0--0----0----0--------------|----------------------------------|
--5--5----5----5--------------|---9---9-----9-----9--------------|
--3--3----3----3--------------|--10--10----10----10--------------|
--3--3----3----3--3--3--3--3--|---7---7-----7-----7--7--7--7--7--|
--3--3----3----3--3--3--3--3--|---7---7-----7-----7--7--7--7--7--|
 
 
                       |----3----|                          |----3----|     
  Q    H.              Q    Q    Q    Q    Q       H        Q    Q    Q     
--------------------|---------------------------|--------------------------|
--------------------|---------------------------|--------------------------|
--------------------|---------------------------|--------------------------|
--5-----------------|--5----5----5----5---------|-----------5----5----5----|
--3-----------------|--3----3----3----3---------|-----------3----3----3----|
--2-----------------|--3----3----3----3---------|-----------3----3----3----|
 
 
                          |-----3-----|    |----3----|     
  Q    Q    Q    Q        Q     Q     Q    Q    Q    Q     
----------------------|-----------------------------------|
----------------------|-----------------------------------|
----------------------|-----------------------------------|
--5---------5----L----|--10----10----10----5----5----5----|
--3---------3----L----|---7-----7-----7----3----3----3----|
--3---------3----L----|---7-----7-----7----3----3----3----|
 
 
                         |----3----|                                      
  Q    Q    Q    Q       Q    Q    Q    Q    Q       Q    Q    Q    Q     
----------------------|---------------------------|----------------------|
----------------------|---------------------------|----------------------|
----------------------|---------------------------|----------------------|
----------------------|--5----5----5----5---------|------------5---------|
----------------------|--3----3----3----3---------|------------3---------|
----------------------|--3----3----3----3---------|------------3---------|
 
 
                        |----3----|                          |----3----|     
   H        H           Q    Q    Q    Q    Q       H        Q    Q    Q     
---------------------|---------------------------|--------------------------|
---------------------|---------------------------|--------------------------|
---------------------|---------------------------|--------------------------|
--10--------5--------|--0----0----0----0---------|-----------0----0----0----|
---7--------3--------|--0----0----0----0---------|-----------0----0----0----|
---7--------2--------|--0----0----0----0---------|-----------0----0----0----|
 
 
  Q    Q    Q    Q       W                   W                 
----------------------|--3----------------|--L----------------|
----------------------|--1----------------|--L----------------|
----------------------|--4----------------|--L----------------|
------------0---------|--3----------------|--L----------------|
------------0---------|--3----------------|--L----------------|
------------0---------|--3----------------|--L----------------|
 
 
  Q.     Q.     Q       Q    E  E    Q    Q       Q    Q    Q    Q     
---------------------|-------------------------|----------------------|
--1------3------5----|-------------------------|----------------------|
---------------------|--4----L--Lbr--L----L----|----------------------|
---------------------|-------------------------|--5-------------------|
---------------------|-------------------------|--3-------------------|
---------------------|-------------------------|--2-------------------|
 
 
  Q.     Q.     Q       Q.     Q.     Q       Q.     Q.     Q     
---------------------|---------------------|---------3-----------|
--1------3------5----|--1------3------5----|----------------5----|
---------------------|---------------------|--4------------------|
---------------------|---------------------|---------------------|
---------------------|---------------------|---------------------|
---------------------|---------------------|---------------------|
 
 
  Q.     Q.     Q       E   E   E  Q    E   E   E   
---------8-----------|--7h--8p--7------------------|
----------------5----|-------------8---------------|
--5------------------|------------------7S--9------|
---------------------|-------------------------10--|
---------------------|-----------------------------|
---------------------|-----------------------------|
 
 
                        T          T             T       T       
  E    E   E   Q    E   E   E      E   E   Q     E   E   E   E   
--8h--10p--8--------8--15p--8--|--15p--8---8----15p--8--15p--8--|
--------------12---------------|----------12--------------------|
-------------------------------|--------------------------------|
-------------------------------|--------------------------------|
-------------------------------|--------------------------------|
-------------------------------|--------------------------------|
 
 
         T       T                                   
   Q     E   E   E   E   Q        W                  
---8----15p--8--15p--8---8----|---8-----------------|
--12--------------------12----|--12b----------------|
------------------------------|---------------------|
------------------------------|---------------------|
------------------------------|---------------------|
------------------------------|---------------------|
 
 
  E   E  E   E  E  E  E  E      Q.      Q.      Q       Q.      Q.      Q     
--L---L--8---L--L--L--8--L--|---8--------------------|--8--------------------|
--L---L--L---L--L--L--L--L--|---L------12------------|---------12------------|
----------------------------|------------------12----|-----------------12----|
----------------------------|------------------------|-----------------------|
----------------------------|------------------------|-----------------------|
----------------------------|------------------------|-----------------------|
 
 
         T        T       T          T       T       T       T       
   Q     E    E   E   E   E   E      E   E   E   E   E   E   E   E   
-------------------------15p--8--|--20p--8--19p--8--15p--8----------|
-----------------15p--8----------|--------------------------15p--8--|
--10----17p--10------------------|----------------------------------|
---------------------------------|----------------------------------|
---------------------------------|----------------------------------|
---------------------------------|----------------------------------|
 
 
   T       T         T           T                   
   Q.      Q     E   E    E      H.           E  E   
-----------------------------|----------------------|
--15------17p----8--18S--17--|--15------------L-----|
-----------------------------|-------------------5--|
-----------------------------|-------------------2--|
-----------------------------|----------------------|
-----------------------------|----------------------|
 
 
        PM PM PM    PM               PM PM       PM     
  E  E  E  E  E  E  E  S  S    E  E  E  E  E  E  E  E   
----------------------------|--------------------------|
----------------------------|--------------------------|
--L--5--5--5--5--5--5--5S-5-|--L--5--5--5--5--7-----5--|
--L--2--2--2--2--2--2--2S-5-|--L--5--5--5--5--5--5--5--|
----------------------------|-----------------------8--|
----------------------------|--------------------------|
 
 
        PM PM PM PM PM PM    PM PM PM PM PM PM PM     
  E  E  E  E  E  E  E  E     E  E  E  E  E  E  E  E   
--------------------------|--------------------------|
--------------------------|--------------------------|
--L--5--------------------|-----------------------5--|
--L--5--5--5--5--5--5--5--|--5--5--5--5--5--5--5--2--|
--L--8--8--8--8--8--8--8--|--8--8--8--8--8--8--8-----|
--------------------------|--------------------------|
 
 
        PM PM PM    PM               PM PM              
  E  E  E  E  E  E  E  S  S    E  E  E  E  E  E  E  E   
----------------------------|--------------------------|
----------------------------|--------------------------|
--L--5--5--5--5--5--5--5S-5-|--L--5--5--5--5--7-----5--|
--L--2--2--2--2--2--2--2S-5-|--L--5--5--5--5--5-----5--|
----------------------------|-----------------------8--|
----------------------------|--------------------------|
 
 
        PM PM PM PM PM PM    PM    PM PM PM            
  E  E  E  E  E  E  E  E     E  E  E  E  E  E  E   E   
--------------------------|---------------------------|
--------------------------|-----5-----------5--5------|
--L--5--------------------|-----5-----------5--5------|
--L--5--5--5--5--5--5--5--|--5--5--5--5--5--5--5--10--|
--L--8--8--8--8--8--8--8--|--8-----8--8--8---------7--|
--------------------------|------------------------7--|
 
 
         PM PM PM     PM                   PM  PM                  
  E   E  E  E  E   E  E   S   S    E   E   E   E   E   E  E    E   
--------------------------------|-------------------------8-------|
--------------------------------|---------------------12-----/20--|
--------------------------------|------------------------------x--|
--L--10-----------10-----10S-12-|--L--12----------10---------/17--|
--L---7--7--7--7---7--7---7S-10-|--L--10--10--10------------------|
--L---7--7--7--7---7--7---7S-10-|--L--10--10--10------------------|
 
 
                                       PM PM                    
  E   Q     Q     Q     E     E   Q    S  S   E    E    E   E   
---------------------------|-----------------------------------|
--L--13----15----17----15--|--L--12----------12S--13S--12------|
------x-----x-----x-----x--|------x-----------x----x----x------|
--L--10----12----14----12--|--L---9----9--9---9S--10S---9--10--|
---------------------------|--------------------------------7--|
---------------------------|--------------------------------7--|
 
 
         PM PM PM     PM                PM PM                
  E   E  E  E  E   E  E   S  S    E  E  E  E  E    E  E  E   
-------------------------------|----------------------------|
-------------------------------|----------------------------|
-------------------------------|-------------------------5--|
--L--10-----------10-----10S-9-|--L--9--------9S--10-----9--|
--L---7--7--7--7---7--7---7S-5-|--L--5--5--5-------------8--|
--L---7--7--7--7---7--7---7S-5-|--L--5--5--5----------------|
 
 
        PM PM PM PM PM PM    PM PM PM PM                                 
  E  E  E  E  E  E  E  E     E  E  E  E  E  E  Q       E.  E.  E  E  E   
--------------------------|--------------------0----|-------------------|
--------------------------|--------------------0----|-------------------|
--L--5--------------------|--5--5--5--5--5-----5----|-------------------|
--L--9-----------9--9--9--|--9--9--9--9--9----------|-------------------|
--L--8--8--8--8--8--8--8--|--8--8--8--8--8----------|--8---8---8--8-----|
--------------------------|-------------------------|--7---7---5--5-----|
 
 
          PM PM    PM PM                           
  E.  E.  S  S  E  S  S  Q       E.  E.  E  E  E   
------------------------------|-------------------|
------------------------------|-------------------|
------------------------------|-------------------|
----------------7--------5----|-------------------|
--8---8---------3--------2----|--8---8---8--8-----|
--7---7---3--3--3--3--3--3----|--7---7---5--5-----|
 
 
          PM PM                                                
  E.  E.  S  S   E   E  E  E     S E.  E     E.  E.  E  E  E   
------------------------------|-----------|-------------------|
------------------------------|-----------|-------------------|
------------------------0-----|-----------|-------------------|
--------------------10--------|----5------|-------------------|
--8---8---0--0--12------------|--------2--|--8---8---8--8-----|
--7---7--------------------3--|--L--------|--7---7---5--5-----|
 
 
                              PM PM    PM PM                           
  E.  E.  E  E  E     E.  E.  S  S  E  S  S  Q       E.  E.  E  E  E   
-------------------|------------------------------|-------------------|
-------------------|------------------------------|-------------------|
-------------------|------------------------------|-------------------|
-------------------|----------------7--------5----|-------------------|
--8---8---8--8-----|--8---8---------3--------2----|--8---8---8--8-----|
--7---7---5--5-----|--7---7---3--3--3--3--3--3----|--7---7---5--5-----|
 
 
          PM PM                                         NH     PM PM     
  E.  E.  S  S   E   E  E  E     S E.  E      E.  E.    Q.     S  S  E   
------------------------------|-----------|-----------------------------|
------------------------------|-----------|-----------------------------|
------------------------0-----|-----------|-----------------------------|
--------------------10--------|----5------|-----------------------------|
--8---8---0--0--12------------|--------2--|--------------------0--0-----|
--7---7--------------------3--|--L--------|--/4---3---<>5------0--0-----|
 
 
  PM PM PM PM PM PM    PM PM   PM PM      PM PM PM PM PM PM    PM PM   PM  
  S  S  S  S  S  S  E  S  S  S S  S  S    S  S  S  S  S  S  E  S  S  S S   
---------------------------------------|----------------------------------|
---------------------------------------|----------------------------------|
---------------------------------------|----------------------------------|
---------------------------------------|----------------------------------|
--0--0--0--0--0--0-----0--0----0--0----|--0--0--0--0--0--0-----0--0----0--|
--0--0--0--0--0--0-----0--0----0--0----|--0--0--0--0--0--0-----0--0----0--|
 
 
  PM   PM PM    PM PM PM PM       PM PM PM PM PM PM    PM PM   PM PM    
  S  S S  S  E  S  S  S  S  E     S  S  S  S  S  S  E  S  S  S S  S  S  
-------------------------------|---------------------------------------|
-------------------------------|---------------------------------------|
-------------------------------|---------------------------------------|
-------------------------------|---------------------------------------|
--0----0--0-----0--0--0--0-----|--0--0--0--0--0--0-----0--0----0--0----|
--0----0--0-----0--0--0--0-----|--0--0--0--0--0--0-----0--0----0--0----|
 
 
  PM PM PM PM PM PM    PM PM   PM    PM   PM PM    PM PM PM PM PM PM  
  S  S  S  S  S  S  E  S  S  S S     S  S S  S  E  S  S  S  S  S  S   
----------------------------------|----------------------------------|
----------------------------------|----------------------------------|
----------------------------------|----------------------------------|
----------------------------------|----------------------------------|
--0--0--0--0--0--0-----0--0----0--|--0----0--0-----0--0--0--0--0--0--|
--0--0--0--0--0--0-----0--0----0--|--0----0--0-----0--0--0--0--0--0--|
 
 
  PM PM   PM PM      PM PM   PM    PM   PM PM    PM PM PM PM     
  S  S  S S  S  S E  S  S  S S     S  S S  S  E  S  S  S  S  E   
--------------------------------|-------------------------------|
--------------------------------|-------------------------------|
--------------------------------|-------------------------------|
--------------------------------|-------------------------------|
--0--0----0--0-------0--0----0--|--0----0--0-----0--0--0--0-----|
--0--0----0--0-------0--0----0--|--0----0--0-----0--0--0--0-----|
 
 
   E   E   E   E   E   E   E   E      E   E   E   E   E   E   
---0---0---0---0---0---0---0---0--|---0---0---0---0---0---0--|
---8---8---8---8---8---8---8---8--|---8---8---8---8---8---8--|
---0---0---0---0---0---0---0---0--|---0---0---0---0---0---0--|
--10--10--10--10--10--10--10--10--|--10--10--10--10--10--10--|
---0---0---0---8---8---8---0---0--|---0---8---8---8---8---8--|
----------------------------------|--------------------------|
 
 
  PM PM PM PM PM PM    PM PM   PM PM   PM PM  
  S  S  S  S  S  S  E  S  S  S S  S  S S  S   
---------------------------------------------|
---------------------------------------------|
---------------------------------------------|
---------------------------------------------|
--0--0--0--0--0--0-----0--0----0--0----0--0--|
--0--0--0--0--0--0-----0--0----0--0----0--0--|
 
 
     PM PM       PM PM PM PM                                                   
  E  S  S  E  E  S  S  S  S  E  E  E  E     W                W                 
-----------3--3--------------7--7--5--5--|------------------------------------|
-----------0--0--------------0--0--0--0--|------------------------------------|
-----------5--5--------------5--5--5--5--|--5----------------L----------------|
-----------------------------------------|--3----------------L----------------|
-----0--0--------0--0--0--0--------------|--3----------------L----------------|
-----0--0--------0--0--0--0--------------|--3----------------L----------------|
 
 
     PM PM PM PM    PM PM PM PM PM    PM PM PM    PM PM PM PM           
  E  S  S  S  S  E  S  S  S  S  S  E  S  S  S  E  S  S  S  S  H         
-----------------------------------------------------------------------|
-----------------------------------------------------------------------|
--5--------------5-----------------5-----------5-----------------------|
--0--0--0--0--0--0--0--0--0--0--0--0--0--0--0--0--0--0--0--0-----------|
--x--x--x--x--x--x--x--x--x--x--x--x--x--x--x--x--x--x--x--x-----------|
--5--5--5--5--5--5--5--5--5--5--5--5--5--5--5--5--5--5--5--5-----------|
 
 
  E.  E.  E  Q       E.  E.  E  Q       E.  E.  E  Q     
------------------|------------------|------------------|
--3---3---3--3----|--0---0---0--0----|--3---3---3--3----|
--5---5---5--5----|--5---5---5--5----|--5---5---5--5----|
--3---3---3--3----|--3---3---3--3----|--3---3---3--3----|
--3---3---3--3----|--3---3---3--3----|--3---3---3--3----|
--3---3---3--3----|--3---3---3--3----|--3---3---3--3----|
 
 
  E.  E.  E  E.  E.  E     E.  E.  E  Q       E.  E.  E  Q     
------------------------|--3---3---3--3----|--3---3---3--3----|
--0---0---0--0---0---0--|--3---3---3--3----|--0---0---0--0----|
--5---5---5--5---5---5--|--5---5---5--5----|--5---5---5--5----|
--3---3---3--3---3---3--|--3---3---3--3----|--3---3---3--3----|
--3---3---3--3---3---3--|--3---3---3--3----|--3---3---3--3----|
--3---3---3--3---3---3--|--3---3---3--3----|--3---3---3--3----|
 
 
  E.  E.  E  Q       E.  E.  E  E.  E.  E      E   E   E   E  E   Q.      
--3---3---3--3----|--3---3---3--3---3---3--|-----------------------------|
--3---3---3--3----|--0---0---0--0---0---0--|-----------------------------|
--5---5---5--5----|--5---5---5--5---5---5--|-----------------------------|
--3---3---3--3----|--3---3---3--3---3---3--|--10--10--10--10-----17------|
--3---3---3--3----|--3---3---3--3---3---3--|---7---7---7---7-----15------|
--3---3---3--3----|--3---3---3--3---3---3--|---7---7---7---7-----14------|
 
 
   Q.     Q.     Q       E  Q    Q    Q    E     E  Q    Q    Q    E   
----------------------|-----------------------|-----------------------|
----------------------|-----------------------|-----------------------|
----------------------|----------0------------|----------0------------|
--10------9------5----|-----------------------|-----------------------|
---7------5------3----|-----3---------3-------|-----3---------3-------|
---7------5------2----|--3-----------------3--|--3-----------------3--|
 
 
  E  Q    Q    Q    E     E  Q    Q     Q    E     E  Q    Q    Q    E   
-----------------------|------------------------|-----3-----------------|
-----------------------|------------------------|----------3------------|
----------0------------|----------5p----0-------|---------------0-------|
-----------------------|-----7------------------|-----------------------|
-----3---------3-------|--0---------------------|-----------------------|
--3-----------------3--|---------------------2--|--2-----------------2--|
 
 
  E  Q    Q    Q    E     E  Q    Q    Q    E   
-----------------------|-----------------------|
-----------------------|-----------------------|
----------0------------|----------0------------|
-----------------------|-----------------------|
-----3---------3-------|-----3---------3-------|
--3-----------------3--|--3-----------------3--|
 
 
   E   E  E   E   E   E  E   E     H          Q    Q      
--------------------------------|------------------------|
--------------------------------|------------------------|
---9---9------9---9---9------9--|------------------------|
--10--10-----10--10--10-----10--|--5---------------------|
---7---7------7---7---7------7--|--3--------/15----L\----|
---7---7------7---7---7------7--|--2--------/15----L\----|
 
 
  |----3----|                          |----3----|                           
  Q    Q    Q    Q    Q       H        Q    Q    Q       Q    Q    H         
---------------------------|--------------------------|---------------------|
---------------------------|--------------------------|---------------------|
---------------------------|--------------------------|---------------------|
--5----5----5----5---------|-----------5----5----5----|--5---------5--------|
--3----3----3----3---------|-----------3----3----3----|--3---------3--------|
--3----3----3----3---------|-----------3----3----3----|--3---------2--------|
 
 
   |-----3-----|     |-----3-----|              |----3----|        
   Q     Q     Q     Q     Q     Q       Q.     Q    Q    Q    E   
--------------------------------------|------------------------3--|
--------------------------------------|---------0---------0-------|
--------------------------------------|--5-----------5------------|
--10----10----10----12----12----12----|---------------------------|
---7-----7-----7----10----10----10----|---------------------------|
---7-----7-----7----10----10----10----|---------------------------|
 
 
         |----3----|                 |----3----|                           
  Q.     Q    Q    Q    E     Q.     Q    Q    Q    E      H         Q     
--L------------------------|--------------3---------3--|--/8--------10----|
---------0---------0-------|---------------------------|------------------|
--------------5---------5--|--L------5---------5-------|------------------|
---------------------------|---------------------------|------------------|
---------------------------|---------------------------|------------------|
---------------------------|---------------------------|------------------|
 
 
        |------3-----|                |-----3-----|          
  Q     Q      Q     Q        Q.      Q     Q     Q      E   
--L-----------------15----|--15------------15---------------|
-------12h----13----------|----------12----------12h----13--|
--------------------------|---------------------------------|
--------------------------|---------------------------------|
--------------------------|---------------------------------|
--------------------------|---------------------------------|
 
 
          |-----3-----|            |------3------|               
  Q.      Q     Q     Q     E      Q      Q      Q     H         
---------------15--------------|--------------------------------|
--L------13----------12----13--|--12h----13p----12--------------|
-------------------------------|----------------------12--------|
-------------------------------|--------------------------------|
-------------------------------|--------------------------------|
-------------------------------|--------------------------------|
 
 
  |------3------|                        |----3----|        
  Q      Q      Q     H           Q.     Q    Q    Q    E   
-------------------------------|------------------------3--|
-------------------------------|---------0---------0-------|
--9h----10h----12--------------|--5-----------5------------|
---------------------12--------|---------------------------|
-------------------------------|---------------------------|
-------------------------------|---------------------------|
 
 
         |----3----|                 |----3----|                           
  Q.     Q    Q    Q    E     Q.     Q    Q    Q    E      H         Q     
--L------------------------|--------------3---------3--|--/8--------10----|
---------0---------0-------|---------------------------|------------------|
--------------5---------5--|--L------5---------5-------|------------------|
---------------------------|---------------------------|------------------|
---------------------------|---------------------------|------------------|
---------------------------|---------------------------|------------------|
 
 
        |------3-----|                |-----3-----|          
  Q     Q      Q     Q        Q.      Q     Q     Q      E   
--L-----------------15----|--15------------15---------------|
-------12h----13----------|----------12----------12h----13--|
--------------------------|---------------------------------|
--------------------------|---------------------------------|
--------------------------|---------------------------------|
--------------------------|---------------------------------|
 
 
          |-----3-----|            |------3------|               
  Q.      Q     Q     Q     E      Q      Q      Q     H         
---------------15--------------|--------------------------------|
--L------13----------12----13--|--12h----13p----12--------------|
-------------------------------|----------------------12--------|
-------------------------------|--------------------------------|
-------------------------------|--------------------------------|
-------------------------------|--------------------------------|
 
 
  |------3------|                                    
  Q      Q      Q     H           W                  
-------------------------------|--3----------------||
-------------------------------|--0----------------||
--9h----10h----12--------------|--5----------------||
---------------------12--------|--5----------------||
-------------------------------|--3----------------||
-------------------------------|--3----------------||
 
 
 
 
Duration Legend
---------------
W - whole
H - half
Q - quarter
E - 8th
S - 16th
T - 32nd
X - 64th
. - note dotted
|-n-|  - n-tuplets
 
 
Tablature Legend
----------------
L - tied note
x - dead note
g - grace note
(n) - ghost note
> - accentuded note
NH - natural harmonic
AH - artificial harmonic
TH - tapped harmonic
SH - semi harmonic
PH - pitch harmonic
h - hammer on
p - pull off
b - bend
br - bendRelease
pb - preBend
pbr - preBendRelease
brb - bendReleaseBend
\n/ - tremolo bar dip
\n - tremolo bar dive
-/n - tremolo bar Release up
/n\ - tremolo bar inverted dip
/n - tremolo bar return
-\n - tremolo bar Release down
S - shift slide
s - legato slide
/ -  slide into from below or out of upwards
\ -  slide into from above or out of downwards
~ - vibrato
W - wide vibrato
tr - tril'
TP - tremolo picking
T - tapping
S - slap
P - pop
< - fade in
^ - brush up
v - brush down
comments
We did not receive enough feedback on this tab! Please rate:
print report bad tab
1 2 3 4 5
I want to post or [tab]
guest
You may want to rate the tab now too:
select rating
Please do not post tabs as comments. Select "correction" instead!