Oops, an error
Loading. Please wait.

Anger Cage Tab

ver2
ver2

Whole song

More versions @911Tabs.com
326 views 1 this week
no commentswrite comment
1 2 3 4 5
excellent!
x 1
Autoscroll
+/-
esc
set tempo
stop
Contributor
Difficulty
Tuning
novice
D A D G B E
Hey! There's an official Ultimate Guitar app which is ideal
for learning songs when you're away from computer. Get the app
WARNING: You are trying to view
                                    content from Ultimate-Guitar.com
                                    in an unauthorized application,
                                    which is prohibited.

                                    Please use an official Ultimate
                                    Guitar Tabs application for iPhone,
                                    iPad or Android to access legitimate
                                    chords, guitar, bass, and drum tabs
                                    from Ultimate-Guitar.com database.

                                    Type "ultimate guitar tabs" in Apple
                                    App Store's or Android Market's
                                    search to find the application.
Anger Cage
Course of Nature
Damaged (2008)

Anger Cage:  written by Mike Wilkerson

GTR I - Drop D Tuning "Sean Kipe" (e,B,G,D,A,D)
GTR II - Drop D Tuning "Mike Wilkerson" (e,B,G,D,A,D)

Intro

  GTR I
e|-------------------------------------------------|
B|-------------------------------------------------|
G|------/10-----8-----6-----8-----6-----3-----6----|
D|--------x-----x-----x-----x-----x-----x-----x----|
A|-------/8-----6-----4-----6-----4-----1-----4----|
D|-------------------------------------------------|
 |
 |GTR II
e|-------------------------------------------------|
B|-------------------------------------------------|
G|--3-----3-----3-----3--3-------------------------|
D|--3-----3-----3-----3--3--6-----6-----6-----6--6-|
A|--1-----1-----1-----1--1--6-----6-----6-----6--6-|
D|--------------------------6-----6-----6-----6--6-|

  GTR I
e|-------------------------------------------------|
B|-------------------------------------------------|
G|------/10-----8-----6-----8----13----10----------|
D|-x-x----x-----x-----x-----x-----x-----x----------|
A|-x-x---/8-----6-----4-----6----11-----8----------|
D|-x-x---------------------------------------------|
 |
 |GTR II
e|-------------------------------------------------|
B|-------------------------------------------------|
G|-------------------------------------------------|
D|--1-----1-----1-----1--1--6-----6-----6-----6--6-|
A|--1-----1-----1-----1--1--6-----6-----6-----6--6-|
D|--1-----1-----1-----1--1--6-----6-----6-----6--6-|

  GTR I
e|-------------------------------------------------|
B|-------------------------------------------------|
G|------/10-----8-----6-----8-----6-----3-----6----|
D|--------x-----x-----x-----x-----x-----x-----x----|
A|-------/8-----6-----4-----6-----4-----1-----4----|
D|-------------------------------------------------|
 |
 |GTR II
e|-------------------------------------------------|
B|-------------------------------------------------|
G|--3-----3-----3-----3--3--6-----6-----6-----6--6-|
D|--3-----3-----3-----3--3--6-----6-----6-----6--6-|
A|--1-----1-----1-----1--1--4-----4-----4-----4--4-|
D|-------------------------------------------------|

  GTR I
e|-------------------------------------------------|
B|-------------------------------------------------|
G|/10-----8-----6-----3-----6----13----10----------|
D|--x-----x-----x-----x-----x-----x-----x----------|
A|-/8-----6-----4-----1-----4----11-----8----------|
D|-------------------------------------------------|
 |
 |GTR II
e|-------------------------------------------------|
B|-------------------------------------------------|
G|-------------------------------------------------|
D|--1-----1-----1-----1-----1--1--1--1--1--1--1--1-|
A|--1-----1-----1-----1-----1--1--1--1--1--1--1--1-|
D|--1-----1-----1-----1-----1--1--1--1--1--1--1--1-|
          .           .        .  .  .  .  .  .  .

Verse

  GTR I
e|-------------------------------------------------|
B|-------------------------------------------------|
G|--3-----3-----------6-----6-----6----------------|
D|--3-----3-----------6-----6-----6-----x--x-----x-|
A|--1-----1-----------4-----4-----4-----x--x-----x-|
D|--------------------------------------x--x-----x-|
 |
 |GTR II
e|-------------------------------------------------|
B|-------------------------------------------------|
G|-------------------------------------------------|
D|-------------------------------------------------|
A|-------------------------------------------------|
D|-------------------------------------------------|

  GTR I
e|-------------------------------------------------|
B|-------------------------------------------------|
G|--------3-----3-----6-----6-----6----------------|
D|--x-----3-----3-----6-----6-----6-----x--x-----x-|
A|--x-----1-----1-----4-----4-----4-----x--x-----x-|
D|--x-----------------------------------x--x-----x-|
 |
 |GTR II
e|-------------------------------------------------|
B|-------------------------------------------------|
G|-------------------------------------------------|
D|-------------------------------------------------|
A|-------------------------------------------------|
D|-------------------------------------------------|

  GTR I
e|-------------------------------------------------|
B|-------------------------------------------------|
G|--3-----3-----------6-----6-----6----------------|
D|--3-----3-----------6-----6-----6-----x--x-----x-|
A|--1-----1-----------4-----4-----4-----x--x-----x-|
D|--------------------------------------x--x-----x-|
 |
 |GTR II
e|-------------------------------------------------|
B|-------------------------------------------------|
G|-------------------------------------------------|
D|-------------------------------------------------|
A|-------------------------------------------------|
D|-------------------------------------------------|

  GTR I
e|-------------------------------------------------|
B|-------------------------------------------------|
G|--------3-----3-----6-----6-----6-----6\---------|
D|--x-----3-----3-----6-----6-----6-----6\---------|
A|--x-----1-----1-----4-----4-----4-----4\---------|
D|--x----------------------------------------------|
 |
 |GTR II
e|-------------------------------------------------|
B|-------------------------------------------------|
G|-------------------------------------------------|
D|-------------------------------------------------|
A|-------------------------------------------------|
D|-------------------------------------------------|

Verse 2

  GTR I
e|-------------------------------------------------|
B|-------------------------------------------------|
G|-------------------------------------------------|
D|--------------------------6----------/8----------|
A|-------------------------------------------------|
D|-------------------------------------------------|
 |
 |GTR II
e|-------------------------------------------------|
B|-------------------------------------------------|
G|-------------------------------------------------|
D|--4----------------------------------------------|
A|--4----------------------------------------------|
D|--4----------------------------------------------|

  GTR I
e|-------------------------------------------------|
B|-------------------------------------------------|
G|-------------------------------------------------|
D|-------------------------10---------/11----------|
A|-------------------------------------------------|
D|-------------------------------------------------|
 |
 |GTR II
e|-------------------------------------------------|
B|-------------------------------------------------|
G|-------------------------------------------------|
D|--6----------------------------------------------|
A|--6----------------------------------------------|
D|--6----------------------------------------------|

  GTR I
e|-------------------------------------------------|
B|-------------------------------------------------|
G|-------------------------------------------------|
D|--------------------------6----------/8----------|
A|-------------------------------------------------|
D|-------------------------------------------------|
 |
 |GTR II
e|-------------------------------------------------|
B|-------------------------------------------------|
G|-------------------------------------------------|
D|--4----------------------------------------------|
A|--4----------------------------------------------|
D|--4----------------------------------------------|

  GTR I
e|-------------------------------------------------|
B|-------------------------------------------------|
G|-------------------------------------------------|
D|-------------------------------------------------|
A|-------------------------------------------------|
D|-------------------------------------------------|
 |
 |GTR II
e|-------------------------------------------------|
B|-------------------------------------------------|
G|-------------------------------------------------|
D|--1-----x--1--------1-----x--1-----x--1-----1----|
A|--1-----x--1--------1-----x--1-----x--1-----1----|
D|--1-----x--1--------1-----x--1-----x--1-----1----|

Pre Chorus

  GTR I
e|-------------------------------------------------|
B|-11----------11-----------9-----------9----------|
G|-------10----------10----------10----------10----|
D|-------------------------------------------------|
A|-------------------------------------------------|
D|-------------------------------------------------|
 |
 |GTR II
e|-------------------------------------------------|
B|-------------------------------------------------|
G|--3-----------3----------------------------------|
D|--3-----------3-----------6-----------6----------|
A|--1-----------1-----------6-----------6----------|
D|--------------------------6-----------6----------|

  GTR I
e|-------------------------------------------------|
B|-11----------11-----------9-----------9----------|
G|-------10----------10----------10----------10----|
D|-------------------------------------------------|
A|-------------------------------------------------|
D|-------------------------------------------------|
 |
 |GTR II
e|-------------------------------------------------|
B|-------------------------------------------------|
G|-------------------------------------------------|
D|--1-----------1-----------6-----------6-----3----|
A|--1-----------1-----------6-----------6-----3----|
D|--1-----------1-----------6-----------6-----3----|

  GTR I
e|-------------------------------------------------|
B|-11----------11-----------9-----------9----------|
G|-------10----------10----------10----------10----|
D|-------------------------------------------------|
A|-------------------------------------------------|
D|-------------------------------------------------|
 |
 |GTR II
e|-------------------------------------------------|
B|-------------------------------------------------|
G|--3-----------3-----------6-----------6----------|
D|--3-----------3-----------6-----------6----------|
A|--1-----------1-----------4-----------4----------|
D|-------------------------------------------------|

  GTR I
e|-------------------------------------------------|
B|-11----11----11----11----11----11----11\---------|
G|-10----10----10----10----10----10----10\---------|
D|-------------------------------------------------|
A|-------------------------------------------------|
D|-------------------------------------------------|
 |
 |GTR II
e|-------------------------------------------------|
B|-------------------------------------------------|
G|-------------------------------------------------|
D|--1-----1-----1-----1-----1-----1-----1-----1----|
A|--1-----1-----1-----1-----1-----1-----1-----1----|
D|--1-----1-----1-----1-----1-----1-----1-----1----|
          .     .     .     .     .     .     .

Chorus

  GTR I
e|-------------------------------------------------|
B|-11-11-11-11-11-11-11-11--9--9--9--9--9--9--9--9-|
G|-10-10-10-10-10-10-10-10-10-10-10-10-10-10-10-10-|
D|-------------------------------------------------|
A|-------------------------------------------------|
D|-------------------------------------------------|
 |
 |GTR II
e|-------------------------------------------------|
B|-------------------------------------------------|
G|--3-----3-----3-----3--3-------------------------|
D|--3-----3-----3-----3--3--6-----6-----6-----6--6-|
A|--1-----1-----1-----1--1--6-----6-----6-----6--6-|
D|--------------------------6-----6-----6-----6--6-|

  GTR I
e|-------------------------------------------------|
B|-11-11-11-11-11-11-11-11--9--9--9--9--9--9--9--9-|
G|-10-10-10-10-10-10-10-10-10-10-10-10-10-10-10-10-|
D|-------------------------------------------------|
A|-------------------------------------------------|
D|-------------------------------------------------|
 |
 |GTR II
e|-------------------------------------------------|
B|-------------------------------------------------|
G|-------------------------------------------------|
D|--1-----1-----1-----1--1--6-----6-----6-----6--6-|
A|--1-----1-----1-----1--1--6-----6-----6-----6--6-|
D|--1-----1-----1-----1--1--6-----6-----6-----6--6-|

  GTR I
e|-------------------------------------------------|
B|-11-11-11-11-11-11-11-11--9--9--9--9--9--9--9--9-|
G|-10-10-10-10-10-10-10-10-10-10-10-10-10-10-10-10-|
D|-------------------------------------------------|
A|-------------------------------------------------|
D|-------------------------------------------------|
 |
 |GTR II
e|-------------------------------------------------|
B|-------------------------------------------------|
G|--3-----3-----3-----3--3--6-----6-----6-----6--6-|
D|--3-----3-----3-----3--3--6-----6-----6-----6--6-|
A|--1-----1-----1-----1--1--4-----4-----4-----4--4-|
D|-------------------------------------------------|

  GTR I
e|-------------------------------------------------|
B|-11-11-11-11-11-11-11-11--9--9--9--9--9--9--9--9-|
G|-10-10-10-10-10-10-10-10-10-10-10-10-10-10-10-10-|
D|-------------------------------------------------|
A|-------------------------------------------------|
D|-------------------------------------------------|
 |
 |GTR II
e|-------------------------------------------------|
B|-------------------------------------------------|
G|-------------------------------------------------|
D|--1-----1--1--1-----1--1--1--1--1--1--1--1--1--1-|
A|--1-----1--1--1-----1--1--1--1--1--1--1--1--1--1-|
D|--1-----1--1--1-----1--1--1--1--1--1--1--1--1--1-|
          .  .        .  .     .  .  .  .  .  .  .

Fill 1

  GTR I
e|-------------------------------------------------|
B|-------------------------------------------------|
G|------/10-----8-----6-----8-----6-----3-----6----|
D|--------x-----x-----x-----x-----x-----x-----x----|
A|-------/8-----6-----4-----6-----4-----1-----4----|
D|-------------------------------------------------|
 |
 |GTR II
e|-------------------------------------------------|
B|-------------------------------------------------|
G|--3-----3-----------------6-----6-----6----------|
D|--3-----3-----------------6-----6-----6----------|
A|--1-----1-----------------4-----4-----4----------|
D|-------------------------------------------------|

  GTR I
e|-------------------------------------------------|
B|-------------------------------------------------|
G|/10-----8-----6-----3-----6----13----10----------|
D|--x-----x-----x-----x-----x-----x-----x----------|
A|-/8-----6-----4-----1-----4----11-----8----------|
D|-------------------------------------------------|
 |
 |GTR II
e|-------------------------------------------------|
B|-------------------------------------------------|
G|-------------------------------------------------|
D|--------1-----1-----1-----1--1--1--1--1--1--1--1-|
A|--------1-----1-----1-----1--1--1--1--1--1--1--1-|
D|--------1-----1-----1-----1--1--1--1--1--1--1--1-|
          .     .     .        .  .  .  .  .  .  .

Verse

  GTR I
e|-------------------------------------------------|
B|-------------------------------------------------|
G|--3-----3-----------6-----6-----6----------------|
D|--3-----3-----------6-----6-----6-----x--x-----x-|
A|--1-----1-----------4-----4-----4-----x--x-----x-|
D|--------------------------------------x--x-----x-|
 |
 |GTR II
e|-------------------------------------------------|
B|-------------------------------------------------|
G|-------------------------------------------------|
D|-------------------------------------------------|
A|-------------------------------------------------|
D|-------------------------------------------------|

  GTR I
e|-------------------------------------------------|
B|-------------------------------------------------|
G|--------3-----3-----6-----6-----6----------------|
D|--x-----3-----3-----6-----6-----6-----x--x-----x-|
A|--x-----1-----1-----4-----4-----4-----x--x-----x-|
D|--x-----------------------------------x--x-----x-|
 |
 |GTR II
e|-------------------------------------------------|
B|-------------------------------------------------|
G|-------------------------------------------------|
D|-------------------------------------------------|
A|-------------------------------------------------|
D|-------------------------------------------------|

  GTR I
e|-------------------------------------------------|
B|-------------------------------------------------|
G|--3-----3-----------6-----6-----6----------------|
D|--3-----3-----------6-----6-----6-----x--x-----x-|
A|--1-----1-----------4-----4-----4-----x--x-----x-|
D|--------------------------------------x--x-----x-|
 |
 |GTR II
e|-------------------------------------------------|
B|-------------------------------------------------|
G|-------------------------------------------------|
D|-------------------------------------------------|
A|-------------------------------------------------|
D|-------------------------------------------------|

  GTR I
e|-------------------------------------------------|
B|-------------------------------------------------|
G|--------3-----3-----6-----6-----6-----6\---------|
D|--x-----3-----3-----6-----6-----6-----6\---------|
A|--x-----1-----1-----4-----4-----4-----4\---------|
D|--x----------------------------------------------|
 |
 |GTR II
e|-------------------------------------------------|
B|-------------------------------------------------|
G|-------------------------------------------------|
D|-------------------------------------------------|
A|-------------------------------------------------|
D|-------------------------------------------------|

Verse 2

  GTR I
e|-------------------------------------------------|
B|-------------------------------------------------|
G|-------------------------------------------------|
D|--------------------------6----------/8----------|
A|-------------------------------------------------|
D|-------------------------------------------------|
 |
 |GTR II
e|-------------------------------------------------|
B|-------------------------------------------------|
G|-------------------------------------------------|
D|--4----------------------------------------------|
A|--4----------------------------------------------|
D|--4----------------------------------------------|

  GTR I
e|-------------------------------------------------|
B|-------------------------------------------------|
G|-------------------------------------------------|
D|-------------------------10---------/11----------|
A|-------------------------------------------------|
D|-------------------------------------------------|
 |
 |GTR II
e|-------------------------------------------------|
B|-------------------------------------------------|
G|-------------------------------------------------|
D|--6----------------------------------------------|
A|--6----------------------------------------------|
D|--6----------------------------------------------|

  GTR I
e|-------------------------------------------------|
B|-------------------------------------------------|
G|-------------------------------------------------|
D|--------------------------6----------/8----------|
A|-------------------------------------------------|
D|-------------------------------------------------|
 |
 |GTR II
e|-------------------------------------------------|
B|-------------------------------------------------|
G|-------------------------------------------------|
D|--4----------------------------------------------|
A|--4----------------------------------------------|
D|--4----------------------------------------------|

  GTR I
e|-------------------------------------------------|
B|-------------------------------------------------|
G|-------------------------------------------------|
D|-------------------------------------------------|
A|-------------------------------------------------|
D|-------------------------------------------------|
 |
 |GTR II
e|-------------------------------------------------|
B|-------------------------------------------------|
G|-------------------------------------------------|
D|--1----------------------------------------------|
A|--1----------------------------------------------|
D|--1---------------------------------------/13\---|

Pre Chorus

  GTR I
e|-------------------------------------------------|
B|-11----------11-----------9-----------9----------|
G|-------10----------10----------10----------10----|
D|-------------------------------------------------|
A|-------------------------------------------------|
D|-------------------------------------------------|
 |
 |GTR II
e|-------------------------------------------------|
B|-------------------------------------------------|
G|--3-----------3----------------------------------|
D|--3-----------3-----------6-----------6----------|
A|--1-----------1-----------6-----------6----------|
D|--------------------------6-----------6----------|

  GTR I
e|-------------------------------------------------|
B|-11----------11-----------9-----------9----------|
G|-------10----------10----------10----------10----|
D|-------------------------------------------------|
A|-------------------------------------------------|
D|-------------------------------------------------|
 |
 |GTR II
e|-------------------------------------------------|
B|-------------------------------------------------|
G|-------------------------------------------------|
D|--1-----------1-----------6-----------6-----3----|
A|--1-----------1-----------6-----------6-----3----|
D|--1-----------1-----------6-----------6-----3----|

  GTR I
e|-------------------------------------------------|
B|-11----------11-----------9-----------9----------|
G|-------10----------10----------10----------10----|
D|-------------------------------------------------|
A|-------------------------------------------------|
D|-------------------------------------------------|
 |
 |GTR II
e|-------------------------------------------------|
B|-------------------------------------------------|
G|--3-----------3-----------6-----------6----------|
D|--3-----------3-----------6-----------6----------|
A|--1-----------1-----------4-----------4----------|
D|-------------------------------------------------|

  GTR I
e|-------------------------------------------------|
B|-11----11----11----11----11----11----11\---------|
G|-10----10----10----10----10----10----10\---------|
D|-------------------------------------------------|
A|-------------------------------------------------|
D|-------------------------------------------------|
 |
 |GTR II
e|-------------------------------------------------|
B|-------------------------------------------------|
G|-------------------------------------------------|
D|--1-----1-----1-----1-----1-----1-----1-----1----|
A|--1-----1-----1-----1-----1-----1-----1-----1----|
D|--1-----1-----1-----1-----1-----1-----1-----1----|
          .     .     .                        

Chorus

  GTR I
e|-------------------------------------------------|
B|-11-11-11-11-11-11-11-11--9--9--9--9--9--9--9--9-|
G|-10-10-10-10-10-10-10-10-10-10-10-10-10-10-10-10-|
D|-------------------------------------------------|
A|-------------------------------------------------|
D|-------------------------------------------------|
 |
 |GTR II
e|-------------------------------------------------|
B|-------------------------------------------------|
G|--3-----3-----3-----3--3-------------------------|
D|--3-----3-----3-----3--3--6-----6-----6-----6--6-|
A|--1-----1-----1-----1--1--6-----6-----6-----6--6-|
D|--------------------------6-----6-----6-----6--6-|

  GTR I
e|-------------------------------------------------|
B|-11-11-11-11-11-11-11-11--9--9--9--9--9--9--9--9-|
G|-10-10-10-10-10-10-10-10-10-10-10-10-10-10-10-10-|
D|-------------------------------------------------|
A|-------------------------------------------------|
D|-------------------------------------------------|
 |
 |GTR II
e|-------------------------------------------------|
B|-------------------------------------------------|
G|-------------------------------------------------|
D|--1-----1-----1-----1--1--6-----6-----6-----6--6-|
A|--1-----1-----1-----1--1--6-----6-----6-----6--6-|
D|--1-----1-----1-----1--1--6-----6-----6-----6--6-|

  GTR I
e|-------------------------------------------------|
B|-11-11-11-11-11-11-11-11--9--9--9--9--9--9--9--9-|
G|-10-10-10-10-10-10-10-10-10-10-10-10-10-10-10-10-|
D|-------------------------------------------------|
A|-------------------------------------------------|
D|-------------------------------------------------|
 |
 |GTR II
e|-------------------------------------------------|
B|-------------------------------------------------|
G|--3-----3-----3-----3--3--6-----6-----6-----6--6-|
D|--3-----3-----3-----3--3--6-----6-----6-----6--6-|
A|--1-----1-----1-----1--1--4-----4-----4-----4--4-|
D|-------------------------------------------------|

  GTR I
e|-------------------------------------------------|
B|-11-11-11-11-11-11-11-11--9--9--9--9--9--9--9--9-|
G|-10-10-10-10-10-10-10-10-10-10-10-10-10-10-10-10-|
D|-------------------------------------------------|
A|-------------------------------------------------|
D|-------------------------------------------------|
 |
 |GTR II
e|-------------------------------------------------|
B|-------------------------------------------------|
G|-------------------------------------------------|
D|--1-----1--1--1-----1--1--1-----1--1--1--1--1--1-|
A|--1-----1--1--1-----1--1--1-----1--1--1--1--1--1-|
D|--1-----1--1--1-----1--1--1-----1--1--1--1--1--1-|
          .  .        .  .        .  .            

Bridge

  GTR I
e|-------------------------------------------------|
B|-------------------------------------------------|
G|-------------------------------------------------|
D|-------------------------------------------------|
A|-------------------------------------------------|
D|-------------------------------------------------|
 |
 |GTR II
e|-------------------------------------------------|
B|-------------------------------------------------|
G|-------------------------------------------------|
D|--3-----------------------6----------------------|
A|--3-----------------------6----------------------|
D|--3-----------------------6----------------------|

  GTR I
e|-------------------------------------------------|
B|-------------------------------------------------|
G|-------------------------------------------------|
D|-------------------------------------------------|
A|-------------------------------------------------|
D|-------------------------------------------------|
 |
 |GTR II
e|-------------------------------------------------|
B|-------------------------------------------------|
G|--3-----------------------5----------------------|
D|--3-----------------------5----------------------|
A|--1-----------------------3----------------------|
D|-------------------------------------------------|

  GTR I
e|-------------------------------------------------|
B|-------------------------------------------------|
G|-------------------------------------------------|
D|-------------------------------------------------|
A|-------------------------------------------------|
D|-------------------------------------------------|
 |
 |GTR II
e|-------------------------------------------------|
B|-------------------------------------------------|
G|-------------------------------------------------|
D|--3-----------------------6----------------------|
A|--3-----------------------6----------------------|
D|--3-----------------------6----------------------|

  GTR I
e|-------------------------------------------------|
B|-------------------------------------------------|
G|-------------------------------------------------|
D|-------------------------------------------------|
A|-------------------------------------------------|
D|-------------------------------------------------|
 |
 |GTR II
e|-------------------------------------------------|
B|-------------------------------------------------|
G|--3-----------------------5----------------------|
D|--3-----------------------5----------------------|
A|--1-----------------------3----------------------|
D|-------------------------------------------------|

  GTR I
e|-------------------------------------------------|
B|-------------------------------------------------|
G|-------------------------------------------------|
D|-------------------------------------------------|
A|-------------------------------------------------|
D|-------------------------------------------------|
 |
 |GTR II
e|-------------------------------------------------|
B|-------------------------------------------------|
G|-------------------------------------------------|
D|--3-----3--5b-------------6-----6--8b------------|
A|--3-----3-----------------6-----6----------------|
D|--3-----3-----------------6-----6----------------|

  GTR I
e|-------------------------------------------------|
B|-------------------------------------------------|
G|-------------------------------------------------|
D|-------------------------------------------------|
A|-------------------------------------------------|
D|-------------------------------------------------|
 |
 |GTR II
e|-------------------------------------------------|
B|-------------------------------------------------|
G|-------------------------------------------------|
D|--8-----8-10b------------10-12+------------------|
A|--8-----8----------------10-12+------------------|
D|--8-----8----------------10----------------------|

  GTR I
e|-------------------------------------------------|
B|-------------------------------------------------|
G|-10----10----------------------------------------|
D|-------------------------13----13----------------|
A|-------------------------------------------------|
D|-------------------------------------------------|
 |
 |GTR II
e|-------------------------------------------------|
B|-------------------------------------------------|
G|-------------------------------------------------|
D|--3-----3--5b-------------6-----6--8b------------|
A|--3-----3-----------------6-----6----------------|
D|--3-----3-----------------6-----6----------------|

  GTR I
e|-------------------------------------------------|
B|-------------------------------------------------|
G|-------------------------------------------------|
D|-12----12----12----12----10----10----10----10----|
A|-------------------------------------------------|
D|-------------------------------------------------|
 |
 |GTR II
e|-------------------------------------------------|
B|-------------------------------------------------|
G|-------------------------------------------------|
D|--8-----8-----8-----8----10----10----10----10----|
A|--8-----8-----8-----8----10----10----10----10----|
D|--8-----8-----8-----8----10----10----10----10----|

  GTR I
e|-------------------------------------------------|
B|-------------------------------------------------|
G|-------------------------------------------------|
D|-------------------------------------------------|
A|-11----------------------13---------/15----------|
D|-------------------------------------------------|
 |
 |GTR II
e|-------------------------------------------------|
B|-------------------------------------------------|
G|-------------------------------------------------|
D|--6-----6-----6-----6-----6-----6-----6-----6----|
A|--6-----6-----6-----6-----6-----6-----6-----6----|
D|--6-----6-----6-----6-----6-----6-----6-----6----|

  GTR I
e|-------------------------------------------------|
B|----------------------------------------------14-|
G|----------------------------------------13-15----|
D|----------------------------------13-15----------|
A|-13----------------------13-15-16----------------|
D|-------------------------------------------------|
 |
 |GTR II
e|-------------------------------------------------|
B|-------------------------------------------------|
G|-------------------------------------------------|
D|--4-----4-----4-----4-----4-----4-----4-----4----|
A|--4-----4-----4-----4-----4-----4-----4-----4----|
D|--4-----4-----4-----4-----4-----4-----4-----4----|

Pre Chorus

  GTR I
e|-16b---------------------------------------------|
B|-------------------------------------------------|
G|-------------------------------------------------|
D|-------------------------------------------------|
A|-------------------------------------------------|
D|-------------------------------------------------|
 |
 |GTR II
e|-------------------------------------------------|
B|-------------------------------------------------|
G|--3-----------3----------------------------------|
D|--3-----------3-----------6-----------6----------|
A|--1-----------1-----------6-----------6----------|
D|--------------------------6-----------6----------|

  GTR I
e|-------------------------------------------------|
B|-11----------11-----------9-----------9----------|
G|-------10----------10----------10----------10----|
D|-------------------------------------------------|
A|-------------------------------------------------|
D|-------------------------------------------------|
 |
 |GTR II
e|-------------------------------------------------|
B|-------------------------------------------------|
G|-------------------------------------------------|
D|--1-----------1-----------6-----------6-----3----|
A|--1-----------1-----------6-----------6-----3----|
D|--1-----------1-----------6-----------6-----3----|

  GTR I
e|-------------------------------------------------|
B|-11----------11-----------9-----------9----------|
G|-------10----------10----------10----------10----|
D|-------------------------------------------------|
A|-------------------------------------------------|
D|-------------------------------------------------|
 |
 |GTR II
e|-------------------------------------------------|
B|-------------------------------------------------|
G|--3-----------3-----------6-----------6----------|
D|--3-----------3-----------6-----------6----------|
A|--1-----------1-----------4-----------4----------|
D|-------------------------------------------------|

  GTR I
e|-------------------------------------------------|
B|-11----11----11----11----11----11---11\----------|
G|-10----10----10----10----10----10---10\----------|
D|-------------------------------------------------|
A|-------------------------------------------------|
D|-------------------------------------------------|
 |
 |GTR II
e|-------------------------------------------------|
B|-------------------------------------------------|
G|-------------------------------------------------|
D|--1-----1-----1-----1-----1-----1-----1-----1----|
A|--1-----1-----1-----1-----1-----1-----1-----1----|
D|--1-----1-----1-----1-----1-----1-----1-----1----|
          .     .     .                        

Chorus

  GTR I
e|-------------------------------------------------|
B|-11-11-11-11-11-11-11-11--9--9--9--9--9--9--9--9-|
G|-10-10-10-10-10-10-10-10-10-10-10-10-10-10-10-10-|
D|-------------------------------------------------|
A|-------------------------------------------------|
D|-------------------------------------------------|
 |
 |GTR II
e|-------------------------------------------------|
B|-------------------------------------------------|
G|--3-----3-----3-----3--3-------------------------|
D|--3-----3-----3-----3--3--6-----6-----6-----6--6-|
A|--1-----1-----1-----1--1--6-----6-----6-----6--6-|
D|--------------------------6-----6-----6-----6--6-|

  GTR I
e|-------------------------------------------------|
B|-11-11-11-11-11-11-11-11--9--9--9--9--9--9--9--9-|
G|-10-10-10-10-10-10-10-10-10-10-10-10-10-10-10-10-|
D|-------------------------------------------------|
A|-------------------------------------------------|
D|-------------------------------------------------|
 |
 |GTR II
e|-------------------------------------------------|
B|-------------------------------------------------|
G|-------------------------------------------------|
D|--1-----1-----1-----1--1--6-----6-----6-----6--6-|
A|--1-----1-----1-----1--1--6-----6-----6-----6--6-|
D|--1-----1-----1-----1--1--6-----6-----6-----6--6-|

  GTR I
e|-------------------------------------------------|
B|-11-11-11-11-11-11-11-11--9--9--9--9--9--9--9--9-|
G|-10-10-10-10-10-10-10-10-10-10-10-10-10-10-10-10-|
D|-------------------------------------------------|
A|-------------------------------------------------|
D|-------------------------------------------------|
 |
 |GTR II
e|-------------------------------------------------|
B|-------------------------------------------------|
G|--3-----3-----3-----3--3--6-----6-----6-----6--6-|
D|--3-----3-----3-----3--3--6-----6-----6-----6--6-|
A|--1-----1-----1-----1--1--4-----4-----4-----4--4-|
D|-------------------------------------------------|

  GTR I
e|-------------------------------------------------|
B|-11-11-11-11-11-11-11-11--9--9--9--9--9--9--9--9-|
G|-10-10-10-10-10-10-10-10-10-10-10-10-10-10-10-10-|
D|-------------------------------------------------|
A|-------------------------------------------------|
D|-------------------------------------------------|
 |
 |GTR II
e|-------------------------------------------------|
B|-------------------------------------------------|
G|-------------------------------------------------|
D|--1-----1--1--1-----1--1--1-----1--1--1--1--1--1-|
A|--1-----1--1--1-----1--1--1-----1--1--1--1--1--1-|
D|--1-----1--1--1-----1--1--1-----1--1--1--1--1--1-|
          .  .        .  .        .  .            

Outro

  GTR I
e|-------------------------------------------------|
B|-11----------11-----------9-----------9----------|
G|-------10----------10----------10----------10----|
D|-------------------------------------------------|
A|-------------------------------------------------|
D|-------------------------------------------------|
 |
 |GTR II
e|-------------------------------------------------|
B|-------------------------------------------------|
G|--3-----------3----------------------------------|
D|--3-----------3-----------6-----------6----------|
A|--1-----------1-----------6-----------6----------|
D|--------------------------6-----------6----------|

  GTR I
e|-------------------------------------------------|
B|-11----------11-----------9-----------9----------|
G|-------10----------10----------10----------10----|
D|-------------------------------------------------|
A|-------------------------------------------------|
D|-------------------------------------------------|
 |
 |GTR II
e|-------------------------------------------------|
B|-------------------------------------------------|
G|-------------------------------------------------|
D|--1-----------1-----------6-----------6-----3----|
A|--1-----------1-----------6-----------6-----3----|
D|--1-----------1-----------6-----------6-----3----|

  GTR I
e|-------------------------------------------------|
B|-11----------11-----------9-----------9----------|
G|-------10----------10----------10----------10----|
D|-------------------------------------------------|
A|-------------------------------------------------|
D|-------------------------------------------------|
 |
 |GTR II
e|-------------------------------------------------|
B|-------------------------------------------------|
G|--3-----------3-----------6-----------6----------|
D|--3-----------3-----------6-----------6----------|
A|--1-----------1-----------4-----------4----------|
D|-------------------------------------------------|

  GTR I
e|-------------------------------------------------|
B|-11----11----11----11----11----11----11----11----|
G|-10----10----10----10----10----10----10----10----|
D|-------------------------------------------------|
A|-------------------------------------------------|
D|-------------------------------------------------|
 |
 |GTR II
e|-------------------------------------------------|
B|-------------------------------------------------|
G|-------------------------------------------------|
D|--1-----1-----1-----1-----1-----1-----1-----1----|
A|--1-----1-----1-----1-----1-----1-----1-----1----|
D|--1-----1-----1-----1-----1-----1-----1-----1----|
          .     .     .     .     .     .     .    

  GTR I
e|-------------------------------------------------|
B|-11----11----11----11----11----11----11----11----|
G|-10----10----10----10----10----10----10----10----|
D|-------------------------------------------------|
A|-------------------------------------------------|
D|-------------------------------------------------|
 |
 |GTR II
e|-------------------------------------------------|
B|-------------------------------------------------|
G|-------------------------------------------------|
D|--1-----1-----1-----1-----1-----1-----1-----1----|
A|--1-----1-----1-----1-----1-----1-----1-----1----|
D|--1-----1-----1-----1-----1-----1-----1-----1----|
          .     .     .     .     .     .     .    

  GTR I
e|-11----11----11----11----11----11----11----------|
B|-11----11----11----11----11----11----11----------|
G|-------------------------------------------------|
D|-------------------------------------------------|
A|-------------------------------------------------|
D|-------------------------------------------------|
 |
 |GTR II
e|-------------------------------------------------|
B|-------------------------------------------------|
G|-------------------------------------------------|
D|--1--1--1--1--1--1--1--1--1--1--1--1--8--------6-|
A|--1--1--1--1--1--1--1--1--1--1--1--1--8--------6-|
D|--1--1--1--1--1--1--1--1--1--1--1--1--8--------6-|
       .  .     .  .     .  .     .  .             



| /  slide up
| \  slide down
| h  hammer-on
| p  pull-off
| ~  vibrato
| +  harmonic
| x  Mute note
===============================================================================

comments
We did not receive enough feedback on this tab! Please rate:
print report bad tab
1 2 3 4 5
I want to post or [tab]
guest
You may want to rate the tab now too:
select rating
Please do not post tabs as comments. Select "correction" instead!