Oops, an error
Loading. Please wait.

A Thousand Hands On The Maid Of Ruin Tab

739 views 1 this week
no commentswrite comment
1 2 3 4 5
excellent!
x 1
add to favorites launch autoscroll
font size
0
reset
Autoscroll
+/-
esc
set tempo
stop
Difficulty
Tuning
novice
D G C F A D
WARNING: You are trying to view
                                    content from Ultimate-Guitar.com
                                    in an unauthorized application,
                                    which is prohibited.

                                    Please use an official Ultimate
                                    Guitar Tabs application for iPhone,
                                    iPad or Android to access legitimate
                                    chords, guitar, bass, and drum tabs
                                    from Ultimate-Guitar.com database.

                                    Type "ultimate guitar tabs" in Apple
                                    App Store's or Android Market's
                                    search to find the application.
                    A Thousand Hands Upon The Maid Of Ruin                      


                                                                 Cradle Of Filth
Traccia 1



     W                   W                   W                 
D||-------------------|-------------------|-------------------|
A||-------------------|-------------------|-------------------|
F||-------------------|-------------------|-------------------|
C||-------------------|-------------------|-------------------|
G||--2----------------|--L----------------|--6----------------|
D||--0----------------|--L----------------|--4----------------|


  S S E  Q    S S E  Q       W                   W                 
--------------------------|-------------------|-------------------|
--------------------------|-------------------|-------------------|
--------------------------|-------------------|-------------------|
--------------------------|-------------------|-------------------|
---------8-----------3----|--2----------------|--L----------------|
--4-4-4--6----0-0-0--1----|--0----------------|--L----------------|


  W                   S S E  Q    S S E  Q       W                 
-------------------|--------------------------|-------------------|
-------------------|--------------------------|-------------------|
-------------------|--------------------------|-------------------|
-------------------|--------------------------|-------------------|
--6----------------|---------8-----------3----|--2----------------|
--4----------------|--4-4-4--6----0-0-0--1----|--0----------------|


  W                   W                   S S E  Q    S S E  Q     
-------------------|-------------------|--------------------------|
-------------------|-------------------|--------------------------|
-------------------|-------------------|--------------------------|
-------------------|-------------------|--------------------------|
--L----------------|--6----------------|---------8-----------3----|
--L----------------|--4----------------|--4-4-4--6----0-0-0--1----|


  W                   W                   W                 
-------------------|-------------------|-------------------|
-------------------|-------------------|-------------------|
-------------------|-------------------|-------------------|
-------------------|-------------------|-------------------|
--2----------------|--L----------------|--6----------------|
--0----------------|--L----------------|--4----------------|


  S S E  Q    S S E  Q       W                   W                 
--------------------------|-------------------|-------------------|
--------------------------|-------------------|-------------------|
--------------------------|-------------------|-------------------|
--------------------------|-------------------|-------------------|
---------8-----------3----|--2----------------|--L----------------|
--4-4-4--6----0-0-0--1----|--0----------------|--L----------------|


  W                   S S E  Q    S S E  Q       W                 
-------------------|--------------------------|-------------------|
-------------------|--------------------------|-------------------|
-------------------|--------------------------|-------------------|
-------------------|--------------------------|-------------------|
--6----------------|---------8-----------3----|--2----------------|
--4----------------|--4-4-4--6----0-0-0--1----|--0----------------|


  W                   W                   S S E  Q    S S E  Q     
-------------------|-------------------|--------------------------|
-------------------|-------------------|--------------------------|
-------------------|-------------------|--------------------------|
-------------------|-------------------|--------------------------|
--L----------------|--6----------------|---------8-----------3----|
--L----------------|--4----------------|--4-4-4--6----0-0-0--1----|


  W                   W                   W                 
-------------------|-------------------|-------------------|
-------------------|-------------------|-------------------|
-------------------|-------------------|-------------------|
-------------------|-------------------|-------------------|
--2----------------|--L----------------|--6----------------|
--0----------------|--L----------------|--4----------------|


  S S E  Q    S S E  Q       W                   W                 
--------------------------|-------------------|-------------------|
--------------------------|-------------------|-------------------|
--------------------------|-------------------|-------------------|
--------------------------|-------------------|-------------------|
---------8-----------3----|--2----------------|--L----------------|
--4-4-4--6----0-0-0--1----|--0----------------|--L----------------|


  W                   S S E  Q    S S E  Q       Q    Q    Q    Q             
-------------------|--------------------------|----------------------|-------|
-------------------|--------------------------|----------------------|-------|
-------------------|--------------------------|----------------------|-------|
-------------------|--------------------------|--4-------------------|-------|
--6----------------|---------8-----------3----|--2-------------------|-------|
--4----------------|--4-4-4--6----0-0-0--1----|--2-------------------|-------|


                  W                   W                   W                 
-------|-------|-------------------|-------------------|-------------------|
-------|-------|-------------------|-------------------|-------------------|
-------|-------|-------------------|-------------------|-------------------|
-------|-------|-------------------|-------------------|-------------------|
-------|-------|-------------------|-------------------|-------------------|
-------|-------|-------------------|-------------------|-------------------|


  W                   Q    Q    Q    Q       Q    Q    Q    Q                   
-------------------|----------------------|----------------------|-------|-----|
-------------------|----------------------|----------------------|-------|-----|
-------------------|----------------------|----------------------|-------|-----|
-------------------|--4-------------------|------------4----4----|-------|-----|
-------------------|--2-------------------|------------2----2----|-------|-----|
-------------------|--2-------------------|------------2----2----|-------|-----|


  Q    Q    Q    Q       Q    Q    Q    Q       Q    Q    Q    Q     
----------------------|----------------------|----------------------|
----------------------|----------------------|----------------------|
----------------------|----------------------|----------------------|
-------3----4----5----|-------5----6----7----|-------7----8----9----|
-------1----2----3----|-------3----4----5----|-------5----6----7----|
----------------------|----------------------|----------------------|


  Q    Q     Q     Q       Q    S S S S S S S S S S S S  
------------------------|-------------------------------|
------------------------|-------------------------------|
------------------------|-------------------------------|
-------9----10----11----|-------------------------------|
-------7-----8-----9----|--9----------------------------|
------------------------|--7----7-7-7-7-7-7-7-7-7-7-7-7-|


  S S S S S S S S Q    E   E     Q    S S S S S S S S S S S S  
------------------------------|-------------------------------|
------------------------------|-------------------------------|
------------------------------|-------------------------------|
------------------------------|-------------------------------|
------------------7----9--10--|--9----------------------------|
--7-7-7-7-7-7-7-7-5----7---8--|--7----7-7-7-7-7-7-7-7-7-7-7-7-|


  S S S S S S S S Q     E  E      Q.      Q.     E  E     Q.     Q.     Q     
------------------------------|------------------------|---------------------|
------------------------------|------------------------|---------------------|
------------------------------|------------------------|---------------------|
------------------------------|------------------------|---------------------|
------------------7----10--9--|--10------10------------|--4------5------4----|
--7-7-7-7-7-7-7-7-5-----8--7--|---8-------8------7--8--|--2------3------2----|


  Q    S S S S S S S S S S S S    Q    Q    Q    Q     
-------------------------------|----------------------|
-------------------------------|----------------------|
-------------------------------|----------------------|
-------------------------------|----------------------|
--5----------------------------|--7----8----7----5----|
--3----3-3-3-3-3-3-3-3-3-3-3-3-|--5----6----5----3----|


  Q    S S S S S S S S S S S S    S S S S S S S S Q    E   E   
-------------------------------|------------------------------|
-------------------------------|------------------------------|
-------------------------------|------------------------------|
-------------------------------|------------------------------|
--9----------------------------|------------------7----9--10--|
--7----7-7-7-7-7-7-7-7-7-7-7-7-|--7-7-7-7-7-7-7-7-5----7---8--|


  Q    S S S S S S S S S S S S    S S S S S S S S Q     E  E   
-------------------------------|------------------------------|
-------------------------------|------------------------------|
-------------------------------|------------------------------|
-------------------------------|------------------------------|
--9----------------------------|------------------7----10--9--|
--7----7-7-7-7-7-7-7-7-7-7-7-7-|--7-7-7-7-7-7-7-7-5-----8--7--|


   Q.      Q.     E  E     Q.     Q.     Q       Q    S S S S S S S S S S S S  
------------------------|---------------------|-------------------------------|
------------------------|---------------------|-------------------------------|
------------------------|---------------------|-------------------------------|
------------------------|---------------------|-------------------------------|
--10------10------------|--4------5------4----|--5----------------------------|
---8-------8------7--8--|--2------3------2----|--3----3-3-3-3-3-3-3-3-3-3-3-3-|


  Q    Q    Q    Q       S S S S S S S S S S S S S S S S  
----------------------|----------------------------------|
----------------------|----------------------------------|
----------------------|----------------------------------|
----------------------|----------------------------------|
--7----8----7----5----|--5-5-5-5-5-5-5-5-5-5-5-5-5-5-5-5-|
--5----6----5----3----|----------------------------------|


  S S S S S S S S S S S S S S S S    S S S S S S S S S S S S S S S S  
----------------------------------|----------------------------------|
----------------------------------|----------------------------------|
----------------------------------|----------------------------------|
----------------------------------|----------------------------------|
--8-8-8-8-8-8-8-8-7-7-7-7-8-8-8-8-|--1-1-1-1-1-1-1-1-1-1-1-1-1-1-1-1-|
----------------------------------|----------------------------------|


  Q    Q    Q    Q       S S S S S S S S S S S S S S S S  
----------------------|----------------------------------|
----------------------|----------------------------------|
----------------------|----------------------------------|
--7----8----7----5----|----------------------------------|
--5----6----5----3----|--5-5-5-5-5-5-5-5-5-5-5-5-5-5-5-5-|
----------------------|----------------------------------|


  S S S S S S S S S S S S S S S S  
----------------------------------|
----------------------------------|
----------------------------------|
----------------------------------|
--8-8-8-8-8-8-8-8-7-7-7-7-8-8-8-8-|
----------------------------------|


   S  S  S  S  S  S  S  S  S  S  S  S  S  S  S  S    E  E   E  Q    E  E  E   
--------------------------------------------------|--------------------------|
--------------------------------------------------|--------------------------|
--------------------------------------------------|--------------------------|
--------------------------------------------------|-----------------5--8--7--|
--10-10-10-10-10-10-10-10-10-10-10-10-10-10-10-10-|--7--8--10--7-------------|
--------------------------------------------------|--------------------------|


  S S S S S S S S S S S S S S S S    S S S S S S S S S S S S S S S S  
----------------------------------|----------------------------------|
----------------------------------|----------------------------------|
----------------------------------|----------------------------------|
----------------------------------|----------------------------------|
--5-5-5-5-5-5-5-5-5-5-5-5-5-5-5-5-|--8-8-8-8-8-8-8-8-7-7-7-7-8-8-8-8-|
----------------------------------|----------------------------------|


  S S S S S S S S S S S S S S S S    Q    Q    Q    Q     
----------------------------------|----------------------|
----------------------------------|----------------------|
----------------------------------|----------------------|
----------------------------------|--7----8----7----5----|
--1-1-1-1-1-1-1-1-1-1-1-1-1-1-1-1-|--5----6----5----3----|
----------------------------------|----------------------|


  S S S S S S S S S S S S S S S S    S S S S S S S S S S S S S S S S  
----------------------------------|----------------------------------|
----------------------------------|----------------------------------|
----------------------------------|----------------------------------|
----------------------------------|----------------------------------|
--5-5-5-5-5-5-5-5-5-5-5-5-5-5-5-5-|--8-8-8-8-8-8-8-8-7-7-7-7-8-8-8-8-|
----------------------------------|----------------------------------|


   S  S  S  S  S  S  S  S  S  S  S  S  S  S  S  S    E  E   E  Q    E  E  E   
--------------------------------------------------|--------------------------|
--------------------------------------------------|--------------------------|
--------------------------------------------------|--------------------------|
--------------------------------------------------|-----------------5--8--7--|
--10-10-10-10-10-10-10-10-10-10-10-10-10-10-10-10-|--7--8--10--7-------------|
--------------------------------------------------|--------------------------|


  H        H           W                   Q.     Q.     Q     
--------------------|-------------------|---------------------|
--------------------|-------------------|---------------------|
--------------------|-------------------|---------------------|
--------------------|-------------------|---------------------|
--5--------4--------|--L----------------|--6------5------3----|
--5--------4--------|--L----------------|--4------3------1----|


  Q.     Q.     Q       H        H           W                 
---------------------|--------------------|-------------------|
---------------------|--------------------|-------------------|
---------------------|--------------------|-------------------|
---------------------|--------------------|-------------------|
--6------5------3----|--5--------4--------|--L----------------|
--4------3------1----|--5--------4--------|--L----------------|


  Q.     Q.     Q       Q.     Q.     Q       H        H         
---------------------|---------------------|--------------------|
---------------------|---------------------|--------------------|
---------------------|---------------------|--------------------|
---------------------|---------------------|--------------------|
--6------5------3----|--6------5------3----|--5--------4--------|
--4------3------1----|--4------3------1----|--5--------4--------|


  W                   Q.     Q.     Q       Q.     Q.     Q     
-------------------|---------------------|---------------------|
-------------------|---------------------|---------------------|
-------------------|---------------------|---------------------|
-------------------|---------------------|---------------------|
--L----------------|--6------5------3----|--6------5------3----|
--L----------------|--4------3------1----|--4------3------1----|


  H        H           W                   Q.     Q.     Q     
--------------------|-------------------|---------------------|
--------------------|-------------------|---------------------|
--------------------|-------------------|---------------------|
--------------------|-------------------|---------------------|
--5--------4--------|--L----------------|--6------5------3----|
--5--------4--------|--L----------------|--4------3------1----|


  Q.     Q.     Q       E  E  Q    E  E  E  E                           
---------------------|-------------------------|-------|-------|-------|
---------------------|-------------------------|-------|-------|-------|
---------------------|-------------------------|-------|-------|-------|
---------6------8----|-------------------------|-------|-------|-------|
--6------4------6----|--2--2--2----------------|-------|-------|-------|
--4------------------|--0--0--0----------------|-------|-------|-------|


  E  E  Q    Q    Q               S S S S  S  S  S  S  S  S  S  S S S S S  
-----------------------|-------|------------------------------------------|
-----------------------|-------|------------------------------------------|
-----------------------|-------|------------------------------------------|
-----------------------|-------|------------------------------------------|
--2--2--2--------------|-------|--8-8-8-8-10-10-10-10-11-11-11-11-8-8-8-8-|
--0--0--0--------------|-------|------------------------------------------|


   S  S  S  S  S  S  S  S S S S S  S  S  S  S  
----------------------------------------------|
----------------------------------------------|
----------------------------------------------|
--------------------------8-8-8-8-------------|
--10-10-10-10-11-11-11-11---------11-11-11-11-|
----------------------------------------------|


  S S S S S S S S S S S S S S S S    S S S S S S S S  S  S  S  S  S  S  S  S  
----------------------------------|------------------------------------------|
----------------------------------|------------------------------------------|
----------------------------------|------------------------------------------|
----------------------------------|------------------------------------------|
--7-7-7-7-7-7-7-7-7-7-7-7-7-7-7-7-|--8-8-8-8-8-8-8-8-10-10-10-10-10-10-10-10-|
----------------------------------|------------------------------------------|


  S S S S S S S S S S S S S S S S  
----------------------------------|
----------------------------------|
----------------------------------|
----------------------------------|
--8-8-8-8-8-8-8-8-8-8-8-8-8-8-8-8-|
----------------------------------|


   S  S  S  S  S  S  S  S  S  S  S  S  S  S  S  S  
--------------------------------------------------|
--------------------------------------------------|
--------------------------------------------------|
--------------------------------------------------|
--10-10-10-10-10-10-10-10-11-11-11-11-11-11-11-11-|
--------------------------------------------------|


  S S S S S S S S S S S S S S S S    S S S S S S S S  S  S  S  S  S  S  S  S  
----------------------------------|------------------------------------------|
----------------------------------|------------------------------------------|
----------------------------------|------------------------------------------|
----------------------------------|------------------------------------------|
--7-7-7-7-7-7-7-7-7-7-7-7-7-7-7-7-|--8-8-8-8-8-8-8-8-10-10-10-10-10-10-10-10-|
----------------------------------|------------------------------------------|


  S S S S  S  S  S  S  S  S  S  S S S S S  
------------------------------------------|
------------------------------------------|
------------------------------------------|
------------------------------------------|
--8-8-8-8-10-10-10-10-11-11-11-11-8-8-8-8-|
------------------------------------------|


   S  S  S  S  S  S  S  S S S S S  S  S  S  S  
----------------------------------------------|
----------------------------------------------|
----------------------------------------------|
--------------------------8-8-8-8-------------|
--10-10-10-10-11-11-11-11---------11-11-11-11-|
----------------------------------------------|


  S S S S S S S S S S S S S S S S    S S S S S S S S  S  S  S  S  S  S  S  S  
----------------------------------|------------------------------------------|
----------------------------------|------------------------------------------|
----------------------------------|------------------------------------------|
----------------------------------|------------------------------------------|
--7-7-7-7-7-7-7-7-7-7-7-7-7-7-7-7-|--8-8-8-8-8-8-8-8-10-10-10-10-10-10-10-10-|
----------------------------------|------------------------------------------|


  S S S S S S S S S S S S S S S S  
----------------------------------|
----------------------------------|
----------------------------------|
----------------------------------|
--8-8-8-8-8-8-8-8-8-8-8-8-8-8-8-8-|
----------------------------------|


   S  S  S  S  S  S  S  S  S  S  S  S  S  S  S  S  
--------------------------------------------------|
--------------------------------------------------|
--------------------------------------------------|
--------------------------------------------------|
--10-10-10-10-10-10-10-10-11-11-11-11-11-11-11-11-|
--------------------------------------------------|


  S S S S S S S S S S S S S S S S    S S S S S S S S  S  S  S  S  S  S  S  S  
----------------------------------|------------------------------------------|
----------------------------------|------------------------------------------|
----------------------------------|------------------------------------------|
----------------------------------|------------------------------------------|
--7-7-7-7-7-7-7-7-7-7-7-7-7-7-7-7-|--8-8-8-8-8-8-8-8-10-10-10-10-10-10-10-10-|
----------------------------------|------------------------------------------|


  S S S S  S  S  S  S  S  S  S  S S S S S  
------------------------------------------|
------------------------------------------|
------------------------------------------|
------------------------------------------|
--8-8-8-8-10-10-10-10-11-11-11-11-8-8-8-8-|
------------------------------------------|


   S  S  S  S  S  S  S  S S S S S  S  S  S  S  
----------------------------------------------|
----------------------------------------------|
----------------------------------------------|
--------------------------8-8-8-8-------------|
--10-10-10-10-11-11-11-11---------11-11-11-11-|
----------------------------------------------|


  S S S S S S S S S S S S S S S S    S S S S S S S S S S S S S S S S  
----------------------------------|----------------------------------|
----------------------------------|----------------------------------|
----------------------------------|----------------------------------|
----------------------------------|----------------------------------|
----------------------------------|--5-5-5-5-5-5-5-5-6-6-6-6-6-6-6-6-|
--3-3-3-3-3-3-3-3-3-3-3-3-3-3-3-3-|----------------------------------|


  S S S S S S S S S S S S S S S S    S S S S S S S S S S S S S S S S  
----------------------------------|----------------------------------|
----------------------------------|----------------------------------|
----------------------------------|----------------------------------|
----------------------------------|----------------------------------|
----------------------------------|--6-6-6-6-6-6-6-6-8-8-8-8-6-6-6-6-|
--4-4-4-4-4-4-4-4-4-4-4-4-4-4-4-4-|----------------------------------|


  S S S S S S S S S S S S S S S S    S S S S S S S S S S S S S S S S  
----------------------------------|----------------------------------|
----------------------------------|----------------------------------|
----------------------------------|----------------------------------|
----------------------------------|----------------------------------|
----------------------------------|--5-5-5-5-5-5-5-5-6-6-6-6-6-6-6-6-|
--3-3-3-3-3-3-3-3-3-3-3-3-3-3-3-3-|----------------------------------|


  S S S S S S S S S S S S S S S S    S S S S S S S S S S S S S S S S  
----------------------------------|----------------------------------|
----------------------------------|----------------------------------|
----------------------------------|----------------------------------|
----------------------------------|----------------------------------|
----------5-5-5-5-6-6-6-6---------|--5-5-5-5-6-6-6-6-8-8-8-8-6-6-6-6-|
--4-4-4-4-----------------4-4-4-4-|----------------------------------|


  S S S S S S S S S S S S S S S S    S S S S S S S S S S S S S S S S  
----------------------------------|----------------------------------|
----------------------------------|----------------------------------|
----------------------------------|----------------------------------|
----------------------------------|----------------------------------|
----------------------------------|--5-5-5-5-5-5-5-5-6-6-6-6-6-6-6-6-|
--3-3-3-3-3-3-3-3-3-3-3-3-3-3-3-3-|----------------------------------|


  S S S S S S S S S S S S S S S S    S S S S S S S S S S S S S S S S  
----------------------------------|----------------------------------|
----------------------------------|----------------------------------|
----------------------------------|----------------------------------|
----------------------------------|----------------------------------|
----------------------------------|--6-6-6-6-6-6-6-6-8-8-8-8-6-6-6-6-|
--4-4-4-4-4-4-4-4-4-4-4-4-4-4-4-4-|----------------------------------|


  S S S S S S S S S S S S S S S S    S S S S S S S S S S S S S S S S  
----------------------------------|----------------------------------|
----------------------------------|----------------------------------|
----------------------------------|----------------------------------|
----------------------------------|----------------------------------|
----------------------------------|--5-5-5-5-5-5-5-5-6-6-6-6-6-6-6-6-|
--3-3-3-3-3-3-3-3-3-3-3-3-3-3-3-3-|----------------------------------|


  S S S S S S S S S S S S S S S S    S S S S S S S S S S S S S S S S  
----------------------------------|----------------------------------|
----------------------------------|----------------------------------|
----------------------------------|----------------------------------|
----------------------------------|----------------------------------|
----------5-5-5-5-6-6-6-6---------|--5-5-5-5-6-6-6-6-8-8-8-8-6-6-6-6-|
--4-4-4-4-----------------4-4-4-4-|----------------------------------|


  H        H           W                   Q.     Q.     Q     
--------------------|-------------------|---------------------|
--------------------|-------------------|---------------------|
--------------------|-------------------|---------------------|
--------------------|-------------------|---------------------|
--5--------4--------|--L----------------|--6------5------3----|
--5--------4--------|--L----------------|--4------3------1----|


  Q.     Q.     Q       H        H           W                 
---------------------|--------------------|-------------------|
---------------------|--------------------|-------------------|
---------------------|--------------------|-------------------|
---------------------|--------------------|-------------------|
--6------5------3----|--5--------4--------|--L----------------|
--4------3------1----|--5--------4--------|--L----------------|


  Q.     Q.     Q       Q.     Q.     Q       H        H         
---------------------|---------------------|--------------------|
---------------------|---------------------|--------------------|
---------------------|---------------------|--------------------|
---------------------|---------------------|--------------------|
--6------5------3----|--6------5------3----|--5--------4--------|
--4------3------1----|--4------3------1----|--5--------4--------|


  W                   Q.     Q.     Q       Q.     Q.     Q     
-------------------|---------------------|---------------------|
-------------------|---------------------|---------------------|
-------------------|---------------------|---------------------|
-------------------|---------------------|---------------------|
--L----------------|--6------5------3----|--6------5------3----|
--L----------------|--4------3------1----|--4------3------1----|


  H        H           W                   Q.     Q.     Q     
--------------------|-------------------|---------------------|
--------------------|-------------------|---------------------|
--------------------|-------------------|---------------------|
--------------------|-------------------|---------------------|
--5--------4--------|--L----------------|--6------5------3----|
--5--------4--------|--L----------------|--4------3------1----|


  Q.     Q.     Q       H        H           W                 
---------------------|--------------------|-------------------|
---------------------|--------------------|-------------------|
---------------------|--------------------|-------------------|
---------------------|--------------------|-------------------|
--6------5------3----|--5--------4--------|--L----------------|
--4------3------1----|--5--------4--------|--L----------------|


  W                   W                   H        H         
-------------------|-------------------|--------------------|
-------------------|-------------------|--------------------|
-------------------|-------------------|--------------------|
-------------------|-------------------|--------------------|
--L----------------|--L----------------|--5--------4--------|
--L----------------|--L----------------|--5--------4--------|


  W                   W                   W                 
-------------------|-------------------|-------------------|
-------------------|-------------------|-------------------|
-------------------|-------------------|-------------------|
-------------------|-------------------|-------------------|
--L----------------|--L----------------|--L----------------|
--L----------------|--L----------------|--L----------------|


  S S S S S S S S S S S S S S S S    S S S S S S S S S S S S S S S S  
----------------------------------|----------------------------------|
----------------------------------|----------------------------------|
----------------------------------|----------------------------------|
----------------------------------|----------------------------------|
--3-3-3-3-3-3-3-3-3-3-3-3-3-3-3-3-|--4-4-4-4-4-4-1-1-1-1-1-1-4-4-4-4-|
----------------------------------|----------------------------------|


  S S S S S S S S S S S S S S S S    S S S S S S S S S S S S S S S S  
----------------------------------|----------------------------------|
----------------------------------|----------------------------------|
----------------------------------|----------------------------------|
----------------------------------|----------------------------------|
--3-3-3-3-3-3-3-3-3-3-3-3-3-3-3-3-|--6-6-6-6-6-6-4-4-4-4-4-4-6-6-6-6-|
----------------------------------|----------------------------------|


  S S S S S S S S S S S S S S S S    S S S S S S S S S S S S S S S S  
----------------------------------|----------------------------------|
----------------------------------|----------------------------------|
----------------------------------|----------------------------------|
----------------------------------|----------------------------------|
--7-7-7-7-7-7-7-7-7-7-7-7-7-7-7-7-|--8-8-8-8-8-8-8-8-8-8-8-8-8-8-8-8-|
----------------------------------|----------------------------------|


   S  S  S  S  S  S  S  S  S  S  S  S  S  S  S  S  
--------------------------------------------------|
--------------------------------------------------|
--------------------------------------------------|
--------------------------------------------------|
--10-10-10-10-10-10-10-10-10-10-10-10-10-10-10-10-|
--------------------------------------------------|


   S  S  S  S  S  S  S  S  S  S  S  S  S  S  S  S  
--------------------------------------------------|
--------------------------------------------------|
--------------------------------------------------|
--------------------------------------------------|
--11-11-11-11-11-11-11-11-11-11-11-11-11-11-11-11-|
--------------------------------------------------|


  S S S S S S S S S S S S S S S S    S S S S S S S S S S S S S S S S  
----------------------------------|----------------------------------|
----------------------------------|----------------------------------|
----------------------------------|----------------------------------|
----------------------------------|----------------------------------|
--3-3-3-3-3-3-3-3-3-3-3-3-3-3-3-3-|--4-4-4-4-4-4-1-1-1-1-1-1-4-4-4-4-|
----------------------------------|----------------------------------|


  S S S S S S S S S S S S S S S S    S S S S S S S S S S S S S S S S  
----------------------------------|----------------------------------|
----------------------------------|----------------------------------|
----------------------------------|----------------------------------|
----------------------------------|----------------------------------|
--3-3-3-3-3-3-3-3-3-3-3-3-3-3-3-3-|--6-6-6-6-6-6-4-4-4-4-4-4-6-6-6-6-|
----------------------------------|----------------------------------|


  S S S S S S S S S S S S S S S S    S S S S S S S S S S S S S S S S  
----------------------------------|----------------------------------|
----------------------------------|----------------------------------|
----------------------------------|----------------------------------|
----------------------------------|----------------------------------|
--7-7-7-7-7-7-7-7-7-7-7-7-7-7-7-7-|--8-8-8-8-8-8-8-8-8-8-8-8-8-8-8-8-|
----------------------------------|----------------------------------|


   S  S  S  S  S  S  S  S  S  S  S  S  S  S  S  S  
--------------------------------------------------|
--------------------------------------------------|
--------------------------------------------------|
--------------------------------------------------|
--10-10-10-10-10-10-10-10-10-10-10-10-10-10-10-10-|
--------------------------------------------------|


   S  S  S  S  S  S  S  S  S  S  S  S  S  S  S  S    Q.      E  Q    Q     
--------------------------------------------------|-----------------------|
--------------------------------------------------|-----------------------|
--------------------------------------------------|-----------------------|
--------------------------------------------------|-----------------------|
--11-11-11-11-11-11-11-11-11-11-11-11-11-11-11-11-|--2\-------------------|
--------------------------------------------------|--0\-------------------|


                  S S E  Q    S S E  Q       Q.      E  Q    Q             
-------|-------|--------------------------|-----------------------|-------|
-------|-------|--------------------------|-----------------------|-------|
-------|-------|--------------------------|-----------------------|-------|
-------|-------|--------------------------|-----------------------|-------|
-------|-------|---------8-----------3----|--2\-------------------|-------|
-------|-------|--4-4-4--6----0-0-0--1----|--0\-------------------|-------|


          S S E  Q    S S E  Q       W                   W                 
-------|--------------------------|-------------------|-------------------|
-------|--------------------------|-------------------|-------------------|
-------|--------------------------|-------------------|-------------------|
-------|--------------------------|-------------------|-------------------|
-------|---------8-----------3----|--2----------------|--L----------------|
-------|--4-4-4--6----0-0-0--1----|--0----------------|--L----------------|


  W                   S S E  Q    S S E  Q       W                 
-------------------|--------------------------|-------------------|
-------------------|--------------------------|-------------------|
-------------------|--------------------------|-------------------|
-------------------|--------------------------|-------------------|
--6----------------|---------8-----------3----|--2----------------|
--4----------------|--4-4-4--6----0-0-0--1----|--0----------------|


  W                   W                   S S E  Q    S S E  Q     
-------------------|-------------------|--------------------------|
-------------------|-------------------|--------------------------|
-------------------|-------------------|--------------------------|
-------------------|-------------------|--------------------------|
--L----------------|--6----------------|---------8-----------3----|
--L----------------|--4----------------|--4-4-4--6----0-0-0--1----|


  W                   W                   W                 
-------------------|-------------------|-------------------|
-------------------|-------------------|-------------------|
-------------------|-------------------|-------------------|
-------------------|-------------------|-------------------|
--2----------------|--L----------------|--6----------------|
--0----------------|--L----------------|--4----------------|


  S S E  Q    S S E  Q       W                   W                 
--------------------------|-------------------|-------------------|
--------------------------|-------------------|-------------------|
--------------------------|-------------------|-------------------|
--------------------------|-------------------|-------------------|
---------8-----------3----|--2----------------|--L----------------|
--4-4-4--6----0-0-0--1----|--0----------------|--L----------------|


  W                   S S E  Q    S S E  Q       W                 
-------------------|--------------------------|-------------------|
-------------------|--------------------------|-------------------|
-------------------|--------------------------|-------------------|
-------------------|--------------------------|-------------------|
--6----------------|---------8-----------3----|--8----------------|
--4----------------|--4-4-4--6----0-0-0--1----|--6----------------|


  W                   W                   W                   W                 
-------------------|-------------------|-------------------|-------------------|
-------------------|-------------------|-------------------|-------------------|
-------------------|-------------------|-------------------|-------------------|
-------------------|-------------------|-------------------|-------------------|
--7----------------|--4----------------|--L----------------|--8----------------|
--5----------------|--2----------------|--L----------------|--6----------------|


  W                   W                   W                   W                 
-------------------|-------------------|-------------------|-------------------|
-------------------|-------------------|-------------------|-------------------|
-------------------|-------------------|-------------------|-------------------|
-------------------|-------------------|-------------------|-------------------|
--7----------------|--5----------------|--L----------------|--8----------------|
--5----------------|--3----------------|--L----------------|--6----------------|


  W                   W                   W                   W                 
-------------------|-------------------|-------------------|-------------------|
-------------------|-------------------|-------------------|-------------------|
-------------------|-------------------|-------------------|-------------------|
-------------------|-------------------|-------------------|-------------------|
--7----------------|--4----------------|--L----------------|--8----------------|
--5----------------|--2----------------|--L----------------|--6----------------|


  W                   W                   W                   W                 
-------------------|-------------------|-------------------|-------------------|
-------------------|-------------------|-------------------|-------------------|
-------------------|-------------------|-------------------|-------------------|
-------------------|-------------------|-------------------|-------------------|
--7----------------|--5----------------|--L----------------|--8----------------|
--5----------------|--3----------------|--L----------------|--6----------------|


  W                   W                   W                   W                 
-------------------|-------------------|-------------------|-------------------|
-------------------|-------------------|-------------------|-------------------|
-------------------|-------------------|-------------------|-------------------|
-------------------|-------------------|-------------------|-------------------|
--7----------------|--4----------------|--L----------------|--8----------------|
--5----------------|--2----------------|--L----------------|--6----------------|


  W                   W                   W                   W                 
-------------------|-------------------|-------------------|-------------------|
-------------------|-------------------|-------------------|-------------------|
-------------------|-------------------|-------------------|-------------------|
-------------------|-------------------|-------------------|-------------------|
--7----------------|--5----------------|--L----------------|--8----------------|
--5----------------|--3----------------|--L----------------|--6----------------|


  W                   W                   W                   W                 
-------------------|-------------------|-------------------|-------------------|
-------------------|-------------------|-------------------|-------------------|
-------------------|-------------------|-------------------|-------------------|
-------------------|-------------------|-------------------|-------------------|
--7----------------|--4----------------|--L----------------|--8----------------|
--5----------------|--2----------------|--L----------------|--6----------------|


  W                   W                   W                 
-------------------|-------------------|-------------------|
-------------------|-------------------|-------------------|
-------------------|-------------------|-------------------|
-------------------|-------------------|-------------------|
--7----------------|--5----------------|--L----------------|
--5----------------|--3----------------|--L----------------|


  Q    Q    Q    Q                               W                 
----------------------|-------|-------|-------|-------------------|
----------------------|-------|-------|-------|-------------------|
----------------------|-------|-------|-------|-------------------|
--4-------------------|-------|-------|-------|-------------------|
--2-------------------|-------|-------|-------|-------------------|
--2-------------------|-------|-------|-------|-------------------|


  W                   W                   W                 
-------------------|-------------------|-------------------|
-------------------|-------------------|-------------------|
-------------------|-------------------|-------------------|
-------------------|-------------------|-------------------|
-------------------|-------------------|-------------------|
-------------------|-------------------|-------------------|


  Q    Q    Q    Q       Q    Q    Q    Q                   
----------------------|----------------------|-------|-----|
----------------------|----------------------|-------|-----|
----------------------|----------------------|-------|-----|
--4-------------------|------------4----4----|-------|-----|
--2-------------------|------------2----2----|-------|-----|
--2-------------------|------------2----2----|-------|-----|


  Q    Q    Q    Q       Q    Q    Q    Q       Q    Q    Q    Q     
----------------------|----------------------|----------------------|
----------------------|----------------------|----------------------|
----------------------|----------------------|----------------------|
-------3----4----5----|-------5----6----7----|-------7----8----9----|
-------1----2----3----|-------3----4----5----|-------5----6----7----|
----------------------|----------------------|----------------------|


  Q    Q     Q     Q       Q    S S S S S S S S S S S S  
------------------------|-------------------------------|
------------------------|-------------------------------|
------------------------|-------------------------------|
-------9----10----11----|-------------------------------|
-------7-----8-----9----|--9----------------------------|
------------------------|--7----7-7-7-7-7-7-7-7-7-7-7-7-|


  S S S S S S S S Q    E   E     Q    S S S S S S S S S S S S  
------------------------------|-------------------------------|
------------------------------|-------------------------------|
------------------------------|-------------------------------|
------------------------------|-------------------------------|
------------------7----9--10--|--9----------------------------|
--7-7-7-7-7-7-7-7-5----7---8--|--7----7-7-7-7-7-7-7-7-7-7-7-7-|


  S S S S S S S S Q     E  E      Q.      Q.     E  E     Q.     Q.     Q     
------------------------------|------------------------|---------------------|
------------------------------|------------------------|---------------------|
------------------------------|------------------------|---------------------|
------------------------------|------------------------|---------------------|
------------------7----10--9--|--10------10------------|--4------5------4----|
--7-7-7-7-7-7-7-7-5-----8--7--|---8-------8------7--8--|--2------3------2----|


  Q    S S S S S S S S S S S S    Q    Q    Q    Q     
-------------------------------|----------------------|
-------------------------------|----------------------|
-------------------------------|----------------------|
-------------------------------|----------------------|
--5----------------------------|--7----8----7----5----|
--3----3-3-3-3-3-3-3-3-3-3-3-3-|--5----6----5----3----|


  Q    S S S S S S S S S S S S    S S S S S S S S Q    E   E   
-------------------------------|------------------------------|
-------------------------------|------------------------------|
-------------------------------|------------------------------|
-------------------------------|------------------------------|
--9----------------------------|------------------7----9--10--|
--7----7-7-7-7-7-7-7-7-7-7-7-7-|--7-7-7-7-7-7-7-7-5----7---8--|


  Q    S S S S S S S S S S S S    S S S S S S S S Q     E  E   
-------------------------------|------------------------------|
-------------------------------|------------------------------|
-------------------------------|------------------------------|
-------------------------------|------------------------------|
--9----------------------------|------------------7----10--9--|
--7----7-7-7-7-7-7-7-7-7-7-7-7-|--7-7-7-7-7-7-7-7-5-----8--7--|


   Q.      Q.     E  E     Q.     Q.     Q       Q    S S S S S S S S S S S S  
------------------------|---------------------|-------------------------------|
------------------------|---------------------|-------------------------------|
------------------------|---------------------|-------------------------------|
------------------------|---------------------|-------------------------------|
--10------10------------|--4------5------4----|--5----------------------------|
---8-------8------7--8--|--2------3------2----|--3----3-3-3-3-3-3-3-3-3-3-3-3-|


  Q    Q    Q    Q       S S S S S S S S S S S S S S S S  
----------------------|----------------------------------|
----------------------|----------------------------------|
----------------------|----------------------------------|
----------------------|----------------------------------|
--7----8----7----5----|--5-5-5-5-5-5-5-5-5-5-5-5-5-5-5-5-|
--5----6----5----3----|----------------------------------|


  S S S S S S S S S S S S S S S S    S S S S S S S S S S S S S S S S  
----------------------------------|----------------------------------|
----------------------------------|----------------------------------|
----------------------------------|----------------------------------|
----------------------------------|----------------------------------|
--8-8-8-8-8-8-8-8-7-7-7-7-8-8-8-8-|--1-1-1-1-1-1-1-1-1-1-1-1-1-1-1-1-|
----------------------------------|----------------------------------|


  Q    Q    Q    Q       S S S S S S S S S S S S S S S S  
----------------------|----------------------------------|
----------------------|----------------------------------|
----------------------|----------------------------------|
--7----8----7----5----|----------------------------------|
--5----6----5----3----|--5-5-5-5-5-5-5-5-5-5-5-5-5-5-5-5-|
----------------------|----------------------------------|


  S S S S S S S S S S S S S S S S  
----------------------------------|
----------------------------------|
----------------------------------|
----------------------------------|
--8-8-8-8-8-8-8-8-7-7-7-7-8-8-8-8-|
----------------------------------|


   S  S  S  S  S  S  S  S  S  S  S  S  S  S  S  S    E  E   E  Q    E  E  E   
--------------------------------------------------|--------------------------|
--------------------------------------------------|--------------------------|
--------------------------------------------------|--------------------------|
--------------------------------------------------|-----------------5--8--7--|
--10-10-10-10-10-10-10-10-10-10-10-10-10-10-10-10-|--7--8--10--7-------------|
--------------------------------------------------|--------------------------|


  S S S S S S S S S S S S S S S S    S S S S S S S S S S S S S S S S  
----------------------------------|----------------------------------|
----------------------------------|----------------------------------|
----------------------------------|----------------------------------|
----------------------------------|----------------------------------|
--5-5-5-5-5-5-5-5-5-5-5-5-5-5-5-5-|--8-8-8-8-8-8-8-8-7-7-7-7-8-8-8-8-|
----------------------------------|----------------------------------|


  S S S S S S S S S S S S S S S S    Q    Q    Q    Q     
----------------------------------|----------------------|
----------------------------------|----------------------|
----------------------------------|----------------------|
----------------------------------|--7----8----7----5----|
--1-1-1-1-1-1-1-1-1-1-1-1-1-1-1-1-|--5----6----5----3----|
----------------------------------|----------------------|


  S S S S S S S S S S S S S S S S    S S S S S S S S S S S S S S S S  
----------------------------------|----------------------------------|
----------------------------------|----------------------------------|
----------------------------------|----------------------------------|
----------------------------------|----------------------------------|
--5-5-5-5-5-5-5-5-5-5-5-5-5-5-5-5-|--8-8-8-8-8-8-8-8-7-7-7-7-8-8-8-8-|
----------------------------------|----------------------------------|


   S  S  S  S  S  S  S  S  S  S  S  S  S  S  S  S    E  E   E  Q    E  E  E   
--------------------------------------------------|--------------------------|
--------------------------------------------------|--------------------------|
--------------------------------------------------|--------------------------|
--------------------------------------------------|-----------------5--8--7--|
--10-10-10-10-10-10-10-10-10-10-10-10-10-10-10-10-|--7--8--10--7-------------|
--------------------------------------------------|--------------------------|


  H        H           W                   Q.     Q.     Q     
--------------------|-------------------|---------------------|
--------------------|-------------------|---------------------|
--------------------|-------------------|---------------------|
--------------------|-------------------|---------------------|
--5--------4--------|--L----------------|--6------5------3----|
--5--------4--------|--L----------------|--4------3------1----|


  Q.     Q.     Q       H        H           W                 
---------------------|--------------------|-------------------|
---------------------|--------------------|-------------------|
---------------------|--------------------|-------------------|
---------------------|--------------------|-------------------|
--6------5------3----|--5--------4--------|--L----------------|
--4------3------1----|--5--------4--------|--L----------------|


  Q.     Q.     Q       Q.     Q.     Q       H        H         
---------------------|---------------------|--------------------|
---------------------|---------------------|--------------------|
---------------------|---------------------|--------------------|
---------------------|---------------------|--------------------|
--6------5------3----|--6------5------3----|--5--------4--------|
--4------3------1----|--4------3------1----|--5--------4--------|


  W                   Q.     Q.     Q       Q.     Q.     Q     
-------------------|---------------------|---------------------|
-------------------|---------------------|---------------------|
-------------------|---------------------|---------------------|
-------------------|---------------------|---------------------|
--L----------------|--6------5------3----|--6------5------3----|
--L----------------|--4------3------1----|--4------3------1----|


  H        H           W                   Q.     Q.     Q     
--------------------|-------------------|---------------------|
--------------------|-------------------|---------------------|
--------------------|-------------------|---------------------|
--------------------|-------------------|---------------------|
--5--------4--------|--L----------------|--6------5------3----|
--5--------4--------|--L----------------|--4------3------1----|


  Q.     Q.     Q       E  E  Q    Q    Q                             
---------------------|-----------------------|-------|-------|-------|
---------------------|-----------------------|-------|-------|-------|
---------------------|-----------------------|-------|-------|-------|
---------6------8----|-----------------------|-------|-------|-------|
--6------4------6----|--2--2--2--------------|-------|-------|-------|
--4------------------|--0--0--0--------------|-------|-------|-------|


  E  E  Q    Q    Q               S S S S  S  S  S  S  S  S  S  S S S S S  
-----------------------|-------|------------------------------------------|
-----------------------|-------|------------------------------------------|
-----------------------|-------|------------------------------------------|
-----------------------|-------|------------------------------------------|
--2--2--2--------------|-------|--8-8-8-8-10-10-10-10-11-11-11-11-8-8-8-8-|
--0--0--0--------------|-------|------------------------------------------|


   S  S  S  S  S  S  S  S S S S S  S  S  S  S    W                 
----------------------------------------------|-------------------|
----------------------------------------------|-------------------|
----------------------------------------------|-------------------|
--------------------------8-8-8-8-------------|--2----------------|
--10-10-10-10-11-11-11-11---------11-11-11-11-|--2----------------|
----------------------------------------------|--0----------------|


  W                   W                   W                  
-------------------|-------------------|-------------------||
-------------------|-------------------|-------------------||
-------------------|-------------------|-------------------||
--L----------------|--L----------------|--L----------------||
--L----------------|--L----------------|--L----------------||
--L----------------|--L----------------|--L----------------||




Duration Legend
---------------
W - whole
H - half
Q - quarter
E - 8th
S - 16th
T - 32nd
X - 64th
. - note dotted
|-n-|  - n-tuplets


Tablature Legend
----------------
L - tied note
x - dead note
g - grace note
(n) - ghost note
> - accentuded note
NH - natural harmonic
AH - artificial harmonic
TH - tapped harmonic
SH - semi harmonic
PH - pitch harmonic
h - hammer on
p - pull off
b - bend
br - bendRelease
pb - preBend
pbr - preBendRelease
brb - bendReleaseBend
\n/ - tremolo bar dip
\n - tremolo bar dive
-/n - tremolo bar Release up
/n\ - tremolo bar inverted dip
/n - tremolo bar return
-\n - tremolo bar Release down
S - shift slide
s - legato slide
/ -  slide into from below or out of upwards
\ -  slide into from above or out of downwards
~ - vibrato
W - wide vibrato
tr - trill
TP - tremolo picking
T - tapping
S - slap
P - pop
< - fade in
^ - brush up
v - brush down
comments
We did not receive enough feedback on this tab! Please rate:
1 2 3 4 5
I want to post or [tab]
guest
You may want to rate the tab now too:
select rating
Please do not post tabs as comments. Select "correction" instead!