Oops, an error
Loading. Please wait.

Absinthe With Faust Tab

ver1
ver1

Whole song

Interactive

More versions @911Tabs.com
2,192 views 1 this week
1 commentread comment
1 2 3 4 5
accurate
x 4
Autoscroll
+/-
esc
set tempo
stop
Contributor
Hey! There's an official Ultimate Guitar app which is ideal
for learning songs when you're away from computer. Get the app
WARNING: You are trying to view
                                    content from Ultimate-Guitar.com
                                    in an unauthorized application,
                                    which is prohibited.

                                    Please use an official Ultimate
                                    Guitar Tabs application for iPhone,
                                    iPad or Android to access legitimate
                                    chords, guitar, bass, and drum tabs
                                    from Ultimate-Guitar.com database.

                                    Type "ultimate guitar tabs" in Apple
                                    App Store's or Android Market's
                                    search to find the application.
Band- Cradle Of Filth
Song- Absinthe With Faust

C#||------|------|------|------|------|------|------|------|------|------|
G#||------|------|------|------|------|------|------|------|------|------|
E ||------|------|------|------|------|------|------|------|------|------|
B ||------|------|------|------|------|------|------|------|------|------|
F#||------|------|------|------|------|------|------|------|------|------|
C#||------|------|------|------|------|------|------|------|------|------|


                                                               
------|------|------|------|------|------|--------------------|
------|------|------|------|------|------|--------------------|
------|------|------|------|------|------|--------------------|
------|------|------|------|------|------|--------------------|
------|------|------|------|------|------|--6------------8----|
------|------|------|------|------|------|--4------------6----|


                                                            
-------------------|-------------------|-------------------|
-------------------|-------------------|-------------------|
-------------------|-------------------|-------------------|
-------------------|-------------------|--6----------------|
--9----------------|--4----------------|--4----------------|
--7----------------|--2----------------|-------------------|


                                                             
--------------------|-------------------|-------------------|
--------------------|-------------------|-------------------|
--------------------|-------------------|-------------------|
--------------------|-------------------|-------------------|
--6------------8----|--9----------------|--4----------------|
--4------------6----|--7----------------|--2----------------|


                                                                 
-------------------|-------------------|------------------------|
-------------------|-------------------|------------------------|
-------------------|-------------------|------------------------|
--6----------------|--8----------------|--------------6----5----|
--4----------------|--6----------------|--------------4----3----|
-------------------|-------------------|------------------------|


                                                                 
-------------------|------------------------|-------------------|
-------------------|------------------------|-------------------|
-------------------|------------------------|-------------------|
--4----------------|--------------3----2----|-------------------|
--2----------------|--------------1----0----|--6----------------|
-------------------|------------------------|--4----------------|


                                                                 
------------------------|-------------------|-------------------|
------------------------|-------------------|-------------------|
------------------------|-------------------|-------------------|
------------------------|-------------------|-------------------|
--------------6----5----|--4----------------|--8----------------|
--------------4----3----|--2----------------|--6----------------|


                                                                          
------------------------|-----------------------|------------------------|
------------------------|-----------------------|------------------------|
------------------------|-----------------------|------------------------|
------------------------|-----------------------|------------------------|
--8----8--8----8--8--8--|--8----8--8----8--8----|--8----8--8----8--8--8--|
--6----6--6----6--6--6--|--6----6--6----6--6----|--6----6--6----6--6--6--|


                                                                          
------------------------|------------------------|-----------------------|
------------------------|------------------------|-----------------------|
------------------------|------------------------|-----------------------|
------------------------|------------------------|-----------------------|
--8----------6----------|--8----8--8----8--8--8--|--8----8--8----8--8----|
--6----6--8-----9--8----|--6----6--6----6--6--6--|--6----6--6----6--6----|


                                                                         
------------------------|------------------------|----------------------|
------------------------|------------------------|----------------------|
------------------------|------------------------|----------------------|
------------------------|------------------------|----------------------|
--8----8--8----8--8--8--|--8----------6----------|--5------5--5----5----|
--6----6--6----6--6--6--|--6----6--8-----9--8----|--3------3--3----3----|


                                                                      
----------------------|----------------------|-----------------------|
----------------------|----------------------|-----------------------|
----------------------|----------------------|-----------------------|
----------------------|----------------------|-----------------------|
--5------5--5----5----|--5------5--5----5----|--4-------4------------|
--3------3--3----3----|--3------3--3----3----|-----3~------3~---1----|


                                                                     
----------------------|----------------------|----------------------|
----------------------|----------------------|----------------------|
----------------------|----------------------|----------------------|
----------------------|----------------------|----------------------|
--5------5--5----5----|--5------5--5----5----|--5------5--5----5----|
--3------3--3----3----|--3------3--3----3----|--3------3--3----3----|


                                                                              
-----------------------|--------------------------|--------------------------|
-----------------------|--------------------------|--------------------------|
-----------------------|--------------9-----------|--------------9-----------|
-----------------------|--5h-8h-7--5--7--5--7--8--|--4h-7h-5--4--7--4--5--7--|
--4-------4------------|--3h-6h-5--3-----3--5--6--|--2h-5h-3--2-----2--3--5--|
-----3~------3~---1----|--------------------------|--------------------------|


                                                       
--------------------------|---------------------------|
--------------------------|---------------------------|
--------------9-----------|---------------------------|
--5h-8h-7--5--7--5--7--8--|--8--10--8--7--5--4--------|
--3h-6h-5--3-----3--5--6--|--6--8---6--5--3--2--6--4--|
--------------------------|---------------------4--2--|


                                                      
--------------------------|--------------------------|
--------------------------|--------------------------|
--------------9-----------|--------------9-----------|
--5h-8h-7--5--7--5--7--8--|--4h-7h-5--4--7--4--5--7--|
--3h-6h-5--3-----3--5--6--|--2h-5h-3--2-----2--3--5--|
--------------------------|--------------------------|


                                                                          
--------------------------|-------------------------|--------------------|
--------------------------|-------------------------|--------------------|
--------------9-----------|--3--------3--2--4--6/---|--------------------|
--5h-8h-7--5--7--5--7--8--|--1--5--5--1--0----------|--------------------|
--3h-6h-5--3-----3--5--6--|-----3--3----------------|--6------------8----|
--------------------------|-------------------------|--4------------6----|


                                                            
-------------------|-------------------|-------------------|
-------------------|-------------------|-------------------|
-------------------|-------------------|-------------------|
-------------------|-------------------|--6----------------|
--9----------------|--4----------------|--4----------------|
--7----------------|--2----------------|-------------------|


                                                             
--------------------|-------------------|-------------------|
--------------------|-------------------|-------------------|
--------------------|-------------------|-------------------|
--------------------|-------------------|-------------------|
--6------------8----|--9----------------|--4----------------|
--4------------6----|--7----------------|--2----------------|


                                                                 
-------------------|-------------------|------------------------|
-------------------|-------------------|------------------------|
-------------------|-------------------|------------------------|
--6----------------|--8----------------|--------------6----5----|
--4----------------|--6----------------|--------------4----3----|
-------------------|-------------------|------------------------|


                                                                 
-------------------|------------------------|-------------------|
-------------------|------------------------|-------------------|
-------------------|------------------------|-------------------|
--4----------------|--------------3----2----|-------------------|
--2----------------|--------------1----0----|--6----------------|
-------------------|------------------------|--4----------------|


                                                                 
------------------------|-------------------|-------------------|
------------------------|-------------------|-------------------|
------------------------|-------------------|-------------------|
------------------------|-------------------|-------------------|
--------------6----5----|--4----------------|--8----------------|
--------------4----3----|--2----------------|--6----------------|


                                                                          
------------------------|-----------------------|------------------------|
------------------------|-----------------------|------------------------|
------------------------|-----------------------|------------------------|
------------------------|-----------------------|------------------------|
--8----8--8----8--8--8--|--8----8--8----8--8----|--8----8--8----8--8--8--|
--6----6--6----6--6--6--|--6----6--6----6--6----|--6----6--6----6--6--6--|


                                                                          
------------------------|------------------------|-----------------------|
------------------------|------------------------|-----------------------|
------------------------|------------------------|-----------------------|
------------------------|------------------------|-----------------------|
--8----------6----------|--8----8--8----8--8--8--|--8----8--8----8--8----|
--6----6--8-----9--8----|--6----6--6----6--6--6--|--6----6--6----6--6----|


                                                                         
------------------------|------------------------|----------------------|
------------------------|------------------------|----------------------|
------------------------|------------------------|----------------------|
------------------------|------------------------|----------------------|
--8----8--8----8--8--8--|--8----------6----------|--5------5--5----5----|
--6----6--6----6--6--6--|--6----6--8-----9--8----|--3------3--3----3----|


                                                                      
----------------------|----------------------|-----------------------|
----------------------|----------------------|-----------------------|
----------------------|----------------------|-----------------------|
----------------------|----------------------|-----------------------|
--5------5--5----5----|--5------5--5----5----|--4-------4------------|
--3------3--3----3----|--3------3--3----3----|-----3~------3~---1----|


                                                                     
----------------------|----------------------|----------------------|
----------------------|----------------------|----------------------|
----------------------|----------------------|----------------------|
----------------------|----------------------|----------------------|
--5------5--5----5----|--5------5--5----5----|--5------5--5----5----|
--3------3--3----3----|--3------3--3----3----|--3------3--3----3----|


                                                                              
-----------------------|--------------------------|--------------------------|
-----------------------|--------------------------|--------------------------|
-----------------------|--------------9-----------|--------------9-----------|
-----------------------|--5h-8h-7--5--7--5--7--8--|--4h-7h-5--4--7--4--5--7--|
--4-------4------------|--3h-6h-5--3-----3--5--6--|--2h-5h-3--2-----2--3--5--|
-----3~------3~---1----|--------------------------|--------------------------|


                                                       
--------------------------|---------------------------|
--------------------------|---------------------------|
--------------9-----------|---------------------------|
--5h-8h-7--5--7--5--7--8--|--8--10--8--7--5--4--------|
--3h-6h-5--3-----3--5--6--|--6--8---6--5--3--2--6--4--|
--------------------------|---------------------4--2--|


                                                      
--------------------------|--------------------------|
--------------------------|--------------------------|
--------------9-----------|--------------9-----------|
--5h-8h-7--5--7--5--7--8--|--4h-7h-5--4--7--4--5--7--|
--3h-6h-5--3-----3--5--6--|--2h-5h-3--2-----2--3--5--|
--------------------------|--------------------------|


                                                                            
--------------------------|-------------------------|----------------------|
--------------------------|-------------------------|----------------------|
--------------9-----------|--3--------3--2--4--6/---|------------8~--------|
--5h-8h-7--5--7--5--7--8--|--1--5--5--1--0----------|-----------------9~---|
--3h-6h-5--3-----3--5--6--|-----3--3----------------|--6~------------------|
--------------------------|-------------------------|-------6~-------------|


                                                                     
----------------------|----------------------|----------------------|
----------------------|----------------------|----------------------|
------------3~---1~---|----------------------|----------------------|
----------------------|------------8~---9~---|----------------------|
-------1~-------------|-------6~-------------|-----------------4~---|
--2~------------------|--7~------------------|--2~-----2~-4~--------|


                                                                     
----------------------|----------------------|----------------------|
----------------------|----------------------|----------------------|
------------8~--------|------------3~---1~---|----------------------|
-----------------9~---|----------------------|------------8~---9~---|
--6~------------------|-------1~-------------|-------6~-------------|
-------6~-------------|--2~------------------|--7~------------------|


                                                                     
----------------------|----------------------|----------------------|
----------------------|----------------------|----------------------|
----------------------|------------8~--------|------------3~---1~---|
----------------------|-----------------9~---|----------------------|
-----------------4~---|--6~------------------|-------1~-------------|
--2~-----2~-4~--------|-------6~-------------|--2~------------------|


                                                                     
----------------------|----------------------|----------------------|
----------------------|----------------------|----------------------|
----------------------|----------------------|------------8~--------|
------------8~---9~---|----------------------|-----------------9~---|
-------6~-------------|-----------------4~---|--6~------------------|
--7~------------------|--2~-----2~-4~--------|-------6~-------------|


                                                                     
----------------------|----------------------|----------------------|
----------------------|----------------------|----------------------|
------------3~---1~---|----------------------|----------------------|
----------------------|------------8~---9~---|----------------------|
-------1~-------------|-------6~-------------|-----------------4~---|
--2~------------------|--7~------------------|--2~-----2~-4~--------|


                                                                                
-------------------|-------------------|-------------------|-------------------|
-------------------|-------------------|-------------------|-------------------|
-------------------|-------------------|-------------------|-------------------|
--3----------------|-------------------|--6----------------|-------------------|
--1----------------|--4----------------|--4----------------|--6----------------|
-------------------|--2----------------|-------------------|--4----------------|


                                                                                
-------------------|-------------------|-------------------|-------------------|
-------------------|-------------------|-------------------|-------------------|
-------------------|-------------------|-------------------|-------------------|
--3----------------|-------------------|--6----------------|-------------------|
--1----------------|--4----------------|--4----------------|--6----------------|
-------------------|--2----------------|-------------------|--4----------------|


                                                                           
-------------------|----------|----------|----------|----------|----------|
-------------------|----------|----------|----------|----------|----------|
-------------------|----------|----------|----------|----------|----------|
--3/---------------|----------|----------|----------|----------|----------|
--1/---------------|----------|----------|----------|----------|----------|
-------------------|----------|----------|----------|----------|----------|


                                                              
----------|----------|-------------------|-------------------|
----------|----------|-------------------|-------------------|
----------|----------|-------------------|-------------------|
----------|----------|--3----------------|-------------------|
----------|----------|--1----------------|--4----------------|
----------|----------|-------------------|--2----------------|


                                                                                
-------------------|-------------------|-------------------|-------------------|
-------------------|-------------------|-------------------|-------------------|
-------------------|-------------------|-------------------|-------------------|
--6----------------|-------------------|--3----------------|-------------------|
--4----------------|--6----------------|--1----------------|--4----------------|
-------------------|--4----------------|-------------------|--2----------------|


                                                             
-------------------|-------------------|--------------------|
-------------------|-------------------|--------------------|
-------------------|-------------------|--------------------|
--6----------------|-------------------|--------------------|
--4----------------|--6----------------|--6------------8----|
-------------------|--4----------------|--4------------6----|


                                                            
-------------------|-------------------|-------------------|
-------------------|-------------------|-------------------|
-------------------|-------------------|-------------------|
-------------------|-------------------|--6----------------|
--9----------------|--4----------------|--4----------------|
--7----------------|--2----------------|-------------------|


                                                             
--------------------|-------------------|-------------------|
--------------------|-------------------|-------------------|
--------------------|-------------------|-------------------|
--------------------|-------------------|-------------------|
--6------------8----|--9----------------|--4----------------|
--4------------6----|--7----------------|--2----------------|


                                                                 
-------------------|-------------------|------------------------|
-------------------|-------------------|------------------------|
-------------------|-------------------|------------------------|
--6----------------|--8----------------|--------------6----5----|
--4----------------|--6----------------|--------------4----3----|
-------------------|-------------------|------------------------|


                                                                 
-------------------|------------------------|-------------------|
-------------------|------------------------|-------------------|
-------------------|------------------------|-------------------|
--4----------------|--------------3----2----|-------------------|
--2----------------|--------------1----0----|--6----------------|
-------------------|------------------------|--4----------------|


                                                                 
------------------------|-------------------|-------------------|
------------------------|-------------------|-------------------|
------------------------|-------------------|-------------------|
------------------------|-------------------|-------------------|
--------------6----5----|--4----------------|--8----------------|
--------------4----3----|--2----------------|--6----------------|


                                                                      
-----------------------|---------------------|-----------------------|
-----------------------|---------------------|-----------------------|
-----------------------|---------------------|-----------------------|
-----------------------|---------------------|-----------------------|
--2----1---------1--2--|---------------------|--2----1---------1--2--|
------------4----------|--4--------7----6----|------------4----------|


                                                                     
----------------------|-----------------------|---------------------|
----------------------|-----------------------|---------------------|
----------------------|-----------------------|---------------------|
----------------------|-----------------------|---------------------|
--6------4--2----1----|--2----1---------1--2--|---------------------|
----------------------|------------4----------|--4--------7----6----|


                                                                          
-----------------------|----------------------|--------------------------|
-----------------------|----------------------|--------------------------|
-----------------------|----------------------|--------------9-----------|
-----------------------|----------------------|--5h-8h-7--5--7--5--7--8--|
--2----1---------1--2--|--6------4--2----1----|--3h-6h-5--3-----3--5--6--|
------------4----------|----------------------|--------------------------|


                                                      
--------------------------|--------------------------|
--------------------------|--------------------------|
--------------9-----------|--------------9-----------|
--4h-7h-5--3--7--3--5--7--|--5h-8h-7--5--7--5--7--8--|
--2h-5h-3--1-----1--3--5--|--3h-6h-5--3-----3--5--6--|
--------------------------|--------------------------|



                                                       
---------------------------|--------------------------|
---------------------------|--------------------------|
---------------------------|--------------9-----------|
--8--10--8--7--5--4--------|--5h-8h-7--5--7--5--7--8--|
--6--8---6--5--3--2--6--4--|--3h-6h-5--3-----3--5--6--|
---------------------4--2--|--------------------------|


                                                                                
--------------------------|--------------------------|-------------------------|
--------------------------|--------------------------|-------------------------|
--------------9-----------|--------------9-----------|--3--------3--2--4--6/---|
--4h-7h-5--4--7--4--5--7--|--5h-8h-7--5--7--5--7--8--|--1--5--5--1--0----------|
--2h-5h-3--2-----2--3--5--|--3h-6h-5--3-----3--5--6--|-----3--3----------------|
--------------------------|--------------------------|-------------------------|


                                                                     
----------------------|----------------------|----------------------|
----------------------|----------------------|----------------------|
------------8~--------|------------3~---1~---|----------------------|
-----------------9~---|----------------------|------------8~---9~---|
--6~------------------|-------1~-------------|-------6~-------------|
-------6~-------------|--2~------------------|--7~------------------|


                                                                     
----------------------|----------------------|----------------------|
----------------------|----------------------|----------------------|
----------------------|------------8~--------|------------3~---1~---|
----------------------|-----------------9~---|----------------------|
-----------------4~---|--6~------------------|-------1~-------------|
--2~-----2~-4~--------|-------6~-------------|--2~------------------|


                                                                     
----------------------|----------------------|----------------------|
----------------------|----------------------|----------------------|
----------------------|----------------------|------------8~--------|
------------8~---9~---|----------------------|-----------------9~---|
-------6~-------------|-----------------4~---|--6~------------------|
--7~------------------|--2~-----2~-4~--------|-------6~-------------|


                                                                     
----------------------|----------------------|----------------------|
----------------------|----------------------|----------------------|
------------3~---1~---|----------------------|----------------------|
----------------------|------------8~---9~---|----------------------|
-------1~-------------|-------6~-------------|-----------------4~---|
--2~------------------|--7~------------------|--2~-----2~-4~--------|


                                                                     
----------------------|----------------------|----------------------|
----------------------|----------------------|----------------------|
------------8~--------|------------3~---1~---|----------------------|
-----------------9~---|----------------------|------------8~---9~---|
--6~------------------|-------1~-------------|-------6~-------------|
-------6~-------------|--2~------------------|--7~------------------|


                                                                         
----------------------|------------------------|------------------------|
----------------------|------------------------|------------------------|
----------------------|------------------------|------------------------|
----------------------|---------3--4--3-----4--|------------3--------3--|
-----------------4~---|--6------1--2--1--6--2--|--5------6--1--6--5--1--|
--2~-----2~-4~--------|--4---------------4-----|--3------4-----4--3-----|


                                                                            
------------------------|-------------------------|------------------------|
------------------------|-------------------------|------------------------|
------------------------|-------------------------|------------------------|
---------3--4--3-----4--|--8--9--8--6--8--6--3----|---------3--4--3-----4--|
--6------1--2--1--6--2--|--6--7--6--4--6--4--1----|--6------1--2--1--6--2--|
--4---------------4-----|-------------------------|--4---------------4-----|


                                                                            
------------------------|------------------------|-------------------------|
------------------------|------------------------|-------------------------|
------------------------|------------------------|-------------------------|
------------3--------3--|---------3--4--3-----4--|--8--9--8--6--8--6--3----|
--5------6--1--6--5--1--|--6------1--2--1--6--2--|--6--7--6--4--6--4--1----|
--3------4-----4--3-----|--4---------------4-----|-------------------------|


                                                                           
------------------------|------------------------|------------------------|
------------------------|------------------------|------------------------|
------------------------|------------------------|------------------------|
---------3--4--3-----4--|------------3--------3--|---------3--4--3-----4--|
--6------1--2--1--6--2--|--5------6--1--6--5--1--|--6------1--2--1--6--2--|
--4---------------4-----|--3------4-----4--3-----|--4---------------4-----|


                                                                            
-------------------------|------------------------|------------------------|
-------------------------|------------------------|------------------------|
-------------------------|------------------------|------------------------|
--8--9--8--6--8--6--3----|---------3--4--3-----4--|------------3--------3--|
--6--7--6--4--6--4--1----|--6------1--2--1--6--2--|--5------6--1--6--5--1--|
-------------------------|--4---------------4-----|--3------4-----4--3-----|


                                                                        
------------------------|-------------------------|-------------------||
------------------------|-------------------------|-------------------||
------------------------|-------------------------|-------------------||
---------3--4--3-----4--|--8--9--8--6--8--6--3----|-------------------||
--6------1--2--1--6--2--|--6--7--6--4--6--4--1----|--6/---------------||
--4---------------4-----|-------------------------|--4/---------------||
comments
print report bad tab
1 comment total.
0 reply
Gate Serpent wrote on December 4 2006, 06:47 pm

Andrew....................Wow i saw your tab on Mudvayne (Happy) and that didn't really sound to good. But wow you did it correct for Cradle.!!!!!!!! i mean you're still missing some parts but hey they sound pretty hard to figure out... Cradle is pretty complicated!!!!! Wow good job!!!!!!!

I want to post or [tab]
guest
You may want to rate the tab now too:
select rating
Please do not post tabs as comments. Select "correction" instead!