Oops, an error
Loading. Please wait.

An Enemy Led The Tempest Bass Tab

295 views 1 this week
no commentswrite comment
1 2 3 4 5
excellent!
x 1
Autoscroll
+/-
esc
set tempo
stop
Contributor
WARNING: You are trying to view
                                    content from Ultimate-Guitar.com
                                    in an unauthorized application,
                                    which is prohibited.

                                    Please use an official Ultimate
                                    Guitar Tabs application for iPhone,
                                    iPad or Android to access legitimate
                                    chords, guitar, bass, and drum tabs
                                    from Ultimate-Guitar.com database.

                                    Type "ultimate guitar tabs" in Apple
                                    App Store's or Android Market's
                                    search to find the application.
================================================================================
                          C R A D L E   O F   F I L T H

                                       -

                  A N   E N E M Y   L E D   T H E   T E M P E S T
================================================================================


                               DAMNATION AND A DAY
                             (c) Sony Records - 2003
                          http://www.cradleoffilth.com/


                       Tune down one step, then Drop D (to C)
                                     C G C F


                                 Tempo = 130 BPM
                              Time Signature = 4/4


                          -----------------------------
                                 Transcribed by

                                 PADDY MCMULLAN
                           stinkypoohpants@yahoo.co.uk

                                   Version 1.0
                                12th March 2009
                             -----------------------

                             Tablature Symbols Used:


 p         -  Pull-Off
 h         -  Hammer-On
 (/)       -  Legato Slide (Blank space indicates length of slide)
 \         -  Slide Down to/Down From (Blank space indicates length of slide)
 /         -  Slide Up To/Up From (Blank space indicates length of slide)
 ( )       -  Ghost Note/Tied Note/Implied Note
 REST      -  Rest and sustain rest for duration of blank space
 |_3_|     -  Triplet Notes
 |___[1]   -  Ending 1/2/3 etc.



================================================================================
Intro: Play once
================================================================================


 1  |_3_| |_3_| |_3_| |_3_| |_3_| |_3_| |_3_| |_3_|
||--------------------------------------------------|
||--------------------------------------------------|
||--------------------------------------------------|
||--0-0-0-0-0-0-2-0-2-0-0-0-0-0-0-0-0-0-3-0-3-0-0-0-|


2  |_3_| |_3_| |_3_| |_3_| |__3__| |__3__|
|-------------------------------------------|
|-------------------------------------------|
|-------------------------------------------|
|--0-0-0-0-0-0-2-0-2-0-0-0-3--4----3--4--3--|


3  |_3_| |_3_| |_3_| |_3_| |_3_| |_3_| |_3_| |_3_|
|--------------------------------------------------|
|--------------------------------------------------|
|--------------------------------------------------|
|--0-0-0-0-0-0-2-0-2-0-0-0-0-0-0-0-0-0-3-0-3-0-0-0-|


4  |_3_| |_3_| |_3_| |_3_|
|--------------------------------------| |
|--------------------------------------|*|
|--------------------------6----6-  \--|*| x 2
|--0-0-0-0-0-0-2-0-2-0-0-0-------------| |


9  |_3_| |_3_| |_3_| |_3_| |_3_| |_3_| |_3_| |_3_|
|--------------------------------------------------|
|--------------------------------------------------|
|--------------------------------------------------|
|--5-5-5-5-5-5-7-5-7-5-5-5-5-5-5-5-5-5-8-5-8-5-5-5-|


10 |_3_| |_3_| |_3_| |_3_| |__3__| |__3__|
|-------------------------------------------|
|-------------------------------------------|
|-------------------------------------------|
|--5-5-5-5-5-5-7-5-7-5-5-5\3--4----3--4--3--|


11 |_3_| |_3_| |_3_| |_3_| |_3_| |_3_| |_3_| |_3_|
|--------------------------------------------------|
|--------------------------------------------------|
|--------------------------------------------------|
|--5-5-5-5-5-5-7-5-7-5-5-5-5-5-5-5-5-5-8-5-8-5-5-5-|


12 |_3_| |_3_| |_3_| |_3_|
|--------------------------------------|
|--------------------------------------|
|--------------------------6----6-  \--|
|--5-5-5-5-5-5-7-5-7-5-5-5-------------|


13 |_3_| |_3_| |_3_| |_3_| |_3_| |_3_| |_3_| |_3_|
|--------------------------------------------------|
|--------------------------------------------------|
|--------------------------------------------------|
|--0-0-0-0-0-0-2-0-2-0-0-0-0-0-0-0-0-0-3-0-3-0-0-0-|


14 |_3_| |_3_| |_3_| |_3_| |__3__| |__3__|
|-------------------------------------------|
|-------------------------------------------|
|-------------------------------------------|
|--0-0-0-0-0-0-2-0-2-0-0-0-3--4----3--4--3--|


15 |_3_| |_3_| |_3_| |_3_| |_3_| |_3_| |_3_| |_3_|
|--------------------------------------------------|
|--------------------------------------------------|
|--------------------------------------------------|
|--0-0-0-0-0-0-2-0-2-0-0-0-0-0-0-0-0-0-3-0-3-0-0-0-|


16 |_3_| |_3_| |_3_| |_3_|
|--------------------------------------||
|--------------------------------------||
|--------------------------6----6-  \--||
|--0-0-0-0-0-0-2-0-2-0-0-0-------------||



================================================================================
Section 1 - Part I: Play twice
================================================================================


||--------------------|--------------------|--------------------|
||--------------------|--------------------|--------------------|
||--------------------|--------------------|--------------------|
||--0--------7--------|--0--------8--------|--0--------2--------|

|___________________________[1]
|---------------------------| |
|---------------------------|*|
|---------------------------|*|
|--3--3-3-3-3-3--7---7---7--| |

|__________________________[2]
|---------------------------||
|---------------------------||
|---------------------------||
|--3--3-3-3-3-0--1---1---1--||



================================================================================
Section 1 - Part II: Play twice
================================================================================


         |__3__|       |__3__|          |__3__|       |__3__|
||------------------------------|------------------------------|
||------------------------------|------------------------------|
||------------------------------|------------------------------|
||--0----0--0--0--7----0--0--0--|--0----0--0--0--8----0--0--0--|

                               |_________________________________[1]
        |__3__|       |__3__|     |__3__|  |__3__|       |__3_|
|------------------------------|---------------------------------| |
|------------------------------|---------------------------------|*|
|------------------------------|---------------------------------|*|
|--0----0--0--0--2----0--0--0--|--3--3--3--3--3--3--7----7----7--| |

|______________________________[2]
   |__3__|  |__3__|
|-------------------------------||
|-------------------------------||
|-------------------------------||
|--3--3--3--3--3--3--1---1---1--||



================================================================================
Section 2 - Part I: Play 4 times [ Tempo = 220 BPM ]
================================================================================


                            |_______________________[1,2,3]
||--------------------------|---------------------------| |
||--------------------------|---------------------------|*|
||--------------------------|---------------------------|*|
||--0--8--8--0--8--8--0--8--|--0--8--8--0--8--6--6--10--| |

|_____________________[4]
|----------------------||
|----------------------||
|----------------------||
|--3----5----3----2----||



================================================================================
Section 2 - Part II: Play twice
================================================================================


||----------------------------------|----------------------------------|
||----------------------------------|----------------------------------|
||----------------------------------|----------------------------------|
||--0-0-0-0-0-0-0-0-0-0-0-0-0-0-0-0-|--0-0-0-0-0-0-0-0-0-0-0-0-0-0-0-0-|


|----------------------------------|----------------------------------|
|----------------------------------|----------------------------------|
|----------------------------------|----------------------------------|
|--0-0-0-0-0-0-0-0-0-0-0-0-0-0-0-0-|--0-0-0-0-0-0-0-0-0-0-0-0-0-0-0-0-|


|------------------------------|----------------------------------|
|------------------------------|----------------------------------|
|------------------------------|----------------------------------|
|--8-8-8--8-8-8--8-8-8--8-8-8--|--8-8-8-8-8-8-8-8-8-8-8-8-8-8-8-8-|


|----------------------------------|----------------------------------| |
|----------------------------------|----------------------------------|*|
|--4-4-4-4-4-4-4-4-4-4-4-4-4-4-4-4-|--4-4-4-4-4-4-4-4-4-4-4-4-4-4-4-4-|*|
|----------------------------------|----------------------------------| |



================================================================================
Section 3 - Part I: Play twice [ Tempo = 104 BPM ]
================================================================================


||----------------------------------------------|
||----------------------------------------------|
||--0--2p0-2p0-0--3p0-3p0-0--2p0-2p0-1--1h4-4p1-|
||----------------------------------------------|

                                    |__3__|
|--------------------------------------------|
|--------------------------------------------|
|--0--2p0-2p0-0--3p0-3p0-0--2-0-2-0-1--4--1--|
|--------------------------------------------|


|----------------------------------------------|
|----------------------------------------------|
|--0--2p0-2p0-0--3p0-3p0-0--2p0-2p0-1--1h4-4p1-|
|----------------------------------------------|


|------------------------------------| |
|------------------------------------|*|
|--0--2p0-2p0-0--3p0-3p0-1--4-----1--|*|
|------------------------------4-----| |



================================================================================
Section 3 - Part II: Play twice [ Tempo = 108 BPM ]
================================================================================


    |_3_| |_3_| |_3_| |_3_| |_3_| |_3_| |_3_| |_3_|
||--------------------------------------------------|
||--------------------------------------------------|
||--5-5-5-5-5-5-5-5-5-5-5-5-5-5-5-5-5-5-5-5-5-5-5-5-|
||--------------------------------------------------|

   |_3_| |_3_| |_3_| |_3_| |_3_| |_3_| |_3_| |_3_|
|--------------------------------------------------|
|--------------------------------------------------|
|--5-5-5-5-5-5-5-5-5-5-5-5-5-5-5-5-5-5-5-5-5-5-5-5-|
|--------------------------------------------------|

   |_3_| |_3_| |_3_| |_3_| |_3_| |_3_| |_3_| |_3_|
|--------------------------------------------------|
|--------------------------------------------------|
|--5-5-5-5-5-5-5-5-5-5-5-5-5-5-5-5-5-5-5-5-5-5-5-5-|
|--------------------------------------------------|

   |_3_| |_3_| |_3_| |_3_|
|--------------------------------------| |
|--------------------------------------|*|
|--5-5-5-5-5-5-5-5-5-5-5-5-------------|*|
|--------------------------3--5--3--2--| |



================================================================================
Play Section 2: Part II x 3 [ Tempo = 220 BPM ]
================================================================================

================================================================================
Play Section 3: Part I x 2 [ Tempo = 104 BPM ]
================================================================================

================================================================================
Play Section 3: Part II x 2 [ Tempo = 108 BPM ]
================================================================================

================================================================================
Section 4 - Part I: Play 3 times
================================================================================


||----------------------------------|----------------------------------|
||----------------------------------|----------------------------------|
||----------------------------------|------------------6-6-6-6-6-6-6-6-|
||--0-0-0-0-0-0-0-0-7-7-7-7-7-7-7-7-|--8-8-8-8-8-8-8-8-----------------|


|----------------------------------|----------------------------| |
|----------------------------------|----------------------------|*|
|--5-5-5-5-5-5-5-5-----------------|----------------------------|*|
|------------------7-7-7-7-7-7-7-7-|--8-8-8-8-8-8-8-8-1----1----| |



================================================================================
Section 4 - Part II: Play twice
================================================================================


||-------------------------|--------------------------|
||-------------------------|--------------------------|
||-------------------------|--------------------------|
||--0----0--0--0--0--0--0--|--0--0--0--0--0--0--0--0--|


|--------------------------|----------------------------| |
|--------------------------|----------------------------|*|
|--------------------------|----------------------------|*|
|--4--4--4--4--4--4--4--4--|--3--3--3--3--3-3-3--3-3-3--| |



================================================================================
Section 5 - Part I: Play twice
================================================================================


||----------------------------------|----------------------------------|
||----------7-7-8-8-7-7-------------|----------7-7-8-8-7-7-------------|
||--5-5-8-8-------------8-8-7-7-8-8-|--5-5-8-8-------------8-8-7-7-8-8-|
||----------------------------------|----------------------------------|


|----------------------------------|----------------------------------| |
|----------------------------------|----------------------------------|*|
|----------4-4-5-5-4-4-------------|----------4-4-5-5-4-4-------------|*|
|--4-4-7-7-------------7-7-6-6-7-7-|--4-4-7-7-------------7-7-6-6-7-7-| |



================================================================================
Section 5 - Part II: Play once
================================================================================


||-------------------|----------------------|---------------------|
||-------------------|----------------------|---------------------|
||-------------------|----------------------|---------------------|
||--7----------------|--6--------7---- \ ---|--3--3---------------|


|---------------------|-------------------|-----------------------|
|---------------------|-------------------|-----------------------|
|---------------------|-------------------|-----------------------|
|--3------------ / ---|--7----------------|--9--------10---- \ ---|


|--------------------|-------------------||
|--------------------|-------------------||
|--------------------|-------------------||
|--2----2------------|--2----------------||



================================================================================
Section 5 - Part III: Play once [ Tempo = 220 BPM ]
================================================================================


  1                          2
||--------------------------|--------------------------|
||--------------------------|--------------------------|
||--------------------------|--------------------------|
||--7--7--7--7--7--7--7--7--|--7--7--7--7--7--7--7--7--|

 3                          4
|--------------------------|----------------------------|
|--------------------------|----------------------------|
|--------------------------|----------------------------|
|--6--6--6--6--6--6--6--6--|--7--7--7--7--9--9--10--10--|

 5                          6
|--------------------------|--------------------------|
|--------------------------|--------------------------|
|--------------------------|--------------------------|
|--3--3--3--3--3--3--3--3--|--3--3--3--3--3--3--3--3--|

 7                          8
|--------------------------|--------------------------|
|--------------------------|--------------------------|
|--------------------------|--------------------------|
|--3--3--3--3--3--3--3--3--|--3--3--3--3--3--3--3--3--|

 9                                  10
|----------------------------------|----------------------------------|
|----------------------------------|----------------------------------|
|----------------------------------|----------------------------------|
|--7-7-7-7-7-7-7-7-7-7-7-7-7-7-7-7-|--7-7-7-7-7-7-7-7-7-7-7-7-7-7-7-7-|

 11
|----------------------------------|
|----------------------------------|
|----------------------------------|
|--6-6-6-6-6-6-6-6-6-6-6-6-6-6-6-6-|

 12
|----------------------------------------------|
|----------------------------------------------|
|----------------------------------------------|
|--10-10-10-10-10-10-10-10-9-9-9-9-10-10-10-10-|

 13                                 14
|----------------------------------|----------------------------------|
|----------------------------------|----------------------------------|
|----------------------------------|----------------------------------|
|--2-2-2-2-2-2-2-2-2-2-2-2-2-2-2-2-|--2-2-2-2-2-2-2-2-2-2-2-2-2-2-2-2-|

 15                                 16
|----------------------------------|----------------------------------||
|----------------------------------|----------------------------------||
|----------------------------------|----------------------------------||
|--2-2-2-2-2-2-2-2-2-2-2-2-2-2-2-2-|--2-2-2-2-2-2-2-2-2-2-2-2-2-2-2-2-||



================================================================================
Play Section 1: Part I x 2 [ Tempo - 130 BPM ]
================================================================================

================================================================================
Play Section 1: Part II x 2
================================================================================

================================================================================
Play Section 2: Part I x 4 [ Tempo = 220 BPM ]
================================================================================

================================================================================
Play Section 2: Part II x 2
================================================================================

================================================================================
Outro: Play twice [ Tempo = 104 BPM ]
================================================================================


||----------------------------------------------|
||----------------------------------------------|
||--0--2p0-2p0-0--3p0-3p0-0--2p0-2p0-1--1h4-4p1-|
||----------------------------------------------|

                                    |__3__|
|--------------------------------------------|
|--------------------------------------------|
|--0--2p0-2p0-0--3p0-3p0-0--2-0-2-0-1--4--1--|
|--------------------------------------------|


|----------------------------------------------|
|----------------------------------------------|
|--0--2p0-2p0-0--3p0-3p0-0--2p0-2p0-1--1h4-4p1-|
|----------------------------------------------|

|____________________________________[1]
|------------------------------------| |
|------------------------------------|*|
|--0--2p0-2p0-0--3p0-3p0-1--4-----1--|*|
|------------------------------4-----| |

|______________________________________________[2]
                         |_3_| |_3_| |_3_| |_3_|
|------------------------------------------------|
|------------------------------------------------|
|--0--2p0-2p0-0--3p0-3p0-1-1-1-4-4-4-------1-1-1-|
|------------------------------------4-4-4-------|


   |_3_| |_3_| |_3_| |_3_| |_3_| |_3_| |_3_| |_3_| 
|--------------------------------------------------|---------R-          -||
|--------------------------------------------------|---------E-          -||
|--1-1-1-4-4-4-------1-1-1-1-1-1-4-4-4-------------|---------S-          -||
|--------------4-4-4-------------------4-4-4-7-7-0-|--7-- \--T-          -||



================================================================================
End
================================================================================


Tab summary:        Intro x 1
                    Section 1:
                              Part I x 2
                              Part II x 2
                    Section 2:
                              Part I x 4
                              Part II x 2
                    Section 3:
                              Part I x 2
                              Part II x 2
                    Section 2: Part II x 3
                    Section 3: Part I x 2
                    Section 3: Part II x 2
                    Section 4:
                              Part I x 3
                              Part II x 2
                    Section 5:
                              Part I x 2
                              Part II x 1
                              Part III x 1
                    Section 1: Part I x 2
                    Section 1: Part II x 2
                    Section 2: Part I x 4
                    Section 2: Part II x 2
                    Outro x 2

                    END
comments
We did not receive enough feedback on this tab! Please rate:
print report bad tab
1 2 3 4 5
I want to post or [tab]
guest
You may want to rate the tab now too:
select rating
Please do not post tabs as comments. Select "correction" instead!