Oops, an error
Loading. Please wait.

An Enemy Led The Tempest Tab

ver2
ver2

Whole song

Interactive

More versions @911Tabs.com
498 views 1 this week
1 commentread comment
1 2 3 4 5
excellent!
x 1
Autoscroll
+/-
esc
set tempo
stop
Contributor
Hey! There's an official Ultimate Guitar app which is ideal
for learning songs when you're away from computer. Get the app
WARNING: You are trying to view
                                    content from Ultimate-Guitar.com
                                    in an unauthorized application,
                                    which is prohibited.

                                    Please use an official Ultimate
                                    Guitar Tabs application for iPhone,
                                    iPad or Android to access legitimate
                                    chords, guitar, bass, and drum tabs
                                    from Ultimate-Guitar.com database.

                                    Type "ultimate guitar tabs" in Apple
                                    App Store's or Android Market's
                                    search to find the application.
================================================================================
                          C R A D L E   O F   F I L T H

                                       -

                  A N   E N E M Y   L E D   T H E   T E M P E S T
================================================================================


                               DAMNATION AND A DAY
                             (c) Sony Records - 2003
                          http://www.cradleoffilth.com/


                       Tune down one step, then Drop D (to C)
                                   C G C F A D


                                 Tempo = 130 BPM
                              Time Signature = 4/4


                          -----------------------------
                                 Transcribed by

                                 PADDY MCMULLAN
                           stinkypoohpants@yahoo.co.uk

                                   Version 1.1
                     (Corrections Outlined at Bottom of Tab)
                                12th March 2009
                             -----------------------

                             Tablature Symbols Used:


 P.M...    -  Palm Mute
 p         -  Pull-Off
 h         -  Hammer-On
 (/)       -  Legato Slide (Blank space indicates length of slide)
 \         -  Slide Down to/Down From (Blank space indicates length of slide)
 /         -  Slide Up To/Up From (Blank space indicates length of slide)
 ( )       -  Ghost Note/Tied Note/Implied Note
 REST      -  Rest and sustain rest for duration of blank space
 |_3_|     -  Triplet Notes
 |___[1]   -  Ending 1/2/3 etc.
 x         -  Dead Note/Muted Note



================================================================================
Intro 1.1: Guitar 1 with Heavy Distortion (Play once)
================================================================================


 1  |_3_| |_3_| |_3_| |_3_| |_3_| |_3_| |_3_| |_3_|
||--------------------------------------------------|
||--------------------------------------------------|
||--------------------------------------------------|
||--------------------------------------------------|
||--5-5-5-5-5-5-7p5-7p5-5-5-5-5-5-5-5-5-8p5-8p5-5-5-|
||--------------------------------------------------|


2  |_3_| |_3_| |_3_| |_3_| |___3___|  |__3__|
|----------------------------------------------|
|----------------------------------------------|
|----------------------------------------------|
|----------------------------------------------|
|--5-5-5-5-5-5-7p5-7p5-7 \-3 / 4-- \--3--3--3--|
|--------------------------3 / 4-- \--3--4--3--|
                           P.M...............


3  |_3_| |_3_| |_3_| |_3_| |_3_| |_3_| |_3_| |_3_|
|--------------------------------------------------|
|--------------------------------------------------|
|--------------------------------------------------|
|--------------------------------------------------|
|--5-5-5-5-5-5-7p5-7p5-5-5-5-5-5-5-5-5-8p5-8p5-5-5-|
|--------------------------------------------------|


4  |_3_| |_3_| |_3_| |_3_|
|--------------------------------------| |
|--------------------------------------| |
|--------------------------------------|*| x 2
|--------------------------8----8-  \--|*|
|--5-5-5-5-5-5-7p5-7p5-5-6-6----6-  \--| |
|--------------------------------------| |


 9  |_3_| |_3_| |_3_| |_3_| |_3_| |_3_| |_3_| |_3_|
||--------------------------------------------------|
||--------------------------------------------------|
||--------------------------------------------------|
||--------------------------------------------------|
||--------------------------------------------------|
||--5-5-5-5-5-5-7p5-7p5-5-5-5-5-5-5-5-5-8p5-8p5-5-5-|
    ...........         ...............         ...


10  |_3_| |_3_| |_3_| |_3_|  |___3___|  |__3__|
|-----------------------------------------------|
|-----------------------------------------------|
|-----------------------------------------------|
|-----------------------------------------------|
|--------------------------(3 / 4)- \--3--3--3--|
|--5-5-5-5-5-5-7p5-7p5-5\3-(3 / 4)- \--3--4--3--|
   ...........                         .......


11  |_3_| |_3_| |_3_| |_3_| |_3_| |_3_| |_3_| |_3_|
|--------------------------------------------------|
|--------------------------------------------------|
|--------------------------------------------------|
|--------------------------------------------------|
|--------------------------------------------------|
|--5-5-5-5-5-5-7p5-7p5-5-5-5-5-5-5-5-5-8p5-8p5-5-5-|
   ...........         ...............         ...


12  |_3_| |_3_| |_3_| |_3_|
|--------------------------------------|
|--------------------------------------|
|--------------------------------------|
|--------------------------8----8-  \--|
|--------------------------6----6-  \--|
|--5-5-5-5-5-5-7p5-7p5-5-5-------------|
   ...........         ...


13  |_3_| |_3_| |_3_| |_3_| |_3_| |_3_| |_3_| |_3_|
|---------------------------------------------------|
|---------------------------------------------------|
|---------------------------------------------------|
|---------------------------------------------------|
|---------------------------------------------------|
|--0-0-0-0-0-0-2p0-0-2p0-0-0-0-0-0-0-0-3p0-3p0-0-0--|


14 |_3_| |_3_| |_3_| |_3_|  |___3___|   |__3__|
|------------------------------------------------|
|------------------------------------------------|
|------------------------------------------------|
|------------------------------------------------|
|---------------------------3 / 4-- \ --3--3--3--|
|--0-0-0-0-0-0-2p0-2p0-0-0--3 / 4-- \ --3--4--3--|
                            ...................

15 |_3_| |_3_| |_3_| |_3_| |_3_| |_3_| |_3_| |_3_|
|--------------------------------------------------|
|--------------------------------------------------|
|--------------------------------------------------|
|--------------------------------------------------|
|--------------------------------------------------|
|--0-0-0-0-0-0-2p0-0-2p0-0-0-0-0-0-0-0-3p0-3p0-0-0-|


16 |_3_| |_3_| |_3_| |_3_|
|----------------------------------------||
|----------------------------------------||
|----------------------------------------||
|----------------------------8----8-  \--||
|----------------------------6----6-  \--||
|--0-0-0-0-0-0-2p0-2p0-0--0--------------||



================================================================================
Intro 1.2: Guitar 2 with Heavy Distortion (Play once)
================================================================================


 1  |_3_| |_3_| |_3_| |_3_| |_3_| |_3_| |_3_| |_3_|
||--------------------------------------------------|
||--------------------------------------------------|
||--------------------------------------------------|
||--------------------------------------------------|
||--------------------------------------------------|
||--0-0-0-0-0-0-2p0-0-2p0-0-0-0-0-0-0-0-2p0-3p0-0-0-|


2  |_3_| |_3_| |_3_| |_3_| |___3___|  |__3__|
|----------------------------------------------|
|----------------------------------------------|
|----------------------------------------------|
|----------------------------------------------|
|--------------------------3 / 4-- \--3--3--3--|
|--0-0-0-0-0-0-0-0-0-0-0-0-3 / 4-- \--3--4--3--|
                           ..................


3  |_3_| |_3_| |_3_| |_3_| |_3_| |_3_| |_3_| |_3_|
|--------------------------------------------------|
|--------------------------------------------------|
|--------------------------------------------------|
|--------------------------------------------------|
|--------------------------------------------------|
|--0-0-0-0-0-0-2p0-0-2p0-0-0-0-0-0-0-0-2p0-3p0-0-0-|


4  |_3_| |_3_| |_3_| |_3_|
|--------------------------------------| |
|--------------------------------------| |
|--------------------------------------|*|
|--------------------------8----8-  \--|*| x 2
|--------------------------6----6-  \--| |
|--0-0-0-0-0-0-0-0-0-0-0-0-------------| |


 9  |_3_| |_3_| |_3_| |_3_| |_3_| |_3_| |_3_| |_3_|
||--------------------------------------------------|
||--------------------------------------------------|
||--------------------------------------------------|
||--------------------------------------------------|
||--------------------------------------------------|
||--5-5-5-5-5-5-7p5-7p5-5-5-5-5-5-5-5-5-8p5-8p5-5-5-|
    ...........         ...............         ...


10 |_3_| |_3_| |_3_| |_3_|  |___3___|  |__3__|
|-----------------------------------------------|
|-----------------------------------------------|
|-----------------------------------------------|
|-----------------------------------------------|
|--------------------------(3 / 4)- \--3--3--3--|
|--5-5-5-5-5-5-7p5-7p5-5\3-(3 / 4)- \--3--4--3--|
   ...........                         .......


11 |_3_| |_3_| |_3_| |_3_| |_3_| |_3_| |_3_| |_3_|
|--------------------------------------------------|
|--------------------------------------------------|
|--------------------------------------------------|
|--------------------------------------------------|
|--------------------------------------------------|
|--5-5-5-5-5-5-7p5-7p5-5-5-5-5-5-5-5-5-8p5-8p5-5-5-|
   ...........         ...............         ...


12 |_3_| |_3_| |_3_| |_3_|
|--------------------------------------|
|--------------------------------------|
|--------------------------------------|
|--------------------------8----8-  \--|
|--------------------------6----6-  \--|
|--5-5-5-5-5-5-7p5-7p5-5-5-------------|
   ...........         ...


13 |_3_| |_3_| |_3_| |_3_| |_3_| |_3_| |_3_| |_3_|
|---------------------------------------------------|
|---------------------------------------------------|
|---------------------------------------------------|
|---------------------------------------------------|
|---------------------------------------------------|
|--0-0-0-0-0-0-2p0-0-2p0-0-0-0-0-0-0-0-3p0-3p0-0-0--|


14 |_3_| |_3_| |_3_| |_3_|  |___3___|   |__3__|
|------------------------------------------------|
|------------------------------------------------|
|------------------------------------------------|
|------------------------------------------------|
|---------------------------3 / 4-- \ --3--3--3--|
|--0-0-0-0-0-0-2p0-2p0-0-0--3 / 4-- \ --3--4--3--|
                            ...................

15 |_3_| |_3_| |_3_| |_3_| |_3_| |_3_| |_3_| |_3_|
|--------------------------------------------------|
|--------------------------------------------------|
|--------------------------------------------------|
|--------------------------------------------------|
|--------------------------------------------------|
|--0-0-0-0-0-0-2p0-0-2p0-0-0-0-0-0-0-0-3p0-3p0-0-0-|


16 |_3_| |_3_| |_3_| |_3_|
|----------------------------------------||
|----------------------------------------||
|----------------------------------------||
|----------------------------8----8-  \--||
|----------------------------6----6-  \--||
|--0-0-0-0-0-0-2p0-2p0-0--0--------------||



================================================================================
Section 1 - Part I: Guitars 1 & 2 (Play twice)
================================================================================


||--------------------|--------------------|--------------------|
||--------------------|--------------------|--------------------|
||--------------------|--------------------|--------------------|
||--0--------7--------|--0--------8--------|--0--------7--------|
||--0--------8--------|--0--------8--------|--0--------7--------|
||--0--------0--------|--0--------0--------|--0--------0--------|


|__________________________[1]
---------------------------| |
---------------------------| |
---------------------------|*|
--3--3-3-3-3-3--7---7---7--|*|
--3--3-3-3-3-3--7---7---7--| |
--3--3-3-3-3-3--7---7---7--| |


|__________________________[2]
|---------------------------||
|---------------------------||
|---------------------------||
|--3--3-3-3-3-0--1---1---1--||
|--3--3-3-3-3-0--1---1---1--||
|--3--3-3-3-3-0--1---1---1--||
                 .........



================================================================================
Section 1 - Part II: Guitars 1 & 2 (Play twice)
================================================================================


         |__3__|       |__3__|          |__3__|       |__3__|
||------------------------------|------------------------------|
||------------------------------|------------------------------|
||------------------------------|------------------------------|
||--0----0--0--0--7----0--0--0--|--0----0--0--0--8----0--0--0--|
||--0----0--0--0--8----0--0--0--|--0----0--0--0--8----0--0--0--|
||--0----0--0--0--0----0--0--0--|--0----0--0--0--0----0--0--0--|
         .......       .......          .......       .......

                                  |__3__|  |__3__|       |__3_|
        |__3__|       |__3__|  |_________________________________[1]
|------------------------------|---------------------------------| |
|------------------------------|---------------------------------| |
|------------------------------|---------------------------------|*|
|--0----0--0--0--7----0--0--0--|--3--3--3--3--3--3--7----7----7--|*|
|--0----0--0--0--7----0--0--0--|--3--3--3--3--3--3--7----7----7--| |
|--0----0--0--0--0----0--0--0--|--3--3--3--3--3--3--7----7----7--| |
        .......       .......     ................


   |__3__|  |__3__|
|______________________________[2]
|-------------------------------||
|-------------------------------||
|-------------------------------||
|--3--3--3--3--3--3--1---1---1--||
|--3--3--3--3--3--3--1---1---1--||
|--3--3--3--3--3--3--1---1---1--||
   ................



================================================================================
Section 2 - Part I: Guitars 1 & 2 (Play 4 times) [ Tempo = 220 BPM ]
================================================================================


                            |_______________________[1,2,3]
||--------------------------|---------------------------| |
||--------------------------|---------------------------| |
||--------------------------|---------------------------|*|
||--------------------------|---------------------------|*|
||--5--8--8--5--8--8--5--8--|--5--8--8--5--8--6--6--10--| |
||--0--8--8--0--8--8--0--8--|--0--8--8--0--8--6--6--10--| |
       ....     ....    ...       ....     ....     ..

|_____________________[4]
|----------------------||
|----------------------||
|----------------------||
|--3----5----3----2----||
|--3----5----3----2----||
|--3----5----3----2----||



================================================================================
Section 2 - Part II: Guitars 1 & 2 (Play twice)
================================================================================


||--------------------------------------|
||--------------------------------------|
||--7-7-7-7-9-9-9-9-10-10-10-10-9-9-9-9-|
||--x-x-x-x-x-x-x-x-x--x--x--x--x-x-x-x-|
||--5-5-5-5-7-7-7-7-8--8--8--8--7-7-7-7-|
||--------------------------------------|


|----------------------------------------------|
|----------------------------------------------|
|--10-10-10-10-12-12-12-12-10-10-10-10-9-9-9-9-|
|--x--x--x--x--x--x--x--x--x--x--x--x--x-x-x-x-|
|--8--8--8--8--10-10-10-10-8--8--8--8--7-7-7-7-|
|----------------------------------------------|


|------------------------------------------|
|------------------------------------------|
|--7-7-7-7-9-9-9-9-10-10-10-10-12-12-12-12-|
|--x-x-x-x-x-x-x-x-x--x--x--x--x--x--x--x--|
|--5-5-5-5-7-7-7-7-8--8--8--8--10-10-10-10-|
|------------------------------------------|


|------------------------------------------|
|------------------------------------------|
|--13-13-13-13-7-7-7-7-9-9-9-9-10-10-10-10-|
|--x--x--x--x--x-x-x-x-x-x-x-x-x--x--x--x--|
|--11-11-11-11-5-5-5-5-7-7-7-7-8--8--8--8--|
|------------------------------------------|


|--------------------------------------------------|
|--------------------------------------------------|
|--10-10-10-10-10-10-10-10-10-10-10-10-10-10-10-10-|
|--8--8--8--8--8--8--8--8--8--8--8--8--8--8--8--8--|
|--------------------------------------------------|
|--------------------------------------------------|


|--------------------------------------------------|
|--------------------------------------------------|
|--10-10-10-10-10-10-10-10-10-10-10-10-10-10-10-10-|
|--8--8--8--8--8--8--8--8--8--8--8--8--8--8--8--8--|
|--------------------------------------------------|
|--------------------------------------------------|


|----------------------------------|----------------------------------| |
|----------------------------------|----------------------------------| |
|--6-6-6-6-6-6-6-6-6-6-6-6-6-6-6-6-|--6-6-6-6-6-6-6-6-6-6-6-6-6-6-6-6-|*|
|--5-5-5-5-5-5-5-5-5-5-5-5-5-5-5-5-|--5-5-5-5-5-5-5-5-5-5-5-5-5-5-5-5-|*|
|--4-4-4-4-4-4-4-4-4-4-4-4-4-4-4-4-|--4-4-4-4-4-4-4-4-4-4-4-4-4-4-4-4-| |
|----------------------------------|----------------------------------| |



================================================================================
Section 3 - Part I: Guitars 1 & 2 (Play twice) [ Tempo = 104 BPM ]
================================================================================


||--------------------------------------------------|
||--------------------------------------------------|
||--------------------------------------------------|
||--------------------------------------------------|
||--7----------7------------7----------8------------|
||--7--9p7-9p7-7--10p7-10p7-7--9p7-9p7-8--8-11-11p8-|

                                      |__3___|
|-----------------------------------------------|
|-----------------------------------------------|
|-----------------------------------------------|
|-----------------------------------------------|
|--7----------7------------7----------8--8---8--|
|--7--9p7-9p7-7--10p7-10p7-7--9p7-9p7-8--11--8--|


|--------------------------------------------------|
|--------------------------------------------------|
|--------------------------------------------------|
|--------------------------------------------------|
|--7----------7------------7----------8------------|
|--7--9p7-9p7-7--10p7-10p7-7--9p7-9p7-8--8-11-11p8-|


|---------------------------------------| |
|---------------------------------------| |
|---------------------------------------|*|
|---------------------------------------|*|
|--7----------7------------8--11--4--8--| |
|--7--7h9-7h9-7--7h10-7h10-8--11--4--8--| |



================================================================================
Section 3 - Part II: Guitars 1 & 2 (Play twice) [ Tempo = 108 BPM ]
================================================================================


              |_3_|                           |_3_|
||-------------------------------|--------------------------------|
||-------------------------------|--------------------------------|
||--7--7--10--7-7-7-7--10--9--6--|--7--7--10--7-7-7-7--12--10--8--|
||--7--7--10--7-7-7-7--10--9--6--|--7--7--10--7-7-7-7--12--10--8--|
||-------------------------------|--------------------------------|
||-------------------------------|--------------------------------|
    ....      .....                 ....      .....

             |_3_|                           |_3_|
|-------------------------------|-------------------------------| |
|-------------------------------|-------------------------------| |
|--7--7--10--7-7-7-7--10--9--6--|--7--7--10--7-7-7--------------|*|
|--7--7--10--7-7-7-7--10--9--6--|--7--7--10--7-7-7--3--5--3--2--|*|
|-------------------------------|-------------------3--5--3--2--| |
|-------------------------------|-------------------3--5--3--2--| |
   ....      .....                 ....      .....



================================================================================
Guitars 1 & 2 play Section 2: Part II x 3 [ Tempo = 220 BPM ]
================================================================================

================================================================================
Guitars 1 & 2 play Section 3: Part I x 2 [ Tempo = 104 BPM ]
================================================================================

================================================================================
Guitars 1 & 2 play Section 3: Part II x 2 [ Tempo = 108 BPM ]
================================================================================

================================================================================
Section 4 - Part I: Guitars 1 & 2 (Play 3 times)
================================================================================


||--------------------------------------------------|
||--------------------------------------------------|
||--------------------------------------------------|
||--------------------------------------------------|
||--------------------------------------------------|
||--0--0--0--0--0--0--0--0--7--7--7--7--7--7--7--7--|
    ..............................................

|--------------------------------------------------|
|--------------------------------------------------|
|--------------------------------------------------|
|--------------------------------------------------|
|--------------------------6--6--6--6--6--6--6--6--|
|--8--8--8--8--8--8--8--8--------------------------|
   ..............................................

|--------------------------------------------------|
|--------------------------------------------------|
|--------------------------------------------------|
|--------------------------------------------------|
|--5--5--5--5--5--5--5--5--------------------------|
|--------------------------7--7--7--7--7--7--7--7--|
   ..............................................

|------------------------------------| |
|------------------------------------| |
|------------------------------------|*|
|--------------------------1----1----|*|
|--------------------------1----1----| |
|--8--8--8--8--8--8--8--8--1----1----| |
   ......................



================================================================================
Section 4 - Part II: Guitars 1 & 2 (Play twice)
================================================================================


||-------------------------|--------------------------|
||-------------------------|--------------------------|
||-------------------------|--------------------------|
||--7----7--7--7--7--7--7--|--7--7--7--7--7--7--7--7--|
||--5----5--5--5--5--5--5--|--5--5--5--5--5--5--5--5--|
||--0----0--0--0--0--0--0--|--0--0--0--0--0--0--0--0--|
         ................     ......................


|--------------------------|------------------------------| |
|--------------------------|------------------------------| |
|--------------------------|-------------------5-------5--|*|
|--7--7--7--7--7--7--7--7--|--7--7--7--7--3-3--3--3-3--3--|*|
|--4--4--4--4--4--4--4--4--|--3--3--3--3--3-3--3--3-3--3--| |
|--4--4--4--4--4--4--4--4--|--3--3--3--3--3-3--3--3-3--3--| |
   ......................     ...............     ...



================================================================================
Section 5 - Part I: Guitars 1 & 2 (Play twice)
================================================================================


||--------------------------------------------------|
||--------------------------------------------------|
||--------------------------------------------------|
||--------------7--7--8--8--7--7--------------------|
||--5--5--8--8--------------------8--8--7--7--8--8--|
||--------------------------------------------------|
    ..............................................

|--------------------------------------------------|
|--------------------------------------------------|
|--------------------------------------------------|
|--------------7--7--8--8--7--7--------------------|
|--5--5--8--8--------------------8--8--7--7--8--8--|
|--------------------------------------------------|
   ..............................................

|----------------------------------|----------------------------------| |
|----------------------------------|----------------------------------| |
|----------------------------------|----------------------------------|*|
|----------------------------------|----------------------------------|*|
|----------4-4-5-5-4-4-------------|----------4-4-5-5-4-4-------------| |
|--4-4-7-7-------------7-7-6-6-7-7-|--4-4-7-7-------------7-7-6-6-7-7-| |



================================================================================
Section 5 - Part II: Guitars 1 & 2 (Play once)
================================================================================


||-------------------|----------------------|---------------------|
||-------------------|----------------------|---------------------|
||-------------------|----------------------|---------------------|
||--7----------------|--6--------7---- \ ---|--3--3---------------|
||--7----------------|--6--------7---- \ ---|--3--3---------------|
||--7----------------|--6--------7---- \ ---|--3--3---------------|


|---------------------|-------------------|-----------------------|
|---------------------|-------------------|-----------------------|
|---------------------|-------------------|-----------------------|
|--(3)---------- / ---|--7----------------|--9--------10---- \ ---|
|--(3)---------- / ---|--7----------------|--9--------10---- \ ---|
|--(3)---------- / ---|--7----------------|--9--------10---- \ ---|


|--------------------|---------------------||
|--------------------|---------------------||
|--------------------|---------------------||
|--2----2------------|-(2)----------- / ---||
|--2----2------------|-(2)----------- / ---||
|--2----2------------|-(2)----------- / ---||



================================================================================
Section 5 - Part III: Guitars 1 & 2 (Play once) [ Tempo = 220 BPM ]
================================================================================


  1                               2
||-------------------------------|------------------------------------|
||-------------------------------|------------------------------------|
||-------------------------------|------------------------------------|
||--7----------------------------|------------------------------------|
||--7--------------7-7-7--8-8-8--|--7-7-7-----------------------------|
||--7----10-10-10----------------|---------10-10-10--9-9-9--10-10-10--|

 3                               4
|-------------------------------|------------------------------------|
|-------------------------------|------------------------------------|
|-------------------------------|------------------------------------|
|--6----------------------------|------------------------------------|
|--6--------------7-7-7--8-8-8--|--7-7-7-----------------------------|
|--6----10-10-10----------------|---------10-10-10--9-9-9--10-10-10--|

 5                            6
|----------------------------|------------------------------|
|----------------------------|------------------------------|
|----------------------------|------------------------------|
|--3-------------------------|------------------------------|
|--3-----------3-3-3--4-4-4--|--3-3-3-----------------------|
|--3----6-6-6----------------|---------6-6-6--5-5-5--6-6-6--|

 7                              8
|------------------------------|------------------------------|
|------------------------------|------------------------------|
|------------------------------|------------------------------|
|------------------------------|------------------------------|
|----------------3-3-3--4-4-4--|--3-3-3-----------------------|
|--3-3-3--6-6-6----------------|---------6-6-6--5-5-5--6-6-6--|

 9
|---------------------------------------|
|---------------------------------------|
|---------------------------------------|
|---------------------------------------|
|---------------------7--7--7--8--8--8--|
|--7--7--7--10-10-10--------------------|
   ...................................

 10
|----------------------------------------|
|----------------------------------------|
|----------------------------------------|
|----------------------------------------|
|--7--7--7-------------------------------|
|-----------10-10-10--9--9--9--10-10-10--|
   ....................................

 11
|---------------------------------------|
|---------------------------------------|
|---------------------------------------|
|---------------------------------------|
|---------------------7--7--7--8--8--8--|
|--6--6--6--10-10-10--------------------|
   ...................................

 12
|----------------------------------------|
|----------------------------------------|
|----------------------------------------|
|----------------------------------------|
|--7--7--7-------------------------------|
|-----------10-10-10--9--9--9--10-10-10--|
   ....................................

 13
|--------------------------------------|
|--------------------------------------|
|--------------------------------------|
|--------------------------------------|
|--------------------2--2--2--3--3--3--|
|--2--2--2--5--5--5--------------------|
   ..................................

 14
|--------------------------------------|
|--------------------------------------|
|--------------------------------------|
|--------------------------------------|
|--2--2--2-----------------------------|
|-----------5--5--5--4--4--4--5--5--5--|
   ..................................

 15
|--------------------------------------|
|--------------------------------------|
|--------------------------------------|
|--------------------------------------|
|--------------------2--2--2--3--3--3--|
|--2--2--2--5--5--5--------------------|
   ..................................

 16
|--------------------------------------||
|--------------------------------------||
|--------------------------------------||
|--------------------------------------||
|--2--2--2-----------------------------||
|-----------5--5--5--4--4--4--5--5--5--||
   ..................................



================================================================================
Guitars 1 & 2 play Section 1: Part I x 2 [ Tempo - 130 BPM ]
================================================================================

================================================================================
Guitars 1 & 2 play Section 1: Part II x 2
================================================================================

================================================================================
Guitars 1 & 2 play Section 2: Part I x 4 [ Tempo = 220 BPM ]
================================================================================

================================================================================
Guitars 1 & 2 play Section 2: Part II x 2
================================================================================

================================================================================
Outro: Guitars 1 & 2 (Play twice) [ Tempo = 104 BPM ]
================================================================================


||--------------------------------------------------|
||--------------------------------------------------|
||--------------------------------------------------|
||--------------------------------------------------|
||--7----------7------------7----------8------------|
||--7--9p7-9p7-7--10p7-10p7-7--9p7-9p7-8--8-11-11p8-|

                                      |__3___|
|-----------------------------------------------|
|-----------------------------------------------|
|-----------------------------------------------|
|-----------------------------------------------|
|--7----------7------------7----------8--8---8--|
|--7--9p7-9p7-7--10p7-10p7-7--9p7-9p7-8--11--8--|


|--------------------------------------------------|
|--------------------------------------------------|
|--------------------------------------------------|
|--------------------------------------------------|
|--7----------7------------7----------8------------|
|--7--9p7-9p7-7--10p7-10p7-7--9p7-9p7-8--8-11-11p8-|

|_______________________________________[1]
|---------------------------------------| |
|---------------------------------------| |
|---------------------------------------|*| x 2
|---------------------------------------|*|
|--7----------7------------8--11--4--8--| |
|--7--7h9-7h9-7--7h10-7h10-8--11--4--8--| |

|___________________________________________________[2]
                           |_3_| |__3___| |_3_| |_3_|
|-----------------------------------------------------|
|-----------------------------------------------------|
|-----------------------------------------------------|
|-----------------------------------------------------|
|--7----------7---------------------------------------|
|--7--7h9-7h9-7--7h10-7h10-8-8-8-11-11-11-4-4-4-8-8-6-|

   |_3_| |__3___| |_3_| |_3_| |_3_| |__3___| |_3_| |_3_|
|--------------------------------------------------------|
|--------------------------------------------------------|
|--------------------------------------------------------|
|--------------------------------------------------------|
|--------------------------------------------------------|
|--8-8-8-11-11-11-4-4-4-8-8-6-8-8-8-11-11-11-4-4-4-7-7-0-|


|----------------------||
|---------R-          -||
|---------E-          -||
|---------S-          -||
|--7-  \--T-          -||
|--7-  \---------------||



================================================================================
End
================================================================================


Tab summary:        Intro x 1
                    Section 1:
                              Part I x 2
                              Part II x 2
                    Section 2:
                              Part I x 4
                              Part II x 2
                    Section 3:
                              Part I x 2
                              Part II x 2
                    Section 2: Part II x 3
                    Section 3: Part I x 2
                    Section 3: Part II x 2
                    Section 4:
                              Part I x 3
                              Part II x 2
                    Section 5:
                              Part I x 2
                              Part II x 1
                              Part III x 1
                    Section 1: Part I x 2
                    Section 1: Part II x 2
                    Section 2: Part I x 4
                    Section 2: Part II x 2
                    Outro x 2

                    END

----------------------
Corrections [12/03/09]
----------------------

* Added missing triplets and alternative ending annotation to Section 1: Part II
comments
We did not receive enough feedback on this tab! Please rate:
print report bad tab
1 2 3 4 5
1 comment total.
0 reply
paddyirishman wrote on March 11 2009, 12:29 pm

I've been asked by a few people if I'm sure about the tuning for this song. At first I, like most people, thought it was tuned to C, but Paul Allender has stated that it is in fact tuned to Dropped C, as is the rest of the album "Damnation and a Day". You can find his comments about this here:

http://cradleoffilth.com/profiles/comment/list?attachedToType=User&attachedTo=3fk1l8x37n5rv&page=3

Paul Allender: "No its not, its in D tuning like all the other albums, the only album which is in drop C is Damnation."

Thanks to chasef for the info :D

I want to post or [tab]
guest
You may want to rate the tab now too:
select rating
Please do not post tabs as comments. Select "correction" instead!