Oops, an error
Loading. Please wait.

Beauty Slept In Sodom Tab

ver2
ver2

Whole song

More versions @911Tabs.com
1,087 views 6 this week
no commentswrite comment
1 2 3 4 5
excellent!
x 1
Autoscroll
+/-
esc
set tempo
stop
Contributor
Difficulty
Tuning
novice
E A D G B E
WARNING: You are trying to view
                                    content from Ultimate-Guitar.com
                                    in an unauthorized application,
                                    which is prohibited.

                                    Please use an official Ultimate
                                    Guitar Tabs application for iPhone,
                                    iPad or Android to access legitimate
                                    chords, guitar, bass, and drum tabs
                                    from Ultimate-Guitar.com database.

                                    Type "ultimate guitar tabs" in Apple
                                    App Store's or Android Market's
                                    search to find the application.
This is a Fucking Wicked Cradle song and its Kinda Easy to play.
The Intro for guitar wont sound good Because it wasnt originally made for Guitar so...

Beauty Slept in Sodom
Tuning - Drop C{CGCFAD} 

Intro Arranged For Guitar


                                                                                             
|---------3-4-3-------|---------3-4-6-4-3-|---------3-4-3-------|---------3-4-6-4-3-|\        
|------6---------6----|------6------------|------6---------6----|------6------------| \          
|---5---------------5-|---5---------------|---5---------------5-|---5---------------|  \      
|---------------------|-------------------|---------------------|-------------------|   \       
|-3-------------------|-3-----------------|-1-------------------|-1-----------------|    \    
|---------------------|-------------------|---------------------|-------------------|     \   
|                                                                                   |      x8
|---------3-4-3-------|---------3-4-6-4-3-|-----------1---------|----------1-3-1----|     /
|------6---------6----|------6------------|------3-4-----4-3----|------3-4--------4-|    /
|---5---------------5-|---5---------------|---5---------------5-|---5---------------|   /
|---------------------|-------------------|-0-------------------|-------------------|  /
|-0-------------------|-0-----------------|---------------------|-4-----------------| /
|---------------------|-------------------|---------------------|-------------------|/

{The intro Continues Throughout The Song}

Verse:{Paul's Riffs on Top Gian's on Bottom}   X4


|---------------------|---6---5---3---5---|--5------------------|-6---5---8---6---5-|
|---------------------|-------------------|---------------------|-------------------|
|--7------------------|-------------------|---------------------|-------------------|
|---------------------|-------------------|---------------------|-------------------|
|---------------------|-------------------|---------------------|-------------------|
|---------------------|-------------------|---------------------|-------------------|
|                                                                                   |
|---------------------|-------------------|---------------------|-------------------|\
|---------------------|-------------------|---------------------|-------------------| \
|--2------------------|-------------------|--5------------------|-------------------|  \
|--0------------------|-------------------|--3------------------|-------------------|   \
|---------------------|-------------------|---------------------|-------------------|    \
|---------------------|-------------------|---------------------|-------------------|     \
                                                                                           x4
|---------------------|---6---5---3---5---|---------------------|-------------------|     /
|---------------------|-------------------|--5------------------|--4----------------|    /
|--7------------------|-------------------|---------------------|-------------------|   /
|---------------------|-------------------|---------------------|-------------------|  /
|---------------------|-------------------|---------------------|-------------------| /
|---------------------|-------------------|---------------------|-------------------|/
|                                                                                   |
|---------------------|-------------------|---------------------|-------------------|
|---------------------|-------------------|---------------------|-------------------|
|---------------------|-------------------|--4------------------|--3----------------|
|--4------------------|-------------------|--2------------------|--1----------------|
|--2------------------|-------------------|---------------------|-------------------|
|---------------------|-------------------|---------------------|-------------------|



|---------------------|-------------------|---------------------|-------------------|\
|---------------------|-------------------|---------------------|-------------------| \
|--5/-----------------|-------------------|--4------------------|-------------------|  \ 
|--3/-----------------|-------------------|--2------------------|-------------------|   \ 
|---------------------|-------------------|---------------------|-------------------|    \
|---------------------|-------------------|---------------------|-------------------|     \
                                                                                           x2
|---------------------|-------------------|---------------------|-------------------|     /
|---------------------|-------------------|---------------------|-------------------|    /
|--3------------------|--3----------------|--4------------------|--4----------------|   /
|--1------------------|--1----------------|--2------------------|--2----------------|  /
|---------------------|-------------------|---------------------|-------------------| /
|---------------------|-------------------|---------------------|-------------------|/ 

{Seperate Guitars}

|--1----------0-------|-----------0-------|--1-----------0------|------------0------|
|---------------------|--4----------------|---------------------|--4----------------|
|---------------------|-------------------|---------------------|-------------------|
|---------------------|-------------------|---------------------|-------------------|
|---------------------|-------------------|---------------------|-------------------|
|---------------------|-------------------|---------------------|-------------------|
|                                                                                   |
|---------------------|-------------------|---------------------|-------------------|
|--1----------0-------|-----------0-------|--1------------0-----|-------------0-----|
|---------------------|--3----------------|---------------------|--3----------------|
|---------------------|-------------------|---------------------|-------------------|
|---------------------|-------------------|---------------------|-------------------|
|---------------------|-------------------|---------------------|-------------------|

|--1----------0-------|-----------0-------|--1-----------0------|------------0------|
|---------------------|--4----------------|---------------------|--4----------------|
|---------------------|-------------------|---------------------|-------------------|
|---------------------|-------------------|---------------------|-------------------|
|---------------------|-------------------|---------------------|-------------------|
|---------------------|-------------------|---------------------|-------------------|
|                                                                                   |
|--8----------7-------|--6--------7-------|--8-----------7------|--6---------7------|
|---------------------|-------------------|---------------------|-------------------|
|---------------------|-------------------|---------------------|-------------------|
|---------------------|-------------------|---------------------|-------------------|
|---------------------|-------------------|---------------------|-------------------|
|---------------------|-------------------|---------------------|-------------------|

|---------------------|-------------------|---------------------|-------------------|
|---------------------|-------------------|---------------------|-------------------|
|---------------------|-------------------|---------------------|-------------------|
|--2------------------|-(2)---------------|--2------------------|-(2)---------------|
|--0------------------|-(0)---------------|--0------------------|-(0)---------------|
|---------------------|-------------------|---------------------|-------------------|
|                                                                                   |
|---------------------|-------------------|---------------------|-------------------|
|---------------------|-------------------|---------------------|-------------------|
|---------------------|-------------------|---------------------|-------------------|
|---------------------|-------------------|--2------------------|-(2)---------------|
|--7------------------|-(7)---------------|--0------------------|-(0)---------------|
|--5------------------|-(5)---------------|---------------------|-------------------|

|--0------------------|--0----------------|--0------------------|--0----------------|
|-----1-3-0-1-----0---|-----1-3-0-1---0-3-|-----1-3-0-1-----0---|-----1-3-0-1---0-3-|
|--------------2----0-|-------------2-----|--------------2----0-|-------------2-----|
|---------------------|-------------------|---------------------|-------------------|
|---------------------|-------------------|---------------------|-------------------|
|---------------------|-------------------|---------------------|-------------------|
|                                                                                   |
|---------------------|-------------------|---------------------|-------------------|\ 
|---------------------|-------------------|---------------------|-------------------| \ 
|---------------------|-------------------|---------------------|-------------------|  \  
|--2-------2------2---|--2------2------2--|--4-------4-------4--|--4-------4------4-|   \   
|--0-------0------0---|--0------0------0--|--2-------2-------2--|--2-------2------2-|    \ 
|---------------------|-------------------|---------------------|-------------------|     \
                                                                                           x2
|--0------------------|--0----------------|--0------------------|--0----------------|     /
|-----1-3-0-1-----0---|-----1-3-0-1---0-3-|-----1-3-0-1-----0---|-----1-3-0-1---0-3-|    /
|--------------2----0-|-------------2-----|--------------2----0-|-------------2-----|   /
|---------------------|-------------------|---------------------|-------------------|  /
|---------------------|-------------------|---------------------|-------------------| /
|---------------------|-------------------|---------------------|-------------------|/
|                                                                                   |
|---------------------|-------------------|---------------------|-------------------|
|---------------------|-------------------|---------------------|-------------------|
|---------------------|-------------------|---------------------|-------------------|
|--2-------2------2---|--2------2------2--|--2-------2-------2--|--2-------2------2-|
|--0-------0------0---|--0------0------0--|--0-------0-------0--|--0-------0------0-|
|---------------------|-------------------|---------------------|-------------------|

Both Guitars
|-----------------------------------------|-----------------------------------------|
|-----------------------------------------|-----------------------------------------|
|-----------------------------------------|-----------------------------------------|
|-----------------------------------------|--------------------------0-0-0-0--------|
|------------0-0-0-0-0-0-0-0-0-0-0-0-0-0--|--2-2-2-2-2-2-2-2-3-3-3-3----------------|
|-----------------------------------------|-----------------------------------------|

|-----------------------------------------|-----------------------------------------|\
|-----------------------------------------|-----------------------------------------| \
|-----------------------------------------|-----------------------------------------|  \
|-----------------------------------------|-----------------------------------------|   \
|--3-3-3-3-2-2-2-2-2-2-2-2-2-2-2-2-2-2-2--|--2-2-2-2-2-2-2-2-2-2-2-2-2-2-2----------|    \
|-----------------------------------------|-----------------------------------------|     \
                                                                                           x2
|-----------------------------------------|-----------------------------------------|     /  
|-----------------------------------------|-----------------------------------------|    /
|-----------------------------------------|-----------------------------------------|   /
|-----------------------------------------|-----------------------------------------|  /
|-----------------------------------------|--3-3-3-3-3-3-3-3-2-2-2-2-3-3-2-2-3-3----| /
|---0-0-0-0-0-0-0-0-0-0-0-0-0-0-0-0-------|-----------------------------------------|/

|-----------------------------------------|-----------------------------------------|
|-----------------------------------------|-----------------------------------------|
|-----------------------------------------|-----------------------------------------|
|--2-2-2-2-2-2-2-2-2-2-0-0---------0-0----|-----------------------------------------|
|----------------------------3-3----------|----3-3-2-2-3-3-2-2-0--------------------|
|-----------------------------------------|-----------------------------------------|

Both Guitars
|--------------------|--------------------|--------------------|--------------------|
|--------------------|--------------------|--------------------|--------------------|
|--------------------|--------------------|--------------------|--------------------|
|---2----------------|--4--------5---7----|---5---4------------|--4{Held}-----------|
|---0----------------|--2--------3---5----|---3---2------------|--2-----------------|
|--------------------|--------------------|--------------------|--------------------|\
              Seperate Guitars                                                        \
|--------------------|--------------------|--------------------|--------------------|  \
|--------------------|--------------------|--------------------|--------------------|   \
|--------------------|--------------------|--4-----------2-0-2-|-0-----0------------|    \
|--------------------|--5--------4--5--4--|--2-----------------|----4-----4--2------|     \
|--2-----------------|--3--------2--3--2--|--------------------|--------------------|      \
|--0-----------------|--------------------|--------------------|--------------------|       x2
|                                                                                   |      /
|--------------------|--------------------|--------------------|--------------------|     /
|--------------------|--------------------|--------------------|--------------------|    /
|--------------------|--------------------|--4-----------------|--------------------|   /
|--------------------|--5--------4--5--4--|--2--------0-----0--|--------------------|  /
|--2-----------------|--3--------2--3--2--|--------------3-----|---3--2--3--2--0----| /
|--0-----------------|--------------------|--------------------|--------------------|/

|--0------------------|--0----------------|--0------------------|--0----------------|
|-----1-3-0-1-----0---|-----1-3-0-1---0-3-|-----1-3-0-1-----0---|-----1-3-0-1---0-3-|
|--------------2----0-|-------------2-----|--------------2----0-|-------------2-----|
|---------------------|-------------------|---------------------|-------------------|
|---------------------|-------------------|---------------------|-------------------|
|---------------------|-------------------|---------------------|-------------------|
|                                                                                   |
|---------------------|-------------------|---------------------|-------------------|
|---------------------|-------------------|---------------------|-------------------|
|---------------------|-------------------|---------------------|-------------------|
|--2-------2------2---|--2------2------2--|--4-------4-------4--|--4-------4------4-|
|--0-------0------0---|--0------0------0--|--2-------2-------2--|--2-------2------2-|
|---------------------|-------------------|---------------------|-------------------|\
                                                                                      \
|--0------------------|--0----------------|--0------------------|--0----------------|  \
|-----1-3-0-1-----0---|-----1-3-0-1---0-3-|-----1-3-0-1-----0---|-----1-3-0-1---0-3-|   \
|--------------2----0-|-------------2-----|--------------2----0-|-------------2-----|    \
|---------------------|-------------------|---------------------|-------------------|     \
|---------------------|-------------------|---------------------|-------------------|      \
|---------------------|-------------------|---------------------|-------------------|       x2
|                                                                                   |      /
|---------------------|-------------------|---------------------|-------------------|     /
|---------------------|-------------------|---------------------|-------------------|    /
|---------------------|-------------------|---------------------|-------------------|   /
|---------------------|-------------------|--2-------2-------2--|--2-------2------2-|  /
|--2-------2------2---|--2------2------2--|--0-------0-------0--|--0-------0------0-| /
|--0-------0------0---|--0------0------0--|---------------------|-------------------|/

|----------------------------------|----------------------------------|
|----------------------------------|----------------------------------|
|----------------------------------|----------------------------------|
|----------------------------------|----------------------------------|
|-3-3-3-3-3-3-3-3-3-3-3-3-3-3-3-3--|-2-2-2-2-2-2-2-2-2-2-2-2-2-2-2-2--|
|----------------------------------|----------------------------------|
|                                                                     |
|----------------------------------|----------------------------------|
|----------------------------------|----------------------------------|
|----------------------------------|----------------------------------|
|----------------------------------|-0-0-0-0-0-0-0-0-0-0-0-0-0-0-0-0--|
|-3-3-3-3-3-3-3-3-3-3-3-3-3-3-3-3--|----------------------------------|
|----------------------------------|----------------------------------|

|----------------------------------|----------------------------------|
|----------------------------------|----------------------------------|
|----------------------------------|----------------------------------|
|-2-2-2-2-2-2-2-2-2-2-2-2-2-2-2-2--|-2-2-2-2-2-2-2-2-2-2-2-2-2-2-2-2--|
|----------------------------------|----------------------------------|
|----------------------------------|----------------------------------|
|                                                                     |
|----------------------------------|----------------------------------|
|----------------------------------|----------------------------------|
|-0-0-0-0-0-0-0-0-0-0-0-0-0-0-0-0--|-0-0-0-0-0-0-0-0-0-0-0-0-0-0-0-0--|
|----------------------------------|----------------------------------|
|----------------------------------|----------------------------------|
|----------------------------------|----------------------------------|

|----------------------------------|----------------------------------|
|----------------------------------|----------------------------------|
|----------------------------------|----------------------------------|
|-3-3-3-3-3-3-3-3-3-3-3-3-3-3-3-3--|-2-2-2-2-2-2-2-2-2-2-2-2-2-2-2-2--|
|----------------------------------|----------------------------------|
|----------------------------------|----------------------------------|
|                                                                     |
|----------------------------------|----------------------------------|
|----------------------------------|----------------------------------|
|-2-2-2-2-2-2-2-2-2-2-2-2-2-2-2-2--|-0-0-0-0-0-0-0-0-0-0-0-0-0-0-0-0--|
|----------------------------------|----------------------------------|
|----------------------------------|----------------------------------|
|----------------------------------|----------------------------------|

|----------------------------------|----------------------------------|
|----------------------------------|----------------------------------|
|----------------------------------|----------------------------------|
|----------------------------------|----------------------------------|
|-0-0-0-0-0-0-0-0-0-0-0-0-0-0-0-0--|-0-0-0-0-0-0-0-0-0-0-0-0-0-0-0-0--|
|----------------------------------|----------------------------------|
|                                                                     |
|----------------------------------|----------------------------------|
|-1-1-1-1-1-1-1-1-1-1-1-1-1-1-1-1--|-1-1-1-1-1-1-1-1-1-1-1-1-1-1-1-1--|
|----------------------------------|----------------------------------|
|----------------------------------|----------------------------------|
|----------------------------------|----------------------------------|
|----------------------------------|----------------------------------|

|-0-----0---1---------|--(1)--0---1-------|-0-----0---1---------|--(1)--0---1-------|
|---------------------|-------------------|---------------------|-------------------|
|----3----------------|-------------------|----3----------------|-------------------|
|---------------------|-------------------|---------------------|-------------------|
|---------------------|-------------------|---------------------|-------------------|
|---------------------|-------------------|---------------------|-------------------|
|                                                                                   |\
|---------------------|-------------------|---------------------|-------------------| \
|---------------------|-------------------|---------------------|-------------------|  \
|---------------------|-------------------|---------------------|-------------------|   \
|-2-----2---3---------|--(3)--2---3-------|-2-----2---3---------|--(3)--2---3-------|    \
|----0----------------|-------------------|----0----------------|-------------------|     \
|---------------------|-------------------|---------------------|-------------------|      \
                                                                                            x2
|---------------------|-------------------|---------------------|-------------------|      /
|-3-----3---4---------|--(4)--3---4-------|-3-----3---4---------|--(4)--3---4-------|     /
|----1----------------|-------------------|----1----------------|-------------------|    /
|---------------------|-------------------|---------------------|-------------------|   /
|---------------------|-------------------|---------------------|-------------------|  /
|---------------------|-------------------|---------------------|-------------------| /
|                                                                                   |/
|---------------------|-------------------|---------------------|-------------------|
|---------------------|-------------------|---------------------|-------------------|
|---------------------|-------------------|---------------------|-------------------|
|-0-----0---1---------|--(1)--0---1-------|-0-----0---1---------|--(1)--0---1-------|
|---------------------|-------------------|---------------------|-------------------|
|----4----------------|-------------------|----4----------------|-------------------|



Solo:Paul
|---------------------|--5~-------12~-13~-15~-|--17-------(17)-------------|-----------------------|
|---------------------|-----------------------|----------------18p17h18-17-|--18-17-15----------15-|
|---2~~~~~~-----------|-----------------------|----------------------------|-----------17-16-17----|
|---------------------|-----------------------|----------------------------|-----------------------|
|---------------------|-----------------------|----------------------------|-----------------------|
|---------------------|-----------------------|----------------------------|-----------------------|
|   Whilst Gian plays:                                                                             |
|---------------------|-----------------------|----------------------------|-----------------------|
|---------------------|-----------------------|----------------------------|-----------------------|
|---------------------|-----------------------|----------------------------|-----------------------|
|--2------------------|--4------------5-----7-|----6-----4-----------------|---(4)-----------------|
|--0------------------|--2------------3-----5-|----4-----2-----------------|---(2)-----------------|
|---------------------|-----------------------|----------------------------|-----------------------|


|---------------------|-----------------------|----------------------------|-----------------------------------|
|--17~~~--------------|-----------------------|----------------------------|----121312101213121012131210121312-|
|---------------17-16-|-17-17-17-17-16---14---|---14~~~--------------------|-14--------------------------------|
|---------------------|-----------------------|----------------------------|-----------------------------------|
|---------------------|-----------------------|----------------------------|-----------------------------------|
|---------------------|-----------------------|----------------------------|-----------------------------------|
| Whilst Gian Plays:                                                                                           |
|---------------------|-----------------------|----------------------------|-----------------------------------|
|---------------------|-----------------------|----------------------------|-----------------------------------|
|---------------------|-----------------------|--4--------(4)--------------|-----------------------------------|
|---------------------|--5-----4----5-----4---|--2--------(2)---7--5--7----|----5---4---5---4---2--------------|
|---2-----------------|--3-----2----3-----2---|-----------------5--3--5----|----3---2---3---2---0--------------|

|--------------0------|-------5---8---10------|-----8----7-----------------|--7-8-10-8-7-8-10-8-7-8-10-8-7-8---|
|------------------6--|--8--------------------|----------------------------|-----------------------------------|
|-------7-------------|--0--------------------|----------------------------|-----------------------------------|
|--10-----------------|-------7---------------|----------------------------|-----------------------------------|
|-------5------7---8--|-----------------------|----------------------------|-----------------------------------|
|--8------------------|-----------------------|----------------------------|-----------------------------------|
| Whilst Gian Plays:                                                                                           |
|---------------------|-----------------------|----------------------------|-----------------------------------|
|---------------------|-----------------------|----------------------------|-----------------------------------|
|---------------------|-----------------------|----------------------------|-----------------------------------|
|---2-----------------|---4--------5-------7--|-----5-----4----------------|---(4)-----------------------------|
|---0-----------------|---2--------3-------5--|-----3-----2----------------|---(2)-----------------------------|
|---------------------|-----------------------|----------------------------|-----------------------------------|

|--0--------------5-0-|--12-------------------|------------------------10--|--12----12----8----8--------5---0---|
|---------------------|-----13-12-10-12----13-|----12---------------13-----|-----10----10-----------10--------0-|
|---------------------|-----------------------|----------------------------|----------------10---10----7--7-----|
|--7------------------|-----------------------|----------------------------|--------------------------------7---|
|---------------------|-----------------------|----------------------------|----------------------------------7-|
|---------------------|-----------------------|----------------------------|------------------------------------|
| Wjilst Gian Plays:                                                                                            |
|---------------------|-----------------------|----------------------------|------------------------------------|
|---------------------|-----------------------|----------------------------|------------------------------------|
|---------------------|-----------------------|--4----------(4)------------|------------------------------------|
|---------------------|--5-----4----5-----4---|--2----------(2)--7--5--7---|--5---4---5---4---2-----------------|
|--2------------------|--3-----2----3-----2---|------------------5--3--5---|--3---2---3---2---0-----------------|
|--0------------------|-----------------------|----------------------------|------------------------------------|


|---------------------|-----------------------|-----------------------|----------------------|
|---------------------|-----------------------|-----------------------|----------------------|
|---------------------|-----------------------|-----------------------|----------------------|
|---2-----------------|--(2)------------------|---4-------------------|--(4)-----------------|
|---0-----------------|--(0)------------------|---2-------------------|--(2)-----------------|
|---------------------|-----------------------|-----------------------|----------------------|

|---------------------------------------------|----------------------------------------------|
|---------------------------------------------|----------------------------------------------|
|---------------------------------------------|----------------------------------------------|
|---------------------------------------------|----------------------------------------------|
|---2-----------------------------------------|---(2)----------------------------------------|
|---0-----------------------------------------|---(0)----------------------------------------|

|---------------------|----------------------------------------------------------------------|
|---------------------|----------------------------------------------------------------------|
|---------------------|----------------------------------------------------------------------|
|---2-----------------|--(2)--------------------Pick Slide{24 to 0}--------------------------|
|---0-----------------|--(0)--25/////////////////////////////////////////////////////1-------|
|---------------------|-------24/////////////////////////////////////////////////////0-------|
|  Whilst Gian plays:                                                                        |
|---------------------|----------------------------------------------------------------------|
|---------------------|----------------------------------------------------------------------|
|---------------------|----------------------------------------------------------------------|
|---2-----------------|--(2)-----------------------------------------------------------------|
|---0-----------------|--(0)-----------------------------------------------------------------|
|---------------------|----------------------------------------------------------------------|


|--0------------------|--0----------------|--0------------------|--0----------------|
|-----1-3-0-1-----0---|-----1-3-0-1---0-3-|-----1-3-0-1-----0---|-----1-3-0-1---0-3-|
|--------------2----0-|-------------2-----|--------------2----0-|-------------2-----|
|---------------------|-------------------|---------------------|-------------------|
|---------------------|-------------------|---------------------|-------------------|
|---------------------|-------------------|---------------------|-------------------|
|                                                                                   |
|---------------------|-------------------|---------------------|-------------------|
|---------------------|-------------------|---------------------|-------------------|
|---------------------|-------------------|---------------------|-------------------|
|--2-------2------2---|--2------2------2--|--4-------4-------4--|--4-------4------4-|
|--0-------0------0---|--0------0------0--|--2-------2-------2--|--2-------2------2-|
|---------------------|-------------------|---------------------|-------------------|\
                                                                                      \
|--0------------------|--0----------------|--0------------------|--0----------------|  \
|-----1-3-0-1-----0---|-----1-3-0-1---0-3-|-----1-3-0-1-----0---|-----1-3-0-1---0-3-|   \
|--------------2----0-|-------------2-----|--------------2----0-|-------------2-----|    \
|---------------------|-------------------|---------------------|-------------------|     \
|---------------------|-------------------|---------------------|-------------------|      \
|---------------------|-------------------|---------------------|-------------------|       x2
|                                                                                   |      /
|---------------------|-------------------|---------------------|-------------------|     /
|---------------------|-------------------|---------------------|-------------------|    /
|---------------------|-------------------|---------------------|-------------------|   /
|---------------------|-------------------|--2-------2-------2--|--2-------2------2-|  /
|--2-------2------2---|--2------2------2--|--0-------0-------0--|--0-------0------0-| /
|--0-------0------0---|--0------0------0--|---------------------|-------------------|/


|---------------------|-------------------|---------------------|-------------------|
|---------------------|-------------------|---------------------|-------------------|
|---------------------|-------------------|---------------------|-------------------|
|---2-----------------|-------------------|---2-------------(2)-|--(2)--------------|
|---0-----------------|-------------------|---0-------------(0)-|--(0)--------------|
|---------------------|-------------------|---------------------|-------------------|


|-8-8-8-8-8-8-7-7-7-7-8-7-|-8-8-8-8-8-8-7-7-7-7-8-7-|-8-8-8-8-8-8-7-7-7-7-8-8-|-10-10-10-10-8-8-7-7-7-8-7--|\
|-------------------------|-------------------------|-------------------------|----------------------------| \
|-------------------------|-------------------------|-------------------------|----------------------------|  \
|-------------------------|-------------------------|-------------------------|----------------------------|   \
|-------------------------|-------------------------|-------------------------|----------------------------|    \
|-------------------------|-------------------------|-------------------------|----------------------------|     \
| Whilst Gian Plays:                                                                                       |      X2
|-------------------------|-------------------------|-------------------------|----------------------------|     /
|-1-1-1-1-1-1-0-0-0-0-1-0-|-1-1-1-1-1-1-0-0-0-0-1-0-|-1-1-1-1-1-1-0-0-0-0-1-1-|-3-3-3-3-1-1-0-0-0-0-1-1----|    /
|-------------------------|-------------------------|-------------------------|----------------------------|   /
|-------------------------|-------------------------|-------------------------|----------------------------|  /
|-------------------------|-------------------------|-------------------------|----------------------------| /
|-------------------------|-------------------------|-------------------------|----------------------------|/


|------0-0-0-------0-0-0--|------0-0-0-------0-0-0--|------0-0-0-------0-0-0--|-1-1-1-0-0-0-------0-0-0----|\
|-1-1-1------3-3-3--------|-1-1-1------3-3-3--------|-1-1-1------3-3-3--------|-------------3-3-3----------| \
|-------------------------|-------------------------|-------------------------|----------------------------|  \
|-------------------------|-------------------------|-------------------------|----------------------------|   \
|-------------------------|-------------------------|-------------------------|----------------------------|    \
|-------------------------|-------------------------|-------------------------|----------------------------|     \
| Whilst Gian Plays:                                                                                       |      X2
|-------------------------|-------------------------|-------------------------|----------------------------|     /
|------1-1-1-0-0-0-1-1-1--|------1-1-1-0-0-0-1-1-1--|------1-1-1-0-0-0-1-1-1--|-------1-1-1-0-0-0-3-1-1----|    /
|-2-2-2-------------------|-2-2-2-------------------|-2-2-2-------------------|-2-2-2----------------------|   /
|-------------------------|-------------------------|-------------------------|----------------------------|  /
|-------------------------|-------------------------|-------------------------|----------------------------| /
|-------------------------|-------------------------|-------------------------|----------------------------|/


|-0-----------------------|-0------------1----------|--0----------------------|----------------------------|
|------------------3------|-------------------------|-----------3-------------|-----1--------------0-------|
|-------------------------|-------------------------|-------------------------|----------------------------|
|-------------------------|-------------------------|-------------------------|----------------------------|
|-------------------------|-------------------------|-------------------------|----------------------------|
|-------------------------|-------------------------|-------------------------|----------------------------|
| Whilst Gian Plays:                                                                                       |
|-------------------------|-------------------------|-------------------------|----------------------------|
|-1----------------0------|-1-------------3---------|--1---------0------------|---------------------0------|
|-------------------------|-------------------------|-------------------------|-----2----------------------|
|-------------------------|-------------------------|-------------------------|----------------------------|
|-------------------------|-------------------------|-------------------------|----------------------------|
|-------------------------|-------------------------|-------------------------|----------------------------|

Outro:
|---------|
|---------|
|---------|
|-2-2-2-2-|
|-0-0-0-0-|
|---------|
comments
We did not receive enough feedback on this tab! Please rate:
print report bad tab
1 2 3 4 5
I want to post or [tab]
guest
You may want to rate the tab now too:
select rating
Please do not post tabs as comments. Select "correction" instead!