Oops, an error
Loading. Please wait.

Darkly Darkly Venus Aversa Tab

471 views 6 this week
no commentswrite comment
1 2 3 4 5
excellent!
x 3
Autoscroll
+/-
esc
set tempo
stop
Contributor
Difficulty
Tuning
advanced
D G C F A D
WARNING: You are trying to view
                                    content from Ultimate-Guitar.com
                                    in an unauthorized application,
                                    which is prohibited.

                                    Please use an official Ultimate
                                    Guitar Tabs application for iPhone,
                                    iPad or Android to access legitimate
                                    chords, guitar, bass, and drum tabs
                                    from Ultimate-Guitar.com database.

                                    Type "ultimate guitar tabs" in Apple
                                    App Store's or Android Market's
                                    search to find the application.
CRADLE OF FILTH
DARKLY,DARKLY,VENUS AVERSA

TABBED BY-andherembrace

all songs are in dgcfad


01 THE CULT OF VENUS AVERSA

------------------------------------------------------------------------|
------------------------------------------------------------------------|
------------------------------------------------------------------------|
999999999999999999999999121212121212121288888888888888889999888855558888|
777777777777777777777777101010101010101066666666666666667777666633336666|
------------------------------------------------------------------------|

------------------------------------------------------------------------|
------------------------------------------------------------------------|
------------------------------------------------------------------------|
999999999999999999999999121212121212121255555555555544558888888888889988|
777777777777777777777777101010101010101033333333333322336666666666667766|
------------------------------------------------------------------------|


------------------------------------------------------------------------|
------------------------------------------------------------------------|
------------------------------------------------------------------------|
999999999999999999999999121212121212121288888888888888889999888855558888|
777777777777777777777777101010101010101066666666666666667777666633336666|
------------------------------------------------------------------------|

------------------------------------------------------------------------|
------------------------------------------------------------------------|
------------------------------------------------------------------------|
999999999999999999999999121212121212121255555555555544558888888888889988|
777777777777777777777777101010101010101033333333333322336666666666667766|
------------------------------------------------------------------------|


------------------------------------------------------------------------|
------------------------------------------------------------------------|
------------------------------------------------------------------------|
999999999999999999999999121212121212121288888888888888889999888855558888|
777777777777777777777777101010101010101066666666666666667777666633336666|
------------------------------------------------------------------------|

--------------------------------------------------------------------------|
--------------------------------------------------------------------------|
--------------------------------------------------------------------------|
999999999999999999999999121212121212121255555555555544558888888888889988--|
777777777777777777777777101010101010101033333333333322336666666666667766--|
--------------------------------------------------------------------------|


------------------------------------------------------------------------|
------------------------------------------------------------------------|
------------------------------------------------------------------------|
999999999999999999999999121212121212121288888888888888889999888855558888|
777777777777777777777777101010101010101066666666666666667777666633336666|
------------------------------------------------------------------------|

------------------------------------------------------------------------|
------------------------------------------------------------------------|
------------------------------------------------------------------------|
999999999999999999999999121212121212121255555555555544558888888888889988|
777777777777777777777777101010101010101033333333333322336666666666667766|
------------------------------------------------------------------------|




----------------------------------------------------------------------|
----------------------------------------------------------------------|
----------------------------------------------------------------------|
----------9-9----------9-10-8-----------------------------------------|
----------7-7----------7/8--6-------6------6-6-7-6-9-10-9--5--6--5--3-|
-00000000-----00000000---------4444-4-4444-4-4/5-4-7/8--7--3--4--3--1-|
 ********     ********         ****   ****

----------------------------------------------------------------------|
----------------------------------------------------------------------|
----------------------------------------------------------------------|
----------9-9----------9-10-8-----------------------------------------|
----------7-7----------7/8--6-------6------6-6-7-6-9-10-9--5--6--5--3-|
-00000000-----00000000---------4444-4-4444-4-4/5-4-7/8--7--3--4--3--1-|
 ********     ********         ****   ****

----------------------------------------------------------------------|
----------------------------------------------------------------------|
----------------------------------------------------------------------|
----------9-9----------9-10-8-----------------------------------------|
----------7-7----------7/8--6-------6------6-6-7-6-9-10-9--5--6--5--3-|
-00000000-----00000000---------4444-4-4444-4-4/5-4-7/8--7--3--4--3--1-|
 ********     ********         ****   ****

----------------------------------------------------------------------|
----------------------------------------------------------------------|
----------------------------------------------------------------------|
----------9-9----------9-10-8-----------------------------------------|
----------7-7----------7/8--6-------6------6-6-7-6-9-10-9--5--6--5--3-|
-00000000-----00000000---------4444-4-4444-4-4/5-4-7/8--7--3--4--3--1-|
 ********     ********         ****   ****


L
-------------------------------------------------|
-------------------------------------------------|
-------------------------------------------------|
--------------------------------------7-8-7------|
-6--5--3-5--6--5--3-5--6--5--6-7-9-10-------10-9-|
-4--3--1-3--4--3--1-3--4--3--4-------------------|
                               * *  * * * *  * *
R
-------------------------------------------------|
-------------------------------------------------|
-------------------------------------------------|
-------------------------------------------------|
-6--5--3-5--6--5--3-5--6--5--6-------------------|
-4--3--1-3--4--3--1-3--4--3--4-0-2-3-5-6-5-3-2---|
                               * * * * * * * *
B
------------------------------------------------|
------------------------------------------------|
------------------------------------------------|
------------------------------------------------|
-6--5--3-5--6--5--3-5--6--5--6------------------|
-4--3--1-3--4--3--1-3--4--3--4-000-000-000-000--|
                               *** *** *** ***

L
-------------------------------------------------|
-------------------------------------------------|
-------------------------------------------------|
--------------------------------------7-8-7------|
-6--5--3-5--6--5--3-5--6--5--6-7-9-10-------10-9-|
-4--3--1-3--4--3--1-3--4--3--4-------------------|
                               * *  * * * *  * *
R
-------------------------------------------------|
-------------------------------------------------|
-------------------------------------------------|
-------------------------------------------------|
-6--5--3-5--6--5--3-5--6--5--6-------------------|
-4--3--1-3--4--3--1-3--4--3--4-0-2-3-5-6-5-3-2---|
                               * * * * * * * *
B
------------------------------------------------|
------------------------------------------------|
------------------------------------------------|
------------------------------------------------|
-6--5--3-5--6--5--3-5--6--5--6------------------|
-4--3--1-3--4--3--1-3--4--3--4-000-000-000-000--|
                               *** *** *** ***



------------------------------------------------------------------------|
------------------------------------------------------------------------|
------------------------------------------------------------------------|
999999999999999999999999121212121212121288888888888888889999888855558888|
777777777777777777777777101010101010101066666666666666667777666633336666|
------------------------------------------------------------------------|

------------------------------------------------------------------------|
------------------------------------------------------------------------|
------------------------------------------------------------------------|
999999999999999999999999121212121212121255555555555544558888888888889988|
777777777777777777777777101010101010101033333333333322336666666666667766|
------------------------------------------------------------------------|


------------------------------------------------------------------------|
------------------------------------------------------------------------|
------------------------------------------------------------------------|
999999999999999999999999121212121212121288888888888888889999888855558888|
777777777777777777777777101010101010101066666666666666667777666633336666|
------------------------------------------------------------------------|

---------------------------------------------------------------------------|
---------------------------------------------------------------------------|
---------------------------------------------------------------------------|
9999999999999999999999991212121212121212555555555555445588888888888899889--|
7777777777777777777777771010101010101010333333333333223366666666666677667--|
------------------------------------------------------------------------7\-|




1
-------------------------------------------------------------------------|
-------------------------------------------------------------------------|
-------------------------------------------------------------------------|
-------------------------------------------------------------------------|
-777777777777991010999999999999101099666666666666991010999999999999101099|
-------------------------------------------------------------------------|

2
---------------------------------------------------------------------------|
///----------------///----------------///---------------///----------------|
-9----------111212-11---------12121111-8---------111212-11--------12121111-|
---------------------------------------------------------------------------|
---------------------------------------------------------------------------|

1
-----------------------------------------------------------------------|
-----------------------------------------------------------------------|
-----------------------------------------------------------------------|
-----------------------------------------------------------------------|
-777777777777991010999999999999101099----------------------------------|
-------------------------------------88888888888877887777777777777777--|

2
----------------------------------------------------------------------|
///----------------///----------------///-------------///-------------|
-9----------111212-11---------12121111--------------------------------|
---------------------------------------10-------991010-9--------------|
----------------------------------------------------------------------|

1
-------------------------------------------------------------------------|
-------------------------------------------------------------------------|
-------------------------------------------------------------------------|
-------------------------------------------------------------------------|
-777777777777991010999999999999101099666666666666991010999999999999101099|
-------------------------------------------------------------------------|

2
---------------------------------------------------------------------------|
///----------------///----------------///---------------///----------------|
-9----------111212-11---------12121111-8---------111212-11--------12121111-|
---------------------------------------------------------------------------|
---------------------------------------------------------------------------|

1
-----------------------------------------------------------------------|
-----------------------------------------------------------------------|
-----------------------------------------------------------------------|
-----------------------------------------------------------------------|
-777777777777991010999999999999101099----------------------------------|
-------------------------------------88888888888877887777777777777777--|

2
------------------------------------------------------------------------|
///----------------///----------------///-------------///---------------|
-9----------111212-11---------12121111----------------------------------|
---------------------------------------10-------991010-9----------------|
------------------------------------------------------------------------|




L
-------------------------------------------------|
-------------------------------------------------|
-------------------------------------------------|
--------------------------------------7-8-7------|
-6--5--3-5--6--5--3-5--6--5--6-7-9-10-------10-9-|
-4--3--1-3--4--3--1-3--4--3--4-------------------|
                               * *  * * * *  * *
R
-------------------------------------------------|
-------------------------------------------------|
-------------------------------------------------|
-------------------------------------------------|
-6--5--3-5--6--5--3-5--6--5--6-------------------|
-4--3--1-3--4--3--1-3--4--3--4-0-2-3-5-6-5-3-2---|
                               * * * * * * * *
B
------------------------------------------------|
------------------------------------------------|
------------------------------------------------|
------------------------------------------------|
-6--5--3-5--6--5--3-5--6--5--6------------------|
-4--3--1-3--4--3--1-3--4--3--4-000-000-000-000--|
                               *** *** *** ***

L
-------------------------------------------------|
-------------------------------------------------|
-------------------------------------------------|
--------------------------------------7-8-7------|
-6--5--3-5--6--5--3-5--6--5--6-7-9-10-------10-9-|
-4--3--1-3--4--3--1-3--4--3--4-------------------|
                               * *  * * * *  * *
R
-------------------------------------------------|
-------------------------------------------------|
-------------------------------------------------|
-------------------------------------------------|
-6--5--3-5--6--5--3-5--6--5--6-------------------|
-4--3--1-3--4--3--1-3--4--3--4-0-2-3-5-6-5-3-2---|
                               * * * * * * * *
B
---------------------------------------------|
---------------------------------------------|
---------------------------------------------|
---------------------------------------------|
-6--5--3-5--6--5--3-5--6--5--6---------------|
-4--3--1-3--4--3--1-3--4--3--4-000-000-000---|
                               *** *** ***





------------------------------------------------------------------|
------------------------------------------------------------------|
------------------------------------------------------------------|
------------------------------------------------------------------|
-4444444444445544555555555555445544444444444455445555444455558888-|
------------------------------------------------------------------|
 ****************************************************************

------------------------------------------------------------------|
------------------------------------------------------------------|
------------------------------------------------------------------|
------------------------------------------------------------------|
-7777777777778877888888888888778877777777777788778888777755557777-|
------------------------------------------------------------------|
 ****************************************************************

------------------------------------------------------------------|
------------------------------------------------------------------|
------------------------------------------------------------------|
------------------------------------------------------------------|
-4444444444445544555555555555445544444444444455445555444422224444-|
------------------------------------------------------------------|
 ****************************************************************

-----------------------------------------------------------------|
-----------------------------------------------------------------|
-----------------------------------------------------------------|
-----------------------------------------------------------------|
-1111111111112211222222222222112211111111111122112222111122225555|
-----------------------------------------------------------------|
 ****************************************************************


------------------------------------------------------|
------------------------------------------------------|
------------------------------------------------------|
-6------6------6------6------6------6------7-6-7-10---|
-4-4444-4-4444-4-4444-4-4444-4-4444-4-4444-5-4-5-8----|
------------------------------------------------------|
   ****   ****   ****   ****   ****   ****

------------------------------------------------------|
------------------------------------------------------|
------------------------------------------------------|
-9------9------9------9------9------9------10-9-7-9---|
-7-7777-7-7777-7-7777-7-7777-7-7777-7-7777-8--7-5-7---|
------------------------------------------------------|
   ****   ****   ****   ****   ****   ****

----------------------------------------------------|
----------------------------------------------------|
----------------------------------------------------|
-6------6------6------6------6------6------7-6-4-6--|
-4-4444-4-4444-4-4444-4-4444-4-4444-4-4444-5-4-2-4--|
----------------------------------------------------|
   ****   ****   ****   ****   ****   ****

----------------------------------------------------|
----------------------------------------------------|
----------------------------------------------------|
-3------3------3------3------3------3------4-3-4-7--|
-1-1111-1-1111-1-1111-1-1111-1-1111-1-1111-2-1-2-5--|
----------------------------------------------------|




------------------------------------------------------------------------|
------------------------------------------------------------------------|
------------------------------------------------------------------------|
999999999999999999999999121212121212121288888888888888889999888855558888|
777777777777777777777777101010101010101066666666666666667777666633336666|
------------------------------------------------------------------------|

------------------------------------------------------------------------|
------------------------------------------------------------------------|
------------------------------------------------------------------------|
999999999999999999999999121212121212121255555555555544558888888888889988|
777777777777777777777777101010101010101033333333333322336666666666667766|
------------------------------------------------------------------------|


------------------------------------------------------------------------|
------------------------------------------------------------------------|
------------------------------------------------------------------------|
999999999999999999999999121212121212121288888888888888889999888855558888|
777777777777777777777777101010101010101066666666666666667777666633336666|
------------------------------------------------------------------------|

------------------------------------------------------------------------|
------------------------------------------------------------------------|
------------------------------------------------------------------------|
999999999999999999999999121212121212121255555555555544558888888888889988|
777777777777777777777777101010101010101033333333333322336666666666667766|
------------------------------------------------------------------------|




------------------------------------------------------|
------------------------------------------------------|
------------------------------------------------------|
-6------6------6------6------6------6------7-6-7-10---|
-4-4444-4-4444-4-4444-4-4444-4-4444-4-4444-5-4-5-8----|
------------------------------------------------------|
   ****   ****   ****   ****   ****   ****

------------------------------------------------------|
------------------------------------------------------|
------------------------------------------------------|
-9------9------9------9------9------9------10-9-7-9---|
-7-7777-7-7777-7-7777-7-7777-7-7777-7-7777-8--7-5-7---|
------------------------------------------------------|
   ****   ****   ****   ****   ****   ****

----------------------------------------------------|
----------------------------------------------------|
----------------------------------------------------|
-6------6------6------6------6------6------7-6-4-6--|
-4-4444-4-4444-4-4444-4-4444-4-4444-4-4444-5-4-2-4--|
----------------------------------------------------|
   ****   ****   ****   ****   ****   ****

----------------------------------------------------|
----------------------------------------------------|
----------------------------------------------------|
-3------3------3------3------3------3------4-3-4-7--|
-1-1111-1-1111-1-1111-1-1111-1-1111-1-1111-2-1-2-5--|
----------------------------------------------------|


------------------------------------------------------|
------------------------------------------------------|
------------------------------------------------------|
-6------6------6------6------6------6------7-6-7-10---|
-4-4444-4-4444-4-4444-4-4444-4-4444-4-4444-5-4-5-8----|
------------------------------------------------------|
   ****   ****   ****   ****   ****   ****

------------------------------------------------------|
------------------------------------------------------|
------------------------------------------------------|
-9------9------9------9------9------9------10-9-7-9---|
-7-7777-7-7777-7-7777-7-7777-7-7777-7-7777-8--7-5-7---|
------------------------------------------------------|
   ****   ****   ****   ****   ****   ****

----------------------------------------------------|
----------------------------------------------------|
----------------------------------------------------|
-6------6------6------6------6------6------7-6-4-6--|
-4-4444-4-4444-4-4444-4-4444-4-4444-4-4444-5-4-2-4--|
----------------------------------------------------|
   ****   ****   ****   ****   ****   ****

----------------------------------------------------|
----------------------------------------------------|
----------------------------------------------------|
-3------3------3------3------3------3------4-3-4-7--|
-1-1111-1-1111-1-1111-1-1111-1-1111-1-1111-2-1-2-5--|
----------------------------------------------------|




L
-------------------------------------------------|
-------------------------------------------------|
-------------------------------------------------|
--------------------------------------7-8-7------|
-6--5--3-5--6--5--3-5--6--5--6-7-9-10-------10-9-|
-4--3--1-3--4--3--1-3--4--3--4-------------------|
                               * *  * * * *  * *
R
-------------------------------------------------|
-------------------------------------------------|
-------------------------------------------------|
-------------------------------------------------|
-6--5--3-5--6--5--3-5--6--5--6-------------------|
-4--3--1-3--4--3--1-3--4--3--4-0-2-3-5-6-5-3-2---|
                               * * * * * * * *
B
------------------------------------------------|
------------------------------------------------|
------------------------------------------------|
------------------------------------------------|
-6--5--3-5--6--5--3-5--6--5--6------------------|
-4--3--1-3--4--3--1-3--4--3--4-000-000-000-000--|
                               *** *** *** ***

L
-------------------------------------------------|
-------------------------------------------------|
-------------------------------------------------|
--------------------------------------7-8-7------|
-6--5--3-5--6--5--3-5--6--5--6-7-9-10-------10-9-|
-4--3--1-3--4--3--1-3--4--3--4-------------------|
                               * *  * * * *  * *
R
-------------------------------------------------|
-------------------------------------------------|
-------------------------------------------------|
-------------------------------------------------|
-6--5--3-5--6--5--3-5--6--5--6-------------------|
-4--3--1-3--4--3--1-3--4--3--4-0-2-3-5-6-5-3-2---|
                               * * * * * * * *
B
---------------------------------------------|
---------------------------------------------|
---------------------------------------------|
---------------------------------------------|
-6--5--3-5--6--5--3-5--6--5--6---------------|
-4--3--1-3--4--3--1-3--4--3--4-000-000-000---|
                               *** *** ***


------------------------------------------------------------------------|
------------------------------------------------------------------------|
------------------------------------------------------------------------|
999999999999999999999999121212121212121288888888888888889999888855558888|
777777777777777777777777101010101010101066666666666666667777666633336666|
------------------------------------------------------------------------|

------------------------------------------------------------------------|
------------------------------------------------------------------------|
------------------------------------------------------------------------|
999999999999999999999999121212121212121255555555555544558888888888889988|
777777777777777777777777101010101010101033333333333322336666666666667766|
------------------------------------------------------------------------|


------------------------------------------------------------------------|
------------------------------------------------------------------------|
------------------------------------------------------------------------|
999999999999999999999999121212121212121288888888888888889999888855558888|
777777777777777777777777101010101010101066666666666666667777666633336666|
------------------------------------------------------------------------|

------------------------------------------------------------------------|
------------------------------------------------------------------------|
------------------------------------------------------------------------|
999999999999999999999999121212121212121255555555555544558888888888889988|
777777777777777777777777101010101010101033333333333322336666666666667766|
------------------------------------------------------------------------|





----------------------------------------------------------------------|
----------------------------------------------------------------------|
----------------------------------------------------------------------|
----------9-9----------9-10-8-----------------------------------------|
----------7-7----------7/8--6-------6------6-6-7-6-9-10-9--5--6--5--3-|
-00000000-----00000000---------4444-4-4444-4-4/5-4-7/8--7--3--4--3--1-|
 ********     ********         ****   ****

----------------------------------------------------------------------|
----------------------------------------------------------------------|
----------------------------------------------------------------------|
----------9-9----------9-10-8-----------------------------------------|
----------7-7----------7/8--6-------6------6-6-7-6-9-10-9--5--6--5--3-|
-00000000-----00000000---------4444-4-4444-4-4/5-4-7/8--7--3--4--3--1-|
 ********     ********         ****   ****

----------------------------------------------------------------------|
----------------------------------------------------------------------|
----------------------------------------------------------------------|
----------9-9----------9-10-8-----------------------------------------|
----------7-7----------7/8--6-------6------6-6-7-6-9-10-9--5--6--5--3-|
-00000000-----00000000---------4444-4-4444-4-4/5-4-7/8--7--3--4--3--1-|
 ********     ********         ****   ****

----------------------------------------------------------------------|
----------------------------------------------------------------------|
----------------------------------------------------------------------|
----------9-9----------9-10-8-----------------------------------------|
----------7-7----------7/8--6-------6------6-6-7-6-9-10-9--5--6--5--3-|
-00000000-----00000000---------4444-4-4444-4-4/5-4-7/8--7--3--4--3--1-|
 ********     ********         ****   ****



|||||||||||||||||||||||||||||||||||||||||||||||||||||||||||||||||
|||||||||||||||||||||||||||||||||||||||||||||||||||||||||||||||||
|||||||||||||||||||||||||||||||||||||||||||||||||||||||||||||||||


02 ONE FOUL STEP FROM THE ABYSS


----------------------------------------------------------------|
----------------------------------------------------------------|
------------------------------------------------1010101010101010|
101010101010101010101010111111111010101010101010-8-8-8-8-8-8-8-8|
-8-8-8-8-8-8-8-8-8-8-8-8-8-8-8-8-8-8-8-8-8-8-8-8----------------|
----------------------------------------------------------------|

-------------------------------------------|
-------------------------------------------|
-------------------------------------11-11-|
-9-----------111111111010101010101010-9-9--|
-7--77777777-------------------------------|
-------------------------------------------|
    ********  * * * * * * * * * * * *

----------------------------------------------------------------|
----------------------------------------------------------------|
------------------------------------------------1010101010101010|
101010101010101010101010111111111010101010101010-8-8-8-8-8-8-8-8|
-8-8-8-8-8-8-8-8-8-8-8-8-8-8-8-8-8-8-8-8-8-8-8-8----------------|
----------------------------------------------------------------|

---------------------------------|
---------------------------------|
---------------------------------|
-8------8------8-----------------|
-7-7777-7-7777-7-7777--8-10-8-10-|
-----------------------6-8--6--8-|
   ****   ****   ****


----------------------------------------------------------------|
----------------------------------------------------------------|
------------------------------------------------1010101010101010|
101010101010101010101010111111111010101010101010-8-8-8-8-8-8-8-8|
-8-8-8-8-8-8-8-8-8-8-8-8-8-8-8-8-8-8-8-8-8-8-8-8----------------|
----------------------------------------------------------------|

-------------------------------------------|
-------------------------------------------|
-------------------------------------11-11-|
-9-----------111111111010101010101010-9-9--|
-7--77777777-------------------------------|
-------------------------------------------|
    ********  * * * * * * * * * * * *

----------------------------------------------------------------|
----------------------------------------------------------------|
------------------------------------------------1010101010101010|
101010101010101010101010111111111010101010101010-8-8-8-8-8-8-8-8|
-8-8-8-8-8-8-8-8-8-8-8-8-8-8-8-8-8-8-8-8-8-8-8-8----------------|
----------------------------------------------------------------|

---------------------------------|
---------------------------------|
---------------------------------|
-8------8------8-----------------|
-7-7777-7-7777-7-7777--8-10-8-10-|
-----------------------6-8--6--8-|
   ****   ****   ****




------------------------------------------------------------------|
------------------------------------------------------------------|
------------------------------------------------------------------|
-----------------------------------------------------------10-9---|
-----444433334477774444334433--------444433334444---8-7--8-----10-|
-3333-------------------------4~-3333-------------9----8----------|
 ****************************    **************** *      *

-------------------------------------------------------------------|
-----------------------------------------------------------------ph|
---------------------------------------------------10-9----10-12-10|
------------------------------------------10-9---8------10---------|
-----444433334477774444334433-6----8-7--8-----10-------------------|
-3333-------------------------4--9----8----------------------------|
 ****************************    *      *

------------------------------------------------------------------|
------------------------------------------------------------------|
------------------------------------------------------------------|
-----------------------------------------------------------10-9---|
-----444433334477774444334433--------444433334444---8-7--8-----10-|
-3333-------------------------4~-3333-------------9----8----------|
 ****************************    **************** *      *

-------------------------------------------------------------------|
-----------------------------------------------------------------ph|
---------------------------------------------------10-9----10-12-10|
------------------------------------------10-9---8------10---------|
-----444433334477774444334433-6----8-7--8-----10-------------------|
-3333-------------------------4--9----8----------------------------|
 ****************************    *      *        *




-------------------------------------------------------------------|
-------------------------------------------------------------------|
-------------------------------------------------------------------|
----------99999999-------------------------------------------------|
------------------88888888999999996666666655555555-----------------|
-66666666-----------------------------------------8888777744443333-|
 *****************************************************************

-------------------------------------------------------------------|
-------------------------------------------------------------------|
-------------------------------------------------------------------|
----------99999999-------------------------------------------------|
------------------888888889999999966666666555555558888666699998888-|
-66666666----------------------------------------------------------|
 *****************************************************************

-------------------------------------------------------------------|
-------------------------------------------------------------------|
-------------------------------------------------------------------|
----------99999999-------------------------------------------------|
------------------88888888999999996666666655555555-----------------|
-66666666-----------------------------------------8888777744443333-|
 *****************************************************************

-------------------------------------------------------------------|
-------------------------------------------------------------------|
-------------------------------------------------------------------|
----------99999999-------------------------------------------------|
------------------888888889999999966666666555555558888666699998888-|
-66666666----------------------------------------------------------|
 *****************************************************************





----------------------------------------------------------------|
----------------------------------------------------------------|
------------------------------------------------1010101010101010|
101010101010101010101010111111111010101010101010-8-8-8-8-8-8-8-8|
-8-8-8-8-8-8-8-8-8-8-8-8-8-8-8-8-8-8-8-8-8-8-8-8----------------|
----------------------------------------------------------------|

-------------------------------------------|
-------------------------------------------|
-------------------------------------11-11-|
-9-----------111111111010101010101010-9-9--|
-7--77777777-------------------------------|
-------------------------------------------|
    ********  * * * * * * * * * * * *

----------------------------------------------------------------|
----------------------------------------------------------------|
------------------------------------------------1010101010101010|
101010101010101010101010111111111010101010101010-8-8-8-8-8-8-8-8|
-8-8-8-8-8-8-8-8-8-8-8-8-8-8-8-8-8-8-8-8-8-8-8-8----------------|
----------------------------------------------------------------|

---------------------------------|
---------------------------------|
---------------------------------|
-8------8------8-----------------|
-7-7777-7-7777-7-7777--8-10-8-10-|
-----------------------6-8--6--8-|
   ****   ****   ****

----------------------------------------------------------------|
----------------------------------------------------------------|
------------------------------------------------1010101010101010|
101010101010101010101010111111111010101010101010-8-8-8-8-8-8-8-8|
-8-8-8-8-8-8-8-8-8-8-8-8-8-8-8-8-8-8-8-8-8-8-8-8----------------|
----------------------------------------------------------------|

-------------------------------------------|
-------------------------------------------|
-------------------------------------11-11-|
-9-----------111111111010101010101010-9-9--|
-7--77777777-------------------------------|
-------------------------------------------|
    ********  * * * * * * * * * * * *

----------------------------------------------------------------|
----------------------------------------------------------------|
------------------------------------------------1010101010101010|
101010101010101010101010111111111010101010101010-8-8-8-8-8-8-8-8|
-8-8-8-8-8-8-8-8-8-8-8-8-8-8-8-8-8-8-8-8-8-8-8-8----------------|
----------------------------------------------------------------|

---------------------------------|
---------------------------------|
---------------------------------|
-8------8------8-----------------|
-7-7777-7-7777-7-7777--8-10-8-10-|
-----------------------6-8--6--8-|
   ****   ****   ****





------------------------------------------------------------------|
------------------------------------------------------------------|
------------------------------------------------------------------|
-----------------------------------------------------------10-9---|
-----444433334477774444334433--------444433334444---8-7--8-----10-|
-3333-------------------------4~-3333-------------9----8----------|
 ****************************    **************** *      *

-------------------------------------------------------------------|
-----------------------------------------------------------------ph|
---------------------------------------------------10-9----10-12-10|
------------------------------------------10-9---8------10---------|
-----444433334477774444334433-6----8-7--8-----10-------------------|
-3333-------------------------4--9----8----------------------------|
 ****************************    *      *

------------------------------------------------------------------|
------------------------------------------------------------------|
------------------------------------------------------------------|
-----------------------------------------------------------10-9---|
-----444433334477774444334433--------444433334444---8-7--8-----10-|
-3333-------------------------4~-3333-------------9----8----------|
 ****************************    **************** *      *

-------------------------------------------------------------------|
-----------------------------------------------------------------ph|
---------------------------------------------------10-9----10-12-10|
------------------------------------------10-9---8------10---------|
-----444433334477774444334433-6----8-7--8-----10-------------------|
-3333-------------------------4--9----8----------------------------|
 ****************************    *      *        *




-------------------------------------------------------------------|
-------------------------------------------------------------------|
-------------------------------------------------------------------|
----------99999999-------------------------------------------------|
------------------88888888999999996666666655555555-----------------|
-66666666-----------------------------------------8888777744443333-|
 *****************************************************************

-------------------------------------------------------------------|
-------------------------------------------------------------------|
-------------------------------------------------------------------|
----------99999999-------------------------------------------------|
------------------888888889999999966666666555555558888666699998888-|
-66666666----------------------------------------------------------|
 *****************************************************************

-------------------------------------------------------------------|
-------------------------------------------------------------------|
-------------------------------------------------------------------|
----------99999999-------------------------------------------------|
------------------88888888999999996666666655555555-----------------|
-66666666-----------------------------------------8888777744443333-|
 *****************************************************************

-------------------------------------------------------------------|
-------------------------------------------------------------------|
-------------------------------------------------------------------|
----------99999999-------------------------------------------------|
------------------888888889999999966666666555555558888666699998888-|
-66666666----------------------------------------------------------|
 *****************************************************************




---------------------------------------------------------------|
---------------------------------------------------------------|
---------------------------------------------------------------|
---12-12-12-12-11-11-9-9-11-9-8--------------------------------|
-2-10-10-10-10-9--9--7-7-9--7-6-10-10-10-10-10-9-9-9-9-6-6-6-6-|
-0------------------------------8---8--8--8--8-7-7-7-7-4-4-4-4-|


-------------------------------------------------------------------|
-------------------------------------------------------------------|
-------------------------------------------------------------------|
---12-12-12-12-11-11-9-9-11-9-8------------------------------------|
-2-10-10-10-10-9--9--7-7-9--7-6-10-10-10-10-10-9-9-9-9-12-12-12-12-|
-0------------------------------8---8--8--8--8-7-7-7-7-10-10-10-10-|

---------------------------------------------------------------|
---------------------------------------------------------------|
---------------------------------------------------------------|
---12-12-12-12-11-11-9-9-11-9-8--------------------------------|
-2-10-10-10-10-9--9--7-7-9--7-6-10-10-10-10-10-9-9-9-9-6-6-6-6-|
-0------------------------------8---8--8--8--8-7-7-7-7-4-4-4-4-|


-------------------------------------------------------------------|
-------------------------------------------------------------------|
-------------------------------------------------------------------|
---12-12-12-12-11-11-9-9-11-9-8------------------------------------|
-2-10-10-10-10-9--9--7-7-9--7-6-10-10-10-10-10-9-9-9-9-12-12-12-12-|
-0------------------------------8---8--8--8--8-7-7-7-7-10-10-10-10-|




------------------------------------------------------------|
------------------------------------------------------------|
------------------------------------------------------------|
-8-8888-8-8888-8-8888-6-6-6-8-8888-8-8888-11-11-11-10-10-10-|
-6-6666-6-6666-6-6666-4-4-4-6-6666-6-6666-9--9--9--8--8--8--|
------------------------------------------------------------|


-----------------------------------------------------------|
-----------------------------------------------------------|
-----------------------------------------------_-----------|
-8-8888-8-8888-8-8888-6-6-6-11-----10---------/ \----------|
-6-6666-6-6666-6-6666-4-4-4--9-9999-8-8888-9-8-9-8-----8---|
-----------------------------9-9999-8-8888---------9-6-----|

------------------------------------------------------------|
------------------------------------------------------------|
------------------------------------------------------------|
-8-8888-8-8888-8-8888-6-6-6-8-8888-8-8888-11-11-11-10-10-10-|
-6-6666-6-6666-6-6666-4-4-4-6-6666-6-6666-9--9--9--8--8--8--|
------------------------------------------------------------|


-----------------------------------------------------------|
-----------------------------------------------------------|
-----------------------------------------------_-----------|
-8-8888-8-8888-8-8888-6-6-6-11-----10---------/ \----------|
-6-6666-6-6666-6-6666-4-4-4--9-9999-8-8888-9-8-9-8-----8---|
-----------------------------9-9999-8-8888---------9-6-----|


------------------------------------------------------------|
------------------------------------------------------------|
------------------------------------------------------------|
-8-8888-8-8888-8-8888-6-6-6-8-8888-8-8888-11-11-11-10-10-10-|
-6-6666-6-6666-6-6666-4-4-4-6-6666-6-6666-9--9--9--8--8--8--|
------------------------------------------------------------|


-----------------------------------------------------------|
-----------------------------------------------------------|
-----------------------------------------------_-----------|
-8-8888-8-8888-8-8888-6-6-6-11-----10---------/ \----------|
-6-6666-6-6666-6-6666-4-4-4--9-9999-8-8888-9-8-9-8-----8---|
-----------------------------9-9999-8-8888---------9-6-----|

------------------------------------------------------------|
------------------------------------------------------------|
------------------------------------------------------------|
-8-8888-8-8888-8-8888-6-6-6-8-8888-8-8888-11-11-11-10-10-10-|
-6-6666-6-6666-6-6666-4-4-4-6-6666-6-6666-9--9--9--8--8--8--|
------------------------------------------------------------|


-----------------------------------------------------------|
-----------------------------------------------------------|
-----------------------------------------------_-----------|
-8-8888-8-8888-8-8888-6-6-6-11-----10---------/ \----------|
-6-6666-6-6666-6-6666-4-4-4--9-9999-8-8888-9-8-9-8-----8---|
-----------------------------9-9999-8-8888---------9-6-----|






-------------------------------------------------------------------|
-------------------------------------------------------------------|
-------------------------------------------------------------------|
----------99999999-------------------------------------------------|
------------------88888888999999996666666655555555-----------------|
-66666666-----------------------------------------8888777744443333-|
 *****************************************************************

-------------------------------------------------------------------|
-------------------------------------------------------------------|
-------------------------------------------------------------------|
----------99999999-------------------------------------------------|
------------------888888889999999966666666555555558888666699998888-|
-66666666----------------------------------------------------------|
 *****************************************************************

-------------------------------------------------------------------|
-------------------------------------------------------------------|
-------------------------------------------------------------------|
----------99999999-------------------------------------------------|
------------------88888888999999996666666655555555-----------------|
-66666666-----------------------------------------8888777744443333-|
 *****************************************************************

-------------------------------------------------------------------|
-------------------------------------------------------------------|
-------------------------------------------------------------------|
----------99999999-------------------------------------------------|
------------------888888889999999966666666555555558888666699998888-|
-66666666----------------------------------------------------------|
 *****************************************************************




----------------------------------------------------------------|
----------------------------------------------------------------|
------------------------------------------------1010101010101010|
101010101010101010101010111111111010101010101010-8-8-8-8-8-8-8-8|
-8-8-8-8-8-8-8-8-8-8-8-8-8-8-8-8-8-8-8-8-8-8-8-8----------------|
----------------------------------------------------------------|

-------------------------------------------|
-------------------------------------------|
-------------------------------------11-11-|
-9-----------111111111010101010101010-9-9--|
-7--77777777-------------------------------|
-------------------------------------------|
    ********  * * * * * * * * * * * *

----------------------------------------------------------------|
----------------------------------------------------------------|
------------------------------------------------1010101010101010|
101010101010101010101010111111111010101010101010-8-8-8-8-8-8-8-8|
-8-8-8-8-8-8-8-8-8-8-8-8-8-8-8-8-8-8-8-8-8-8-8-8----------------|
----------------------------------------------------------------|

---------------------------------|
---------------------------------|
---------------------------------|
-8------8------8-----------------|
-7-7777-7-7777-7-7777--8-10-8-10-|
-----------------------6-8--6--8-|
   ****   ****   ****


----------------------------------------------------------------|
----------------------------------------------------------------|
------------------------------------------------1010101010101010|
101010101010101010101010111111111010101010101010-8-8-8-8-8-8-8-8|
-8-8-8-8-8-8-8-8-8-8-8-8-8-8-8-8-8-8-8-8-8-8-8-8----------------|
----------------------------------------------------------------|

-------------------------------------------|
-------------------------------------------|
-------------------------------------11-11-|
-9-----------111111111010101010101010-9-9--|
-7--77777777-------------------------------|
-------------------------------------------|
    ********  * * * * * * * * * * * *

----------------------------------------------------------------|
----------------------------------------------------------------|
------------------------------------------------1010101010101010|
101010101010101010101010111111111010101010101010-8-8-8-8-8-8-8-8|
-8-8-8-8-8-8-8-8-8-8-8-8-8-8-8-8-8-8-8-8-8-8-8-8----------------|
----------------------------------------------------------------|

---------------------------------|
---------------------------------|
---------------------------------|
-8------8------8-----------------|
-7-7777-7-7777-7-7777--8-10-8-10-|
-----------------------6-8--6--8-|
   ****   ****   ****




------------------------------------------------------------------|
------------------------------------------------------------------|
------------------------------------------------------------------|
-----------------------------------------------------------10-9---|
-----444433334477774444334433--------444433334444---8-7--8-----10-|
-3333-------------------------4~-3333-------------9----8----------|
 ****************************    **************** *      *

-------------------------------------------------------------------|
-----------------------------------------------------------------ph|
---------------------------------------------------10-9----10-12-10|
------------------------------------------10-9---8------10---------|
-----444433334477774444334433-6----8-7--8-----10-------------------|
-3333-------------------------4--9----8----------------------------|
 ****************************    *      *

------------------------------------------------------------------|
------------------------------------------------------------------|
------------------------------------------------------------------|
-----------------------------------------------------------10-9---|
-----444433334477774444334433--------444433334444---8-7--8-----10-|
-3333-------------------------4~-3333-------------9----8----------|
 ****************************    **************** *      *

-----------------------------------------------------------------|
-----------------------------------------------------------------|
---------------------------------------------------10-9----10-12-|
------------------------------------------10-9---8------10-------|
-----444433334477774444334433-6----8-7--8-----10-----------------|
-3333-------------------------4--9----8--------------------------|
 ****************************    *      *        *





|||||||||||||||||||||||||||||||||||||||||||||||||||||||||||||||||
|||||||||||||||||||||||||||||||||||||||||||||||||||||||||||||||||
|||||||||||||||||||||||||||||||||||||||||||||||||||||||||||||||||





03 NUN WITH THE ASTRAL HABIT


------------------------------------------------------------------|
------------------------------------------------------------------|
------------------------------------------------------------------|
-----------------------------8888---------------------------------|
-6666666666666666666688889999----7777777777777777--------99889988-|
-------------------------------------------------88888888---------|

----------------------------------------------------------------|
----------------------------------------------------------------|
----------------------------------------------------------------|
-----------------------------8888-------------------------------|
-6666666666666666666688889999----7777777777777777-5-4-3--5-4-3--|
--------------------------------------------------3-2-1--3-2-1--|
                                                  * * *  * * *
------------------------------------------------------------------|
------------------------------------------------------------------|
------------------------------------------------------------------|
------------------------------------------------------------------|
-66666666666666666666----5555-----------------------------8-7-6-4-|
---------------------6666----6666555555555555555511111111-6-5-4---|
                                                          * * *
-------------------------------------------------------------------------|
-------------------------------------------------------------------------|
-------------------------------------------------------------------------|
------------------------------------------------12111010---10------------|
66666666666666666666----5555--------------------10-9-8-8----8-4-7------9-|
--------------------6666----66665555555555555555--------7-8---2-5--5-8-7\|
                                                        * *        * *


0:22
------------------------------------------------------------|
------------------------------------------------------------|
------------------------------------------------------------|
------------------------------------------------------------|
-7--------------8---------------9--------------3--5--3-6-4--|
-5-000000000000-6-00000000-5-8--7\000000000000-1--3--1-4-2--|
   ************   ******** * *    ************       * *
------------------------------------------------------------|
------------------------------------------------------------|
------------------------------------------------------------|
------------------------------------------------------------|
-7--------------8---------------9--------------3--5--3-6-4--|
-5-000000000000-6-00000000-5-8--7\000000000000-1--3--1-4-2--|
   ************   ******** * *    ************       * *
------------------------------------------------------------|
------------------------------------------------------------|
------------------------------------------------------------|
------------------------------------------------------------|
-7--------------8---------------9--------------3--5--3-6-4--|
-5-000000000000-6-00000000-5-8--7\000000000000-1--3--1-4-2--|
   ************   ******** * *    ************       * *
------------------------------------------------------------|
------------------------------------------------------------|
------------------------------------------------------------|
---------------------------------------------------------2--|
-7--------------8---------------9--------------3--5--3-6-4--|
-5-000000000000-6-00000000-5-8--7\000000000000-1--3--1-4-2--|
   ************   ******** * *    ************       * *



0:44
--------------------------------------------------|
--------------------------------------------------|
--------------------------------------------------|
--------------------------------------------------|
-2-2-2-2-2-2-4-4-4-2-2-2-5-5-5-5-5-5-4-4-4-5-5-5--|
--------------------------------------------------|
 * * * * * * * * * * * * * * * * * * * * * * * *

----------------------------------------------------------|
----------------------------------------------------------|
----------------------------------------------------------|
--------------------------------^-------------------------|
-2-2-2-2-2-2-4-4-4-2-2-2-5--4--5-4---7-77-7-77-7-77-7-77--|
-----------------------------------7-5-55-5-55-5-55-5-55--|
 * * * * * * * * * * * *
-----------------------------------------------------------|
-----------------------------------------------------------|
-----------------------------------------------------------|
-----------------------------------------------------------|
------6------6------3-3-4--2222222244442222555555554445555-|
-5555-4-5555-4-2222-1-1-2----------------------------------|
 ****   ****   ****        *******************************

-----------------------------------------------------------------------|
-----------------------------------------------------------------------|
-----------------------------------------------------------------------|
-----------------------^-----------------------------------------------|
2222222244442222-5-4--5-4--7-77-7-77-7-77-7-77------6------6------3-3-4|
-------------------------7-5-55-5-55-5-55-5-55-5555-4-5555-4-2222-1-1-2|
****************                               ****   ****   ****


1:05
-----------------------------------------------------------------|
-----------------------------------------------------------------|
-----------------------------------------------------------------|
-----------------------------------------------------------------|
------5-------4-------8-------7-------5-------4-------8-------7--|
-3333-3--3322-2--6666-6--6655-5--3333-3--3322-2--6666-6--6655-5--|
 ****    ****    ****    ****    ****    ****    ****    ****
-----------------------------------------------------------------|
-----------------------------------------------------------------|
-----------------------------------------------------------------|
-----------------------------------------------------------------|
------5-------4-------8-------7-------5-------4-------8-------7--|
-3333-3--3322-2--6666-6--6655-5--3333-3--3322-2--6666-6--6655-5--|
 ****    ****    ****    ****    ****    ****    ****    ****




1:15
------------------------------------------------------------------|
------------------------------------------------------------------|
------------------------------------------------------------------|
-10101010101010101010101010101010-9-9-9-9-9-9-9-9-9-9-9-9-9-9-9-9-|
--8-8-8-8-8-8-8-8-8-8-8-8-8-8-8-8-8-8-8-8-8-8-8-8-8-8-8-8-8-8-8-8-|
------------------------------------------------------------------|

-----------------------------------------------------------------|
-----------------------------------------------------------------|
-----------------------------------------------------------------|
-----------------------------------------8-8-8-8-7-7-5-5-7-7-7-7-|
10101010101010101010101010101010-6-6-6-6-6-6-6-6-5-5-3-3-5-5-5-5-|
-8-8-8-8-8-8-8-8-8-8-8-8-8-8-8-8-4-4-4-4-------------------------|


------------------------------------------------------------------|
------------------------------------------------------------------|
------------------------------------------------------------------|
-10101010101010101010101010101010-9-9-9-9-9-9-9-9-9-9-9-9-9-9-9-9-|
--8-8-8-8-8-8-8-8-8-8-8-8-8-8-8-8-8-8-8-8-8-8-8-8-8-8-8-8-8-8-8-8-|
------------------------------------------------------------------|

-----------------------------------------------------------------|
-----------------------------------------------------------------|
-----------------------------------------------------------------|
-----------------------------------------8-8-8-8-----------------|
10101010101010101010101010101010-6-6-6-6-6-6-6-6-6-6-6-6-5-5-5-5-|
-8-8-8-8-8-8-8-8-8-8-8-8-8-8-8-8-4-4-4-4---------4-4-4-4-3-3-3-3-|

------------------------------------------------------------------|
------------------------------------------------------------------|
------------------------------------------------------------------|
-10101010101010101010101010101010-9-9-9-9-9-9-9-9-9-9-9-9-9-9-9-9-|
--8-8-8-8-8-8-8-8-8-8-8-8-8-8-8-8-8-8-8-8-8-8-8-8-8-8-8-8-8-8-8-8-|
------------------------------------------------------------------|

-----------------------------------------------------------------|
-----------------------------------------------------------------|
-----------------------------------------------------------------|
-----------------------------------------8-8-8-8-7-7-5-5-7-7-7-7-|
10101010101010101010101010101010-6-6-6-6-6-6-6-6-5-5-3-3-5-5-5-5-|
-8-8-8-8-8-8-8-8-8-8-8-8-8-8-8-8-4-4-4-4-------------------------|


------------------------------------------------------------------|
------------------------------------------------------------------|
------------------------------------------------------------------|
-10101010101010101010101010101010-9-9-9-9-9-9-9-9-9-9-9-9-9-9-9-9-|
--8-8-8-8-8-8-8-8-8-8-8-8-8-8-8-8-8-8-8-8-8-8-8-8-8-8-8-8-8-8-8-8-|
------------------------------------------------------------------|

-----------------------------------------------------------------|
-----------------------------------------------------------------|
-----------------------------------------------------------------|
-----------------------------------------8-8-8-8-----------------|
10101010101010101010101010101010-6-6-6-6-6-6-6-6-6-6-6-6-5-5-5-5-|
-8-8-8-8-8-8-8-8-8-8-8-8-8-8-8-8-4-4-4-4---------4-4-4-4-3-3-3-3-|

-----------------|
-----------------|
-----------------|
-----------------|
-4--7-------9----|
-2--5--5-8--7----|
       * *




1:38
------------------------------------------------------------|
------------------------------------------------------------|
------------------------------------------------------------|
------------------------------------------------------------|
-7--------------8---------------9--------------3--5--3-6-4--|
-5-000000000000-6-00000000-4-8--7\000000000000-1--3--1-4-2--|
   ************   ******** * *    ************       * *
------------------------------------------------------------|
------------------------------------------------------------|
------------------------------------------------------------|
------------------------------------------------------------|
-7--------------8---------------9--------------3--5--3-6-4--|
-5-000000000000-6-00000000-5-8--7\000000000000-1--3--1-4-2--|
   ************   ******** * *    ************       * *
------------------------------------------------------------|
------------------------------------------------------------|
------------------------------------------------------------|
------------------------------------------------------------|
-7--------------8---------------9--------------3--5--3-6-4--|
-5-000000000000-6-00000000-5-8--7\000000000000-1--3--1-4-2--|
   ************   ******** * *    ************       * *
------------------------------------------------------------|
------------------------------------------------------------|
------------------------------------------------------------|
---------------------------------------------------------2--|
-7--------------8---------------9--------------3--5--3-6-4--|
-5-000000000000-6-00000000-5-8--7\000000000000-1--3--1-4-2--|
   ************   ******** * *    ************       * *



2:00
--------------------------------------------------|
--------------------------------------------------|
--------------------------------------------------|
--------------------------------------------------|
-2-2-2-2-2-2-4-4-4-2-2-2-5-5-5-5-5-5-4-4-4-5-5-5--|
--------------------------------------------------|
 * * * * * * * * * * * * * * * * * * * * * * * *

----------------------------------------------------------|
----------------------------------------------------------|
----------------------------------------------------------|
--------------------------------^-------------------------|
-2-2-2-2-2-2-4-4-4-2-2-2-5--4--5-4---7-77-7-77-7-77-7-77--|
-----------------------------------7-5-55-5-55-5-55-5-55--|
 * * * * * * * * * * * *
-----------------------------------------------------------|
-----------------------------------------------------------|
-----------------------------------------------------------|
-----------------------------------------------------------|
------6------6------3-3-4--2222222244442222555555554445555-|
-5555-4-5555-4-2222-1-1-2----------------------------------|
 ****   ****   ****        *******************************

-----------------------------------------------------------------------|
-----------------------------------------------------------------------|
-----------------------------------------------------------------------|
-----------------------^-----------------------------------------------|
2222222244442222-5-4--5-4--7-77-7-77-7-77-7-77------6------6------3-3-4|
-------------------------7-5-55-5-55-5-55-5-55-5555-4-5555-4-2222-1-1-2|
****************                               ****   ****   ****



2:21
-----------------------------------------------------------------|
-----------------------------------------------------------------|
-----------------------------------------------------------------|
-----------------------------------------------------------------|
------5-------4-------8-------7-------5-------4-------8-------7--|
-3333-3--3322-2--6666-6--6655-5--3333-3--3322-2--6666-6--6655-5--|
 ****    ****    ****    ****    ****    ****    ****    ****
-----------------------------------------------------------------|
-----------------------------------------------------------------|
-----------------------------------------------------------------|
-----------------------------------------------------------------|
------5-------4-------8-------7-------5-------4-------8-------7--|
-3333-3--3322-2--6666-6--6655-5--3333-3--3322-2--6666-6--6655-5--|
 ****    ****    ****    ****    ****    ****    ****    ****



2:32
------------------------------------------------------------------|
------------------------------------------------------------------|
------------------------------------------------------------------|
-10101010101010101010101010101010-9-9-9-9-9-9-9-9-9-9-9-9-9-9-9-9-|
--8-8-8-8-8-8-8-8-8-8-8-8-8-8-8-8-8-8-8-8-8-8-8-8-8-8-8-8-8-8-8-8-|
------------------------------------------------------------------|

-----------------------------------------------------------------|
-----------------------------------------------------------------|
-----------------------------------------------------------------|
-----------------------------------------8-8-8-8-7-7-5-5-7-7-7-7-|
10101010101010101010101010101010-6-6-6-6-6-6-6-6-5-5-3-3-5-5-5-5-|
-8-8-8-8-8-8-8-8-8-8-8-8-8-8-8-8-4-4-4-4-------------------------|


------------------------------------------------------------------|
------------------------------------------------------------------|
------------------------------------------------------------------|
-10101010101010101010101010101010-9-9-9-9-9-9-9-9-9-9-9-9-9-9-9-9-|
--8-8-8-8-8-8-8-8-8-8-8-8-8-8-8-8-8-8-8-8-8-8-8-8-8-8-8-8-8-8-8-8-|
------------------------------------------------------------------|

-----------------------------------------------------------------|
-----------------------------------------------------------------|
-----------------------------------------------------------------|
-----------------------------------------8-8-8-8-----------------|
10101010101010101010101010101010-6-6-6-6-6-6-6-6-6-6-6-6-5-5-5-5-|
-8-8-8-8-8-8-8-8-8-8-8-8-8-8-8-8-4-4-4-4---------4-4-4-4-3-3-3-3-|

------------------------------------------------------------------|
------------------------------------------------------------------|
------------------------------------------------------------------|
-10101010101010101010101010101010-9-9-9-9-9-9-9-9-9-9-9-9-9-9-9-9-|
--8-8-8-8-8-8-8-8-8-8-8-8-8-8-8-8-8-8-8-8-8-8-8-8-8-8-8-8-8-8-8-8-|
------------------------------------------------------------------|

-----------------------------------------------------------------|
-----------------------------------------------------------------|
-----------------------------------------------------------------|
-----------------------------------------8-8-8-8-7-7-5-5-7-7-7-7-|
10101010101010101010101010101010-6-6-6-6-6-6-6-6-5-5-3-3-5-5-5-5-|
-8-8-8-8-8-8-8-8-8-8-8-8-8-8-8-8-4-4-4-4-------------------------|


------------------------------------------------------------------|
------------------------------------------------------------------|
------------------------------------------------------------------|
-10101010101010101010101010101010-9-9-9-9-9-9-9-9-9-9-9-9-9-9-9-9-|
--8-8-8-8-8-8-8-8-8-8-8-8-8-8-8-8-8-8-8-8-8-8-8-8-8-8-8-8-8-8-8-8-|
------------------------------------------------------------------|

-----------------------------------------------------------------|
-----------------------------------------------------------------|
-----------------------------------------------------------------|
-----------------------------------------8-8-8-8-----------------|
10101010101010101010101010101010-6-6-6-6-6-6-6-6-6-6-6-6-5-5-5-5-|
-8-8-8-8-8-8-8-8-8-8-8-8-8-8-8-8-4-4-4-4---------4-4-4-4-3-3-3-3-|




2:53
---------------------------------------------------------------------|
---------------------------------------------------------------------|
---------------------------------------------------------------------|
---------------------------------------------------------------------|
---------------------------------------------------------------------|
-0-0-0-0-0-0-0-0-0-0-0-0-0-0-0-000-0-0-0-0-0-0-0-0-0-0-0-0-0-0-0-000-|
 * * * * * * * * * * * * * * * *** * * * * * * * * * * * * * * * ***

---------------------------------------------------------------------|
---------------------------------------------------------------------|
---------------------------------------------------------------------|
---------------------------------------------------------------------|
---------------------------------------------------------------------|
-0-0-0-0-0-0-0-0-0-0-0-0-0-0-0-000-0-0-0-0-0-0-0-0-0-0-0-0-0-0-0-000-|
 * * * * * * * * * * * * * * * *** * * * * * * * * * * * * * * * ***

---------------------------------------------------------------------|
---------------------------------------------------------------------|
---------------------------------------------------------------------|
---------------------------------------------------------------------|
---------------------------------------------------------------------|
-0-0-0-0-0-0-0-0-0-0-0-0-0-0-0-000-0-0-0-0-0-0-0-0-0-0-0-0-0-0-0-000-|
 * * * * * * * * * * * * * * * *** * * * * * * * * * * * * * * * ***

---------------------------------------------------------------------|
---------------------------------------------------------------------|
---------------------------------------------------------------------|
---------------------------------------------------------------------|
---------------------------------------------------------------------|
-0-0-0-0-0-0-0-0-0-0-0-0-0-0-0-000-0-0-0-0-0-0-0-0-0-0-0-0-0-0-0-000-|
 * * * * * * * * * * * * * * * *** * * * * * * * * * * * * * * * ***

---------------------------------------------------------------------|
---------------------------------------------------------------------|
---------------------------------------------------------------------|
---------------------------------------------------------------------|
---------------------------------------------------------------------|
-0-0-0-0-0-0-0-0-0-0-0-0-0-0-0-000-0-0-0-0-0-0-0-0-0-0-0-0-0-0-0-000-|
 * * * * * * * * * * * * * * * *** * * * * * * * * * * * * * * * ***

----------------------------------|
----------------------------------|
----------------------------------|
--12-11-1010----10----------------|
--10-9--8-8------8--4--7-------9--|
-------------7-8----2--5--5-8--7\-|
             * *          * *



3:43

SOLO

 1
------------------------------------------_____-------------|
-----------------------------------------/     \-------13---|
-/4~--4/5-5-4-4/5-8~-----/9~---\-/11---12\/-14\/16--16------|
------------------------------------------------------------|
------------------------------------------------------------|
------------------------------------------------------------|
2
------------------------------------------------------------|
------------------------------------------------------------|
------------------------------------------------------------|
------------------------------------------------------------|
-7--------------8---------------9--------------3--5--3-6-4--|
-5-000000000000-6-00000000-5-8--7\000000000000-1--3--1-4-2--|
   ************   ******** * *    ************       * *

1    _________________
----)-----------------(-----------------------------------------------|
-16-----16-16-16---16---16~~~-------------------SPH_____--------------|
--------------------------------------------------/     \-------------|
----------------------------------------13---13-14-16-14-13-14/17-16~-|
-------------------------------12-14-15----15-------------------------|
----------------------------------------------------------------------|
                                *  *  *     * *
2
------------------------------------------------------------|
------------------------------------------------------------|
------------------------------------------------------------|
------------------------------------------------------------|
-7--------------8---------------9--------------3--5--3-6-4--|
-5-000000000000-6-00000000-5-8--7\000000000000-1--3--1-4-2--|
   ************   ******** * *    ************       * *

 1
--TR~~--TR~~--TR~---TR~~--TR~~--TR~-1920--1920--1920--------20-19-17-|
1213--1213--1213--1617--1617--1617----TR~~--TR~~--TR~-20-22----------|
---------------------------------------------------------------------|
---------------------------------------------------------------------|
---------------------------------------------------------------------|
---------------------------------------------------------------------|
2
------------------------------------------------------------|
------------------------------------------------------------|
------------------------------------------------------------|
------------------------------------------------------------|
-7--------------8---------------9--------------3--5--3-6-4--|
-5-000000000000-6-00000000-5-8--7\000000000000-1--3--1-4-2--|
   ************   ******** * *    ************       * *

1
       _____________           ____________          ________
      /             \         /            \        /        \   )(
/19-17\151715\141514\12-/15-14\121412\1112118-/12-10\8108\787\5-7---~8\|
-----------------------------------------------------------------------|
-----------------------------------------------------------------------|
-----------------------------------------------------------------------|
-----------------------------------------------------------------------|
-----------------------------------------------------------------------|
2
------------------------------------------------------------|
------------------------------------------------------------|
------------------------------------------------------------|
---------------------------------------------------------2--|
-7--------------8---------------9--------------3--5--3-6-4--|
-5-000000000000-6-00000000-5-8--7\000000000000-1--3--1-4-2--|
   ************   ******** * *    ************       * *



4:05

-----------------------------------------------------------------|
-----------------------------------------------------------------|
-----------------------------------------------------------------|
-----------------------------------------------------------------|
------5-------4-------8-------7-------5-------4-------8-------7--|
-3333-3--3322-2--6666-6--6655-5--3333-3--3322-2--6666-6--6655-5--|
 ****    ****    ****    ****    ****    ****    ****    ****
-----------------------------------------------------------------|
-----------------------------------------------------------------|
-----------------------------------------------------------------|
-----------------------------------------------------------------|
------5-------4-------8-------7-------5-------4-------8-------7--|
-3333-3--3322-2--6666-6--6655-5--3333-3--3322-2--6666-6--6655-5--|
 ****    ****    ****    ****    ****    ****    ****    ****

-----------------------------------------------------------------|
-----------------------------------------------------------------|
-----------------------------------------------------------------|
-----------------------------------------------------------------|
------5-------4-------8-------7-------5-------4-------8-------7--|
-3333-3--3322-2--6666-6--6655-5--3333-3--3322-2--6666-6--6655-5--|
 ****    ****    ****    ****    ****    ****    ****    ****
-----------------------------------------------------------------|
-----------------------------------------------------------------|
-----------------------------------------------------------------|
-----------------------------------------------------------------|
------5-------4-------8-------7-------5-------4-------8-------7--|
-3333-3--3322-2--6666-6--6655-5--3333-3--3322-2--6666-6--6655-5--|
 ****    ****    ****    ****    ****    ****    ****    ****




4:26
------------------------------------------------------------------|
------------------------------------------------------------------|
------------------------------------------------------------------|
-----------------------------8888---------------------------------|
-6666666666666666666688889999----7777777777777777--------99889988-|
-------------------------------------------------88888888---------|


----------------------------------------------------------------|
----------------------------------------------------------------|
----------------------------------------------------------------|
-----------------------------8888-------------------------------|
-6666666666666666666688889999----7777777777777777-5-4-3--5-4-3--|
--------------------------------------------------3-2-1--3-2-1--|
                                                  * * *  * * *

------------------------------------------------------------------|
------------------------------------------------------------------|
------------------------------------------------------------------|
------------------------------------------------------------------|
-66666666666666666666----5555-----------------------------8-7-6-4-|
---------------------6666----6666555555555555555511111111-6-5-4---|
                                                          * * *


-------------------------------------------------------------------------|
-------------------------------------------------------------------------|
-------------------------------------------------------------------------|
------------------------------------------------12111010---10------------|
66666666666666666666----5555--------------------10-9-8-8----8-4-7------9-|
--------------------6666----66665555555555555555--------7-8---2-5--5-8-7\|
                                                        * *        * *




|||||||||||||||||||||||||||||||||||||||||||||||||||||||||||||||||
|||||||||||||||||||||||||||||||||||||||||||||||||||||||||||||||||
|||||||||||||||||||||||||||||||||||||||||||||||||||||||||||||||||




04   RETREAT OF THE SACRED HEART




----------------------------------------------------|
----------------------------------------------------|
----------------------------------------------------|
----------------------------------------------------|
----------5-5----------5-4----------5-5--9-9--8-8-5-|
-22222222-3-3-33333333-3-2-22222222-3-3--7-7--6-6-3-|
 ********     ********     ********

----------------------------------------------------|
----------------------------------------------------|
----------------------------------------------------|
----------------------------------------------------|
----------5-5----------5-4----------5-5--3-3--6-6-5-|
-22222222-3-3-33333333-3-2-22222222-3-3--1-1--4-4-3-|
 ********     ********     ********

----------------------------------------------------|
----------------------------------------------------|
----------------------------------------------------|
----------------------------------------------------|
----------5-5----------5-4----------5-5--9-9--8-8-5-|
-22222222-3-3-33333333-3-2-22222222-3-3--7-7--6-6-3-|
 ********     ********     ********

----------------------------------------------------|
----------------------------------------------------|
----------------------------------------------------|
----------------------------------------------------|
----------5-5----------5-4---------------3-3--6-6-5-|
-22222222-3-3-33333333-3-2---------------1-1--4-4-3-|
 ********     ********





------------------------------------------------------------------|
------------------------------------------------------------------|
------------------------------------------------------------------|
---------6666----5555555555555555--------6666---------------------|
-44444444----4444----------------44444444----44446666444477774466-|
------------------------------------------------------------------|

------------------------------------------------------------------|
------------------------------------------------------------------|
------------------------------------------------------------------|
---------6666----5555555555555555--------6666-----7-9-7-910-9-7-9-|
-44444444----4444----------------44444444----4444-5-7-5-7-8-7-5-7-|
--------------------------------------------------5-7-5-7-8-7-5-7-|
                                                  * * * * * * * *
------------------------------------------------------------------|
------------------------------------------------------------------|
------------------------------------------------------------------|
---------6666----5555555555555555--------6666---------------------|
-44444444----4444----------------44444444----44446666444477774466-|
------------------------------------------------------------------|

------------------------------------------------------------------|
------------------------------------------------------------------|
------------------------------------------------------------------|
---------6666----5555555555555555--------6666-----7-9-7-910-9-7-9-|
-44444444----4444----------------44444444----4444-5-7-5-7-8-7-5-7-|
--------------------------------------------------5-7-5-7-8-7-5-7-|
                                                  * * * * * * * *



1
---------------------------------------------------------------|
---------------------------------------------------------------|
---------------------------------------------------------------|
---------------3-----------------------------------------------|
-7----5----7--------7----5---7----5----7---10-10-10-10-9-9-7-7-|
---33---33---3---33---33---3---33---33---3-8--8--8--8--7-7-5-5-|
   **   **   *   **   **   *   **   **   *
2
---------------------------------------------------------------|
---------------------------------------------------------------|
---------------------------------------------------------------|
-------------------------------------------5--5--5--5--4-4-2-2-|
-------------------------------------------3--3--3--3--2-2-0-0-|
---------------------------------------------------------------|

1
---------------------------------------------------------------|
---------------------------------------------------------------|
---------------------------------------------------------------|
---------------3-----------------------------------------------|
-7----5----7--------7----5---7----5----7---10-10-10-10-9-9-7-7-|
---33---33---3---33---33---3---33---33---3-8--8--8--8--7-7-5-5-|
   **   **   *   **   **   *   **   **   *
---------------------------------------------------------------|
---------------------------------------------------------------|
-4--------4----5----4------------------------------------------|
-----7------------------7----5----4---7----5--5--5--5--4-4-2-2-|
-------------------------------------------3--3--3--3--2-2-0-0-|
--33---33---3---33---33---3---33---33---3----------------------|
  **   **   *   **   **   *   **   **   *

1
---------------------------------------------------------------|
---------------------------------------------------------------|
---------------------------------------------------------------|
---------------3-----------------------------------------------|
-7----5----7--------7----5---7----5----7---10-10-10-10-9-9-7-7-|
---33---33---3---33---33---3---33---33---3-8--8--8--8--7-7-5-5-|
   **   **   *   **   **   *   **   **   *
---------------------------------------------------------------|
---------------------------------------------------------------|
-----------------------------4--------4------------------------|
-5----4---5---7----5----4---------7--------5--5--5--5--4-4-7-7-|
-------------------------------------------3--3--3--3--2-2-5-5-|
--33---33---3---33---33---3---33---33---3----------------------|
  **   **   *   **   **   *   **   **   *

1
---------------------------------------------------------------|
---------------------------------------------------------------|
---------------------------------------------------------------|
---------------3-----------------------------------------------|
-7----5----7--------7----5---7----5----7---10-10-10-10-9-9-7-7-|
---33---33---3---33---33---3---33---33---3-8--8--8--8--7-7-5-5-|
   **   **   *   **   **   *   **   **   *
---------------------------------------------------------------|
---------------------------------------------------------------|
-4--------4----5----4------------------------------------------|
-----7------------------7----5----4---7----5--5--5--5--4-4-2-2-|
-------------------------------------------3--3--3--3--2-2-0-0-|
--33---33---3---33---33---3---33---33---3----------------------|
  **   **   *   **   **   *   **   **   *





---------------------------------------------------------------|
---------------------------------------------------------------|
---------------------------------------------------------------|
---------------------------------------------------------------|
-----44443333----44443333----44443333----44443333--------------|
-2222--------2222--------2222--------2222----------------------|

-----------------------------------------------------------------|
-----------------------------------------------------------------|
-----------------------------------------------------------------|
-----------------------------------------------------------------|
-----44443333----44443333----44443333----444433333333333333333333|
-2222--------2222--------2222--------2222------------------------|

---------------------------------------------------------------|
---------------------------------------------------------------|
---------------------------------------------------------------|
---------------------------------------------------------------|
-----44443333----44443333----44443333----44443333--------------|
-2222--------2222--------2222--------2222----------------------|

-----------------------------------------------------------------|
-----------------------------------------------------------------|
-----------------------------------------------------------------|
-----------------------------------------------------------------|
-----44443333----44443333----44443333----444433333333333333333333|
-2222--------2222--------2222--------2222------------------------|



----------------------------------------------------|
----------------------------------------------------|
----------------------------------------------------|
----------------------------------------------------|
----------5-5----------5-4----------5-5--9-9--8-8-5-|
-22222222-3-3-33333333-3-2-22222222-3-3--7-7--6-6-3-|
 ********     ********     ********

----------------------------------------------------|
----------------------------------------------------|
----------------------------------------------------|
----------------------------------------------------|
----------5-5----------5-4----------5-5--3-3--6-6-5-|
-22222222-3-3-33333333-3-2-22222222-3-3--1-1--4-4-3-|
 ********     ********     ********

----------------------------------------------------|
----------------------------------------------------|
----------------------------------------------------|
----------------------------------------------------|
----------5-5----------5-4----------5-5--9-9--8-8-5-|
-22222222-3-3-33333333-3-2-22222222-3-3--7-7--6-6-3-|
 ********     ********     ********

----------------------------------------------------|
----------------------------------------------------|
----------------------------------------------------|
----------------------------------------------------|
----------5-5----------5-4----------5-5--3-3--6-6-5-|
-22222222-3-3-33333333-3-2-22222222-3-3--1-1--4-4-3-|
 ********     ********     ********




                                                    __
1                                                  /  \
----7---5-------------------------7---5---7--/10--8-10-8-7--8--10--8-|
5-----------8---7----8-7-5----5--------------------------------------|
---------------------------------------------------------------------|
---------------------------------------------------------------------|
---------------------------------------------------------------------|
---------------------------------------------------------------------|
2
-----------------------------------------------------------------------|
-----------------------------------------------------------------------|
-----------------------------------------------------------------------|
-----------------------------------------------------------------------|
-10-9-7-9-7----10-9-7-9-----10-9-7-9-7----12-10-9-10-9-7-9---10--9--5-5|
-----------------------10---------------------------------10--8--7--3-3|

                                                    __
1                                                  /  \
----7---5-------------------------7---5---7--/10--8-10-8-7--8--10--8-|
5-----------8---7----8-7-5----5--------------------------------------|
---------------------------------------------------------------------|
---------------------------------------------------------------------|
---------------------------------------------------------------------|
---------------------------------------------------------------------|
2
-----------------------------------------------------------------------|
-----------------------------------------------------------------------|
-----------------------------------------------------------------------|
-----------------------------------------------------------------------|
-10-9-7-9-7----10-9-7-9-----10-9-7-9-7----12-10-9-10-9-7-9---10--9--5-5|
-----------------------10---------------------------------10--8--7--3-3|





-------------------------------------------------------------------|
-------------------------------------------------------------------|
-------------------------------------------------------------------|
-------------------------------------------------------------------|
----------4444----3333333333333333--------4444---------------------|
-222222222----2222----------------22222222----22224444222255552244-|

-------------------------------------------------------------------|
-------------------------------------------------------------------|
-------------------------------------------------------------------|
---------------------------------------------------7-9-7-910-9-7-9-|
----------4444----3333333333333333--------4444-----5-7-5-7-8-7-5-7-|
-222222222----2222----------------22222222----2222-5-7-5-7-8-7-5-7-|
                                                   * * * * * * * *
-------------------------------------------------------------------|
-------------------------------------------------------------------|
-------------------------------------------------------------------|
-------------------------------------------------------------------|
----------4444----3333333333333333--------4444---------------------|
-222222222----2222----------------22222222----22224444222255552244-|

-------------------------------------------------------------------|
-------------------------------------------------------------------|
-------------------------------------------------------------------|
---------------------------------------------------7-9-7-910-9-7-9-|
----------4444----3333333333333333--------4444-----5-7-5-7-8-7-5-7-|
-222222222----2222----------------22222222----2222-5-7-5-7-8-7-5-7-|
                                                   * * * * * * * *



1
---------------------------------------------------------------|
---------------------------------------------------------------|
---------------------------------------------------------------|
---------------3-----------------------------------------------|
-7----5----7--------7----5---7----5----7---10-10-10-10-9-9-7-7-|
---33---33---3---33---33---3---33---33---3-8--8--8--8--7-7-5-5-|
   **   **   *   **   **   *   **   **   *
---------------------------------------------------------------|
---------------------------------------------------------------|
-4--------4----5----4------------------------------------------|
-----7------------------7----5----4---7----5--5--5--5--4-4-2-2-|
-------------------------------------------3--3--3--3--2-2-0-0-|
--33---33---3---33---33---3---33---33---3----------------------|
  **   **   *   **   **   *   **   **   *

1
---------------------------------------------------------------|
---------------------------------------------------------------|
---------------------------------------------------------------|
---------------3-----------------------------------------------|
-7----5----7--------7----5---7----5----7---10-10-10-10-9-9-7-7-|
---33---33---3---33---33---3---33---33---3-8--8--8--8--7-7-5-5-|
   **   **   *   **   **   *   **   **   *
---------------------------------------------------------------|
---------------------------------------------------------------|
-----------------------------4--------4------------------------|
-5----4---5---7----5----4---------7--------5--5--5--5--4-4-7-7-|
-------------------------------------------3--3--3--3--2-2-5-5-|
--33---33---3---33---33---3---33---33---3----------------------|
  **   **   *   **   **   *   **   **   *

1
---------------------------------------------------------------|
---------------------------------------------------------------|
---------------------------------------------------------------|
---------------3-----------------------------------------------|
-7----5----7--------7----5---7----5----7---10-10-10-10-9-9-7-7-|
---33---33---3---33---33---3---33---33---3-8--8--8--8--7-7-5-5-|
   **   **   *   **   **   *   **   **   *
---------------------------------------------------------------|
---------------------------------------------------------------|
-4--------4----5----4------------------------------------------|
-----7------------------7----5----4---7----5--5--5--5--4-4-2-2-|
-------------------------------------------3--3--3--3--2-2-0-0-|
--33---33---3---33---33---3---33---33---3----------------------|
  **   **   *   **   **   *   **   **   *



---------------------------------------------------------------|
---------------------------------------------------------------|
---------------------------------------------------------------|
---------------------------------------------------------------|
-----44443333----44443333----44443333----44443333--------------|
-2222--------2222--------2222--------2222----------------------|

-----------------------------------------------------------------|
-----------------------------------------------------------------|
-----------------------------------------------------------------|
-----------------------------------------------------------------|
-----44443333----44443333----44443333----444433333333333333333333|
-2222--------2222--------2222--------2222------------------------|

---------------------------------------------------------------|
---------------------------------------------------------------|
---------------------------------------------------------------|
---------------------------------------------------------------|
-----44443333----44443333----44443333----44443333--------------|
-2222--------2222--------2222--------2222----------------------|

-----------------------------------------------------------------|
-----------------------------------------------------------------|
-----------------------------------------------------------------|
-----------------------------------------------------------------|
-----44443333----44443333----44443333----444433333333333333333333|
-2222--------2222--------2222--------2222------------------------|



----------------------------------------------------|
----------------------------------------------------|
----------------------------------------------------|
----------------------------------------------------|
----------5-5----------5-4----------5-5--9-9--8-8-5-|
-22222222-3-3-33333333-3-2-22222222-3-3--7-7--6-6-3-|
 ********     ********     ********

----------------------------------------------------|
----------------------------------------------------|
----------------------------------------------------|
----------------------------------------------------|
----------5-5----------5-4----------5-5--3-3--6-6-5-|
-22222222-3-3-33333333-3-2-22222222-3-3--1-1--4-4-3-|
 ********     ********     ********

----------------------------------------------------|
----------------------------------------------------|
----------------------------------------------------|
----------------------------------------------------|
----------5-5----------5-4----------5-5--9-9--8-8-5-|
-22222222-3-3-33333333-3-2-22222222-3-3--7-7--6-6-3-|
 ********     ********     ********

----------------------------------------------------|
----------------------------------------------------|
----------------------------------------------------|
----------------------------------------------------|
----------5-5----------5-4----------5-5--3-3--6-6-5-|
-22222222-3-3-33333333-3-2-22222222-3-3--1-1--4-4-3-|
 ********     ********     ********





|||||||||||||||||||||||||||||||||||||||||||||||||||||||||||||||||
|||||||||||||||||||||||||||||||||||||||||||||||||||||||||||||||||
|||||||||||||||||||||||||||||||||||||||||||||||||||||||||||||||||



05 THE PERSECUTION SONG



GT1
---------------------------------------------------------------------------|
---------------------------------------------------------------------____--|
----11--------9----12-----------9-----11--------9----12-------------/    \-|
--9---9-9---9---10---10\7-7---7-----9---9-9---9---10---10\7-7--10--9-10-9\7|
7---------7-----------------7-----7---------7------------------------------|
---------------------------------------------------------------------------|

GT2
------------------------------------------------------------------------|
------------------------------------------------------------------------|
------------------------------------------------------------------------|
-----------------5-5-5-5---7-7-7-7---------------------5-5-5-5---7-7-7-7|
2-2-2-2-2-2-2-2--3-3-3-3---5-5-5-5----2-2-2-2-2-2-2-2--3-3-3-3---5-5-5-5|
0-0-0-0-0-0-0-0-----------------------0-0-0-0-0-0-0-0-------------------|
* * * * * * * *  * * * *   * * * *    * * * * * * * *  * * * *   * * * *

GT1
---------------------------------------------------------------------------|
---------------------------------------------------------------------____--|
----11--------9----12-----------9-----11--------9----12-------------/    \-|
--9---9-9---9---10---10\7-7---7-----9---9-9---9---10---10\7-7--10--9-10-9\7|
7---------7-----------------7-----7---------7------------------------------|
---------------------------------------------------------------------------|

GT2
------------------------------------------------------------------------|
------------------------------------------------------------------------|
------------------------------------------------------------------------|
-----------------5-5-5-5---7-7-7-7---------------------5-5-5-5---7-7-7-7|
2-2-2-2-2-2-2-2--3-3-3-3---5-5-5-5----2-2-2-2-2-2-2-2--3-3-3-3---5-5-5-5|
0-0-0-0-0-0-0-0-----------------------0-0-0-0-0-0-0-0-------------------|
* * * * * * * *  * * * *   * * * *    * * * * * * * *  * * * *   * * * *

0:40

B
----------------------------------------------------------|
----------------------------------------------------------|
----------------------------------------------------------|
------11-9--8---------------------12-11-10----------------|
-7----8--7--6-----7--9|--10--7----10--9-8-----7--9|--10---|
-5----8--7--6-----5--7|--8-|-5----10--9-8-----5--7|--8-|--|

--------------------------------------------------------------------|
--------------------------------------------------------------------|
--------------------------------------------------------------------|
------11-9--8---------------------12-11-10--------------------------|
-7----8--7--6-----7--9|--10--7----10--9-8-----7--9|--10--7--9|--10--|
-5----8--7--6-----5--7|--8-|-5----10--9-8-----5--7|--8-|-5--7|--8-|-|



1:02
B
--------------------------------------------------------------------------|
--------------------------------------------------------------------------|
------------___-------------___--------------___-------____-------___-----|
-----------/---\-----------/---\------------/---\-----/----\-----/   \----|
---------10-9-7-9---------9-7-6-7---------10-9-7-9--12-10-9-10-10-9-7-9---|
-000000------------000000----------000000---------------------------------|
 ******            ******          ******

--------------------------------------------------------------------------|
--------------------------------------------------------------------------|
------------___-------------___--------------___-------____-------___-----|
-----------/---\-----------/---\------------/---\-----/----\-----/   \----|
---------10-9-7-9---------9-7-6-7---------10-9-7-9--12-10-9-10-10-9-7-9---|
-000000------------000000----------000000---------------------------------|
 ******            ******          ******

--------------------------------------------------------------------------|
--------------------------------------------------------------------------|
------------___-------------___--------------___-------____-------___-----|
-----------/---\-----------/---\------------/---\-----/----\-----/   \----|
---------10-9-7-9---------9-7-6-7---------10-9-7-9--12-10-9-10-10-9-7-9---|
-000000------------000000----------000000---------------------------------|
 ******            ******          ******

-----------------------------------------------------------------|
-----------------------------------------------------------------|
------------___-------------___--------------___-----------------|
-----------/---\-----------/---\------------/---\----------------|
---------10-9-7-9---------9-7-6-7---------10-9-7-9---7--9|--10---|
-000000------------000000----------000000------------5--7|--8-|--|
 ******            ******          ******



1:22

GT1
---------------------------------------------------------------------------|
---------------------------------------------------------------------____--|
----11--------9----12-----------9-----11--------9----12-------------/    \-|
--9---9-9---9---10---10\7-7---7-----9---9-9---9---10---10\7-7--10--9-10-9\7|
7---------7-----------------7-----7---------7------------------------------|
---------------------------------------------------------------------------|

GT2
------------------------------------------------------------------------|
------------------------------------------------------------------------|
------------------------------------------------------------------------|
-----------------5-5-5-5---7-7-7-7---------------------5-5-5-5---7-7-7-7|
2-2-2-2-2-2-2-2--3-3-3-3---5-5-5-5----2-2-2-2-2-2-2-2--3-3-3-3---5-5-5-5|
0-0-0-0-0-0-0-0-----------------------0-0-0-0-0-0-0-0-------------------|
* * * * * * * *  * * * *   * * * *    * * * * * * * *  * * * *   * * * *

GT1
---------------------------------------------------------------------------|
---------------------------------------------------------------------____--|
----11--------9----12-----------9-----11--------9----12-------------/    \-|
--9---9-9---9---10---10\7-7---7-----9---9-9---9---10---10\7-7--10--9-10-9\7|
7---------7-----------------7-----7---------7------------------------------|
---------------------------------------------------------------------------|

GT2
------------------------------------------------------------------------|
------------------------------------------------------------------------|
------------------------------------------------------------------------|
-----------------5-5-5-5---7-7-7-7---------------------5-5-5-5---7-7-7-7|
2-2-2-2-2-2-2-2--3-3-3-3---5-5-5-5----2-2-2-2-2-2-2-2--3-3-3-3---5-5-5-5|
0-0-0-0-0-0-0-0-----------------------0-0-0-0-0-0-0-0-------------------|
* * * * * * * *  * * * *   * * * *    * * * * * * * *  * * * *   * * * *


1:52
B
----------------------------------------------------------|
----------------------------------------------------------|
----------------------------------------------------------|
------11-9--8---------------------12-11-10----------------|
-7----8--7--6-----7--9|--10--7----10--9-8-----7--9|--10---|
-5----8--7--6-----5--7|--8-|-5----10--9-8-----5--7|--8-|--|

---------------------------------------------------------|
---------------------------------------------------------|
---------------------------------------------------------|
------11-9--8---------------------12-11-10---------------|
-7----8--7--6-----7--9|--10--7----10--9-8-----7--9|--10--|
-5----8--7--6-----5--7|--8-|-5----10--9-8-----5--7|--8-|-|




2:12
B
--------------------------------------------------------------------------|
--------------------------------------------------------------------------|
------------___-------------___--------------___-------____-------___-----|
-----------/---\-----------/---\------------/---\-----/----\-----/   \----|
---------10-9-7-9---------9-7-6-7---------10-9-7-9--12-10-9-10-10-9-7-9---|
-000000------------000000----------000000---------------------------------|
 ******            ******          ******

--------------------------------------------------------------------------|
--------------------------------------------------------------------------|
------------___-------------___--------------___-------____-------___-----|
-----------/---\-----------/---\------------/---\-----/----\-----/   \----|
---------10-9-7-9---------9-7-6-7---------10-9-7-9--12-10-9-10-10-9-7-9---|
-000000------------000000----------000000---------------------------------|
 ******            ******          ******

--------------------------------------------------------------------------|
--------------------------------------------------------------------------|
------------___-------------___--------------___-------____-------___-----|
-----------/---\-----------/---\------------/---\-----/----\-----/   \----|
---------10-9-7-9---------9-7-6-7---------10-9-7-9--12-10-9-10-10-9-7-9---|
-000000------------000000----------000000---------------------------------|
 ******            ******          ******

---------------------------------------------------------------------------|
---------------------------------------------------------------------------|
------------___-------------___--------------___-------____-------___------|
-----------/---\-----------/---\------------/---\-----/----\-----/   \---11|
---------10-9-7-9---------9-7-6-7---------10-9-7-9--12-10-9-10-10-9-7-9--9-|
-000000------------000000----------000000--------------------------------9-|
 ******            ******          ******




2:56
--------------------------------------------------------|
----------------]---------------------------------------|
----------------]---------------------------------------|
-----------11---]----------11----7--6----7--------------|
--9---5----9-\--]-9---5----9-----5--4----5--8---9---5---|
--7---3----9-\--]-7---3----9-----5--4----5--6---7---3---|






3:13
GT1
--------------------------------------------------------|
--------------------------------------------------------|
--------------------------------------------------------|
--------------------------------------------------------|
777777777777----999999999999----101010101010101010101010|
------------7777------------7777------------------------|

GT2
///----------------///--------------///-----------------|
-----------------------------10-12----------------------|
-9-----------11-12--9----------------9------------------|
--------------------------------------------------------|
--------------------------------------------------------|
--------------------------------------------------------|

GT1
-------------------------------|
-------------------------------|
-------------------------------|
-------------------------------|
----12121212101210999910101010-|
7777---------------------------|

GT2
-------------------------------|
-------///---10-12-///---12-13-|
-11-12--9-----------9----------|
-------------------------------|
-------------------------------|
-------------------------------|

GT1
--------------------------------------------|
--------------------------------------------|
--------------------------------------------|
--------------------------------------------|
-777777777777-991010------------991010------|
--------------------888888888888------------|
GT2
///----------------///--------------///-----------------|
-----------------------------10-12----------------------|
-9-----------11-12--9----------------9------------------|
--------------------------------------------------------|
--------------------------------------------------------|
--------------------------------------------------------|

GT1
---------------------------------------------|
---------------------------------------------|
---------------------------------------------|
---------------------------------------------|
-------------99101012121212101210999910101010|
-777777777777--------------------------------|
GT2
-------------------------------|
-------///---10-12-///---12-13-|
-11-12--9-----------9----------|
-------------------------------|
-------------------------------|
-------------------------------|

GT1
--------------------------------------------------------|
--------------------------------------------------------|
--------------------------------------------------------|
--------------------------------------------------------|
777777777777----999999999999----101010101010101010101010|
------------7777------------7777------------------------|

GT2
///----------------///--------------///-----------------|
-----------------------------10-12----------------------|
-9-----------11-12--9----------------9------------------|
--------------------------------------------------------|
--------------------------------------------------------|
--------------------------------------------------------|

GT1
-------------------------------|
-------------------------------|
-------------------------------|
-------------------------------|
----12121212101210999910101010-|
7777---------------------------|

GT2
-------------------------------|
-------///---10-12-///---12-13-|
-11-12--9-----------9----------|
-------------------------------|
-------------------------------|
-------------------------------|

GT1
--------------------------------------------|
--------------------------------------------|
--------------------------------------------|
--------------------------------------------|
-777777777777-991010------------991010------|
--------------------888888888888------------|
GT2
///----------------///--------------///-----------------|
-----------------------------10-12----------------------|
-9-----------11-12--9----------------9------------------|
--------------------------------------------------------|
--------------------------------------------------------|
--------------------------------------------------------|

GT1
---------------------------------------------|
---------------------------------------------|
---------------------------------------------|
---------------------------------------------|
-------------99101012121212101210999910101010|
-777777777777--------------------------------|
GT2
-------------------------------|
-------///---10-12-///---12-13-|
-11-12--9-----------9----------|
-------------------------------|
-------------------------------|
-------------------------------|




3:33
B
------------------------------------------------------------------------|
------------------------------------------------------------------------|
------------------------------------------------------------------------|
--------------------------------7-9-----------------------7-9-----9-10--|
-777777777777-9-10-777777777777-----777777777777-9-10-777-----777-------|
------------------------------------------------------------------------|
 ************      ************     ************      ***     ***

------------------------------------------------------------------------|
------------------------------------------------------------------------|
------------------------------------------------------------------------|
--------------------------------7-9-----------------------7-9-----9-10--|
-777777777777-9-10-777777777777-----777777777777-9-10-777-----777-------|
------------------------------------------------------------------------|
 ************      ************     ************      ***     ***



3:43

---------------------------------------------------|
---------------------------------------------------|
---------------------------------------------------|
-9999999999999999-11111111111111111111111111111111-|
-7777777777777777--9-9-9-9-9-9-9-9-9-9-9-9-9-9-9-9-|
---------------------------------------------------|

------------------------------------------------------------|
------------------------------------------------------------|
---------------------------------99999999-11111111-12121212-|
12121212121212121212121212121212-77777777--9-9-9-9-10101010-|
10101010101010101010101010101010----------------------------|
------------------------------------------------------------|


---------------------------------------------------|
---------------------------------------------------|
---------------------------------------------------|
-999999999999999911111111111111111111111111111111--|
-7777777777777777-9-9-9-9-9-9-9-9-9-9-9-9-9-9-9-9--|
---------------------------------------------------|

-----------------------------------------------------------|
-----------------------------------------------------------|
---------------------------------999999991111111112121212--|
-1212121212121212121212121212121277777777-9-9-9-910101010--|
-10101010101010101010101010101010--------------------------|
-----------------------------------------------------------|


----------------------------------------------------------------|
----------------------------------------------------------------|
----------------------------------------------------------------|
----------------------7-----------------------------------------|
-2----10---9--7-5-----5----10-9--2----10---9--7-5------33333333-|
-0-----8---7--5-3-------0-0-8-7--0-----8---7--5-3------11111111-|
                        * *                            ********

----------------------------------------------------------------|
----------------------------------------------------------------|
----------------------------------------------------------------|
----------------------7--------------------------------7-7-7-7--|
-2----10---9--7-5-----5----10-9--2----10---9--7-5------5-5-5-5--|
-0-----8---7--5-3-------0-0-8-7--0-----8---7--5-3------5-5-5-5--|
                        * *


4:13

GT1
---------------------------------------------------------------------------|
---------------------------------------------------------------------____--|
----11--------9----12-----------9-----11--------9----12-------------/    \-|
--9---9-9---9---10---10\7-7---7-----9---9-9---9---10---10\7-7--10--9-10-9\7|
7---------7-----------------7-----7---------7------------------------------|
---------------------------------------------------------------------------|

GT2
------------------------------------------------------------------------|
------------------------------------------------------------------------|
------------------------------------------------------------------------|
-----------------5-5-5-5---7-7-7-7---------------------5-5-5-5---7-7-7-7|
2-2-2-2-2-2-2-2--3-3-3-3---5-5-5-5----2-2-2-2-2-2-2-2--3-3-3-3---5-5-5-5|
0-0-0-0-0-0-0-0-----------------------0-0-0-0-0-0-0-0-------------------|
* * * * * * * *  * * * *   * * * *    * * * * * * * *  * * * *   * * * *

GT1
---------------------------------------------------------------------------|
---------------------------------------------------------------------____--|
----11--------9----12-----------9-----11--------9----12-------------/    \-|
--9---9-9---9---10---10\7-7---7-----9---9-9---9---10---10\7-7--10--9-10-9\7|
7---------7-----------------7-----7---------7------------------------------|
---------------------------------------------------------------------------|

GT2
------------------------------------------------------------------------|
------------------------------------------------------------------------|
------------------------------------------------------------------------|
-----------------5-5-5-5---7-7-7-7---------------------5-5-5-5---7-7-7-7|
2-2-2-2-2-2-2-2--3-3-3-3---5-5-5-5----2-2-2-2-2-2-2-2--3-3-3-3---5-5-5-5|
0-0-0-0-0-0-0-0-----------------------0-0-0-0-0-0-0-0-------------------|
* * * * * * * *  * * * *   * * * *    * * * * * * * *  * * * *   * * * *

B
----------------------------------------------------------|
----------------------------------------------------------|
----------------------------------------------------------|
------11-9--8---------------------12-11-10----------------|
-7----8--7--6-----7--9|--10--7----10--9-8-----7--9|--10---|
-5----8--7--6-----5--7|--8-|-5----10--9-8-----5--7|--8-|--|

---------------------------------------------------------|
---------------------------------------------------------|
---------------------------------------------------------|
------11-9--8---------------------12-11-10---------------|
-7----8--7--6-----7--9|--10--7----10--9-8-----7--9|--10--|
-5----8--7--6-----5--7|--8-|-5----10--9-8-----5--7|--8-|-|




B
--------------------------------------------------------------------------|
--------------------------------------------------------------------------|
------------___-------------___--------------___-------____-------___-----|
-----------/---\-----------/---\------------/---\-----/----\-----/   \----|
---------10-9-7-9---------9-7-6-7---------10-9-7-9--12-10-9-10-10-9-7-9---|
-000000------------000000----------000000---------------------------------|
 ******            ******          ******

--------------------------------------------------------------------------|
--------------------------------------------------------------------------|
------------___-------------___--------------___-------____-------___-----|
-----------/---\-----------/---\------------/---\-----/----\-----/   \----|
---------10-9-7-9---------9-7-6-7---------10-9-7-9--12-10-9-10-10-9-7-9---|
-000000------------000000----------000000---------------------------------|
 ******            ******          ******

--------------------------------------------------------------------------|
--------------------------------------------------------------------------|
------------___-------------___--------------___-------____-------___-----|
-----------/---\-----------/---\------------/---\-----/----\-----/   \----|
---------10-9-7-9---------9-7-6-7---------10-9-7-9--12-10-9-10-10-9-7-9---|
-000000------------000000----------000000---------------------------------|
 ******            ******          ******
-----------------------------------------------------------------|
-----------------------------------------------------------------|
------------___-------------___--------------___-----------------|
-----------/---\-----------/---\------------/---\----------------|
---------10-9-7-9---------9-7-6-7---------10-9-7-9---7--9|--10---|
-000000------------000000----------000000------------5--7|--8-|--|
 ******            ******          ******




|||||||||||||||||||||||||||||||||||||||||||||||||||||||||||||||||
|||||||||||||||||||||||||||||||||||||||||||||||||||||||||||||||||
|||||||||||||||||||||||||||||||||||||||||||||||||||||||||||||||||



06 DECEIVING EYES




-----------------------------------------------------------|
-----------------------------------------------------------|
-----------------------------------------------------------|
--------6---------------------------6-6--------------------|
-3--3-6---5---6-6-6-6-5-6-9-8--6--6-----5---6-6-6-6-5-6-9--|
-1--1-4-----4-4-4-4-4-3-4-7-6--4--4-------4-4-4-4-4-3-4-7--|

-----------------------------------------------------------|
-----------------------------------------------------------|
-----------------------------------------------------------|
--------6---------------------------6-6--------------------|
-3--3-6---5---6-6-6-6-5-6-9-8--6--6-----5---6-6-6-6-5-6-9--|
-1--1-4-----4-4-4-4-4-3-4-7-6--4--4-------4-4-4-4-4-3-4-7--|

-----------------------------------------------------------|
-----------------------------------------------------------|
-----------------------------------------------------------|
--------6---------------------------6-6--------------------|
-3--3-6---5---6-6-6-6-5-6-9-8--6--6-----5---6-6-6-6-5-6-9--|
-1--1-4-----4-4-4-4-4-3-4-7-6--4--4-------4-4-4-4-4-3-4-7--|

-----------------------------------------------------------|
-----------------------------------------------------------|
-----------------------------------------------------------|
--------6---------------------------6-6--------------------|
-3--3-6---5---6-6-6-6-5-6-9-8--6--6-----5---6-6-6-6-5-6-9--|
-1--1-4-----4-4-4-4-4-3-4-7-6--4--4-------4-4-4-4-4-3-4-7--|

-----------------------------------------------------------|
-----------------------------------------------------------|
-----------------------------------------------------------|
--------6---------------------------6-6--------------------|
-3--3-6---5---6-6-6-6-5-6-9-8--6--6-----5---6-6-6-6-5-6-9--|
-1--1-4-----4-4-4-4-4-3-4-7-6--4--4-------4-4-4-4-4-3-4-7--|

-----------------------------------------------------------|
-----------------------------------------------------------|
-----------------------------------------------------------|
--------6---------------------------6-6--------------------|
-3--3-6---5---6-6-6-6-5-6-9-8--6--6-----5---6-6-6-6-5-6-9--|
-1--1-4-----4-4-4-4-4-3-4-7-6--4--4-------4-4-4-4-4-3-4-7--|



0:34

1
-------------------------------------------------------|
------5--4---------5--4--------7--5--4-----5--4--2-----|
-2----------2--2---------2--4-----------5--------------|
-------------------------------------------------------|
-------------------------------------------------------|
-------------------------------------------------------|
2
-----------------------------------------------------------------|
-----------------------------------------------------------------|
-----------------------------------------------------------------|
-----------------------------------------------------------------|
-----------------------------------------------------------------|
-0000000000000000000000000000003577777777777777773333333366665555|

1
-------------------------------------------------------|
------5--4---------5--4--------7--5--4-----5--4--2-----|
-2----------2--2---------2--4-----------5--------------|
-------------------------------------------------------|
-------------------------------------------------------|
-------------------------------------------------------|
2
-----------------------------------------------------------------|
-----------------------------------------------------------------|
-----------------------------------------------------------------|
-----------------------------------------------------------------|
-----------------------------------------------------------------|
-0000000000000000000000000000003577777777777777773333333366665555|


1
-------------------------------------------------------|
------5--4---------5--4--------7--5--4-----5--4--2-----|
-2----------2--2---------2--4-----------5--------------|
-------------------------------------------------------|
-------------------------------------------------------|
-------------------------------------------------------|
2
-----------------------------------------------|
-----------------------------------------------|
-----------------------------------------------|
-----------------------------------------------|
-----------------------------------------------|
-0-0-0-0-0-0-0-0-0-0-0-0-0-0-0-0-0-0-0-0-0-0-0-|
 * * * * * * * * * * * * * * * * * * * * * * *
cont.
-----------------------------------------------------|
-----------------------------------------------------|
-----------------------------------------------------|
-----------------------------------------------------|
-----------------------------------------------------|
--3-5-7-7-7-7-7-7-7-7-7-7-7-7-3-3-3-3-3-3-6-6-6-5-5-5|
  * * * * * * * * * * * * * * * * * * * * * * * * * *


1
------------------------------|
------5--4---------5--4-------|
-2----------2--2---------2----|
------------------------------|
------------------------------|
------------------------------|
2
--------------------------------------------------|
--------------------------------------------------|
--------------------------------------------------|
--------------------------------------------------|
--------------------------------------------------|
-0-0-0-0-0-0-0-0-0-0-0-0-0-0-0-0-0-0-0-0-0-0-0-0-0|
 * * * * * * * * * * * * * * * * * * * * * * * * *
B
------------------------------|
------------------------------|
------------------------------|
------------------------------|
-3--6--5--3--5--6--3-6-5-3----|
-1--4--3--1--3--4--1-4-3-1----|
                   * * * *



0:57
----------------------------------------------------------------------------|
----------------------------------------------------------------------------|
----------------------------------------------------------------------------|
----------------------------------------------------------------------------|
----------------------------^------)^-----------------------------^------)^-|
-000000000000-2-3-00000000-7-8-00-6-0--000000000000-2-3-00000000-7-8-00-6-0-|
 ************     ********     **      ************     ********     **

----------------------------------------------------------------------------|
----------------------------------------------------------------------------|
----------------------------------------------------------------------------|
----------------------------222222444444555555444444777777555555444444------|
-3--6--5--3--5--6--3-6-5-3--------------------------------------------555555|
-1--4--3--1--3--4--1-4-3-1--------------------------------------------------|
                   * * * *
----------------------------------------------------------------------------|
----------------------------------------------------------------------------|
----------------------------------------------------------------------------|
----------------------------------------------------------------------------|
----------------------------^------)^-----------------------------^------)^-|
-000000000000-2-3-00000000-7-8-00-6-0--000000000000-2-3-00000000-7-8-00-6-0-|
 ************     ********     **      ************     ********     **

----------------------------------------------------------------------------|
----------------------------------------------------------------------------|
----------------------------------------------------------------------------|
----------------------------222222444444555555444444777777555555444444------|
-3--6--5--3--5--6--3-6-5-3--------------------------------------------555555|
-1--4--3--1--3--4--1-4-3-1--------------------------------------------------|
                   * * * *



1:19

1                                                       __
-------------------------------------------------------/  \------|
-----------------------^--------------12---------14--12-14-12----|
-----11--13--14--14--13-11-11-----14-----14--11---------------13-|
-11---------------------------12---------------------------------|
-----------------------------------------------------------------|
-----------------------------------------------------------------|
2
------------------------------------------------------------------|
------------------------------------------------------------------|
------------------------------------------------------------------|
-------------66667777777766666666------------77776666----77776666-|
-444444444444--------------------555555555555--------5555---------|
------------------------------------------------------------------|

1                                                       __
-------------------------------------------------------/  \------|
-----------------------^--------------12---------14--12-14-12----|
-----11--13--14--14--13-11-11-----14-----14--11---------------13-|
-11---------------------------12---------------------------------|
-----------------------------------------------------------------|
-----------------------------------------------------------------|
2
------------------------------------------------------------------|
------------------------------------------------------------------|
------------------------------------------------------------------|
-------------66667777777766666666------------77776666----77776666-|
-444444444444--------------------555555555555--------5555---------|
------------------------------------------------------------------|



1:30

----------------------------------------------------------------------|
----------------------------------------------------------------------|
----------------------------------------------------------------------|
-----444466667777----777766664444----777799997777----1010101099997777-|
-4444------------4444------------5555------------5555-----------------|
----------------------------------------------------------------------|

----------------------------------------------------------------------|
----------------------------------------------------------------------|
----------------------------------------------------------------------|
-----444466667777----777766664444----777799997777----1010101099997777-|
-4444------------4444------------5555------------5555-----------------|
----------------------------------------------------------------------|





1:41
------------------------------------------------------------------|
------------------------------------------------------------------|
------------------------------------------------------------------|
---------4444----------------------------4444---------------------|
-22222222----5555------------444422222222----5555--------55554555-|
-----------------666666667777--------------------33332222---------|

------------------------------------------------------------------|
------------------------------------------------------------------|
---------------------------------------------------------77776666-|
---------4444------------------------------------55554444---------|
-22222222----5555------------4444--------55554444-----------------|
-----------------666666667777----33332222-------------------------|

------------------------------------------------------------------|
------------------------------------------------------------------|
------------------------------------------------------------------|
---------4444----------------------------4444---------------------|
-22222222----5555------------444422222222----5555--------55554555-|
-----------------666666667777--------------------33332222---------|

------------------------------------------------------------------|
------------------------------------------------------------------|
---------------------------------------------------------77776666-|
---------4444------------------------------------55554444---------|
-22222222----5555------------4444--------55554444-----------------|
-----------------666666667777----33332222-------------------------|




2:04
----------------------------------------------------------------------|
----------------------------------------------------------------------|
----------------------------------------------------------------------|
-----------------------------------------------8--7--11---------------|
-3---4--3-4-6--7-6-------7------6--3---4--3-4--6--5--9-------4------4-|
-1---2--1-2-4--5-4--4444-5-4444-4--1---2--1-2--6--5--9--2222-2-2222-2-|
                    ****   ****                         ****   ****
----------------------------------------------------------------------|
----------------------------------------------------------------------|
----------------------------------------------------------------------|
-----------------------------------------------8--7--11---------------|
-3---4--3-4-6--7-6-------7------6--3---4--3-4--6--5--9-------4------4-|
-1---2--1-2-4--5-4--4444-5-4444-4--1---2--1-2--6--5--9--2222-2-2222-2-|
                    ****   ****                         ****   ****



2:30
----------------------------------------------|
----------------------------------------------|
----------------------------------------------|
---------------------------------------9-8-7--|
-6------6------6----6------66----------7-6-5--|
-4-4444-4-4444-4-44-4-4444-44-0-1-3-4--7-6-5--|
   ****   ****   **   ****    * * * *
----------------------------------------------|
----------------------------------------------|
----------------------------------------------|
---------------------------------------9-8-7--|
-6------6------6----6------66----------7-6-5--|
-4-4444-4-4444-4-44-4-4444-44-0-1-3-4--7-6-5--|
   ****   ****   **   ****    * * * *
----------------------------------------------|
----------------------------------------------|
----------------------------------------------|
---------------------------------------9-8-7--|
-6------6------6----6------66----------7-6-5--|
-4-4444-4-4444-4-44-4-4444-44-0-1-3-4--7-6-5--|
   ****   ****   **   ****    * * * *
---------------------------------------|
---------------------------------------|
---------------------------------------|
---------------------------------------|
-6------6------6----6------66----------|
-4-4444-4-4444-4-44-4-4444-44-0-1-3-4--|
   ****   ****   **   ****    * * * *
-----------------------------------------------------------------|
-----------------------------------------------------------------|
-----------------------------------------------------------------|
-----------------------------6-------------------------------6---|
---------------------------5---5---------------------------5---5-|
-000-000-000-000-000-000-4-------000-000-000-000-000-000-4-------|
 *** *** *** *** *** *** *       *** *** *** *** *** *** *



3:01

1                                                       __
-------------------------------------------------------/  \------|
-----------------------^--------------12---------14--12-14-12----|
-----11--13--14--14--13-11-11-----14-----14--11---------------13-|
-11---------------------------12---------------------------------|
-----------------------------------------------------------------|
-----------------------------------------------------------------|
2
------------------------------------------------------------------|
------------------------------------------------------------------|
------------------------------------------------------------------|
-------------66667777777766666666------------77776666----77776666-|
-444444444444--------------------555555555555--------5555---------|
------------------------------------------------------------------|

1                                                       __
-------------------------------------------------------/  \------|
-----------------------^--------------12---------14--12-14-12----|
-----11--13--14--14--13-11-11-----14-----14--11---------------13-|
-11---------------------------12---------------------------------|
-----------------------------------------------------------------|
-----------------------------------------------------------------|
2
------------------------------------------------------------------|
------------------------------------------------------------------|
------------------------------------------------------------------|
-------------66667777777766666666------------77776666----77776666-|
-444444444444--------------------555555555555--------5555---------|
------------------------------------------------------------------|



3:12

----------------------------------------------------------------------|
----------------------------------------------------------------------|
----------------------------------------------------------------------|
-----444466667777----777766664444----777799997777----1010101099997777-|
-4444------------4444------------5555------------5555-----------------|
----------------------------------------------------------------------|

-------------------------------------------------------------|
-------------------------------------------------------------|
-------------------------------------------------------------|
-----444466667777----777766664444----------------------------|
-4444------------4444-------------3--6--5--3--5--6--3-6-5-3--|
----------------------------------1--4--3--1--3--4--1-4-3-1--|
                                                    * * * *
----------------------------|
----------------------------|
----------------------------|
----------------------------|
--3--6--5--3--5--6--3-6-5-3-|
--1--4--3--1--3--4--1-4-3-1-|
                    * * * *

4:00

1
---------------------------------------------|
---------------------------------------------|
---------------------------------------_-----|
-----4------------------4-------------/ \----|
-2-----5------2--4--2-----5-------5--4-5-4---|
---------6--7----------------3--2------------|

2
--------------------------------------------|
--------------------------------------------|
--------------------------------------------|
----4------4--------2------4--2--4----------|
-2-----5------------------------------------|
--------------------------------------------|

1
---------------------------------------------_-----|
-------------------------------------_------/ \----|
-----------------------------_------/ \--7-6-7-6---|
------4---------------------/ \--5-4-5-4-----------|
--2-----5---------4------5-4-5-4-------------------|
----------6---7------3-2---------------------------|
                                              __
2                                    _       /  \
-----------------------------_------/ \--10-9-10-9-|
----------------------------/ \--8-7-8-7-----------|
-------------------------7-6-7-6-------------------|
------4-----4--------5-4---------------------------|
---2------5----------------------------------------|
---------------------------------------------------|

4:11

1
-------------------------------------------------------------------|
-------------------------------------------------------------------|
-------------------------------------------------------------------|
---10-9---10-9---9---9-7---9-7---7---5-4---5-4---4---5-4-2-4-2-4-5-|
-7------7------7---6-----6-----6---3-----3-----3---2---------------|
-------------------------------------------------------------------|
 *  * * *  * * * * * * * * * * * * * * * * * * * * * * * * * * * *
2
-----------------------------------------------_----------------|
----------------------------------------------/ \---------------|
--------------9--8-----------------5---------5-7-5-4------------|
----------------------------------------------------------------|
-7--------------------------------------------------------------|
----------------------------------------------------------------|

1
-------------------------------------------------------------------|
-------------------------------------------------------------------|
-------------------------------------------------------------------|
---10-9---10-9---9---9-7---9-7---7---5-4---5-4---4---5-4-2-4-2-4-5-|
-7------7------7---6-----6-----6---3-----3-----3---2---------------|
-------------------------------------------------------------------|
 *  * * *  * * * * * * * * * * * * * * * * * * * * * * * * * * * *
2
-----------------------------------------------_----------------|
----------------------------------------------/ \---------------|
--------------9--8-----------------5---------5-7-5-4------------|
----------------------------------------------------------------|
-7--------------------------------------------------------------|
----------------------------------------------------------------|

1
-------------------------------------------------------------------|
-------------------------------------------------------------------|
-------------------------------------------------------------------|
---10-9---10-9---9---9-7---9-7---7---5-4---5-4---4---5-4-2-4-2-4-5-|
-7------7------7---6-----6-----6---3-----3-----3---2---------------|
-------------------------------------------------------------------|
 *  * * *  * * * * * * * * * * * * * * * * * * * * * * * * * * * *
2
-----------------------------------------------_----------------|
----------------------------------------------/ \---------------|
--------------9--8-----------------5---------5-7-5-4------------|
----------------------------------------------------------------|
-7--------------------------------------------------------------|
----------------------------------------------------------------|

1
-------------------------------------------------------------------|
-------------------------------------------------------------------|
-------------------------------------------------------------------|
---10-9---10-9---9---9-7---9-7---7---5-4---5-4---4---5-4-2-4-2-4-5-|
-7------7------7---6-----6-----6---3-----3-----3---2---------------|
-------------------------------------------------------------------|
 *  * * *  * * * * * * * * * * * * * * * * * * * * * * * * * * * *
2
-----------------------------------------------_----------------|
----------------------------------------------/ \---------------|
--------------9--8-----------------5---------5-7-5-4------------|
----------------------------------------------------------------|
-7--------------------------------------------------------------|
----------------------------------------------------------------|



4:34

1
---------------------------------------------|
---------------------------------------------|
---------------------------------------_-----|
-----4------------------4-------------/ \----|
-2-----5------2--4--2-----5-------5--4-5-4---|
---------6--7----------------3--2------------|

2
--------------------------------------------|
--------------------------------------------|
--------------------------------------------|
----4------4--------2------4--2--4----------|
-2-----5------------------------------------|
--------------------------------------------|

1
---------------------------------------------_-----|
-------------------------------------_------/ \----|
-----------------------------_------/ \--7-6-7-6---|
------4---------------------/ \--5-4-5-4-----------|
--2-----5---------4------5-4-5-4-------------------|
----------6---7------3-2---------------------------|
                                              __
2                                    _       /  \
-----------------------------_------/ \--10-9-10-9-|
----------------------------/ \--8-7-8-7-----------|
-------------------------7-6-7-6-------------------|
------4-----4--------5-4---------------------------|
---2------5----------------------------------------|
---------------------------------------------------|

1
---------------------------------------------|
---------------------------------------------|
---------------------------------------_-----|
-----4------------------4-------------/ \----|
-2-----5------2--4--2-----5-------5--4-5-4---|
---------6--7----------------3--2------------|

2
--------------------------------------------|
--------------------------------------------|
--------------------------------------------|
----4------4--------2------4--2--4----------|
-2-----5------------------------------------|
--------------------------------------------|

1
---------------------------------------------_-----|
-------------------------------------_------/ \----|
-----------------------------_------/ \--7-6-7-6---|
------4---------------------/ \--5-4-5-4-----------|
--2-----5---------4------5-4-5-4-------------------|
----------6---7------3-2---------------------------|
                                              __
2                                    _       /  \
-----------------------------_------/ \--10-9-10-9-|
----------------------------/ \--8-7-8-7-----------|
-------------------------7-6-7-6-------------------|
------4-----4--------5-4---------------------------|
---2------5----------------------------------------|
---------------------------------------------------|




4:57

SOLO

1
---------------------------------------------------------------|
-----------------------------------11-12-121212-11-------------|
----------11-------11--9--------------------------11-12--------|
-9--11--12--12-11----------------------------------------------|
---------------------------------------------------------------|
---------------------------------------------------------------|
2
------------------------------------------------------------------|
------------------------------------------------------------------|
------------------------------------------------------------------|
---------4444----------------------------4444---------------------|
-22222222----5555------------444422222222----5555--------55554555-|
-----------------666666667777--------------------33332222---------|

1                                                          _
----------------------------------------------------------/ \----|
----------------------11---------11~-----/14-12-11-8-7-8-7-8-7---|
------9----------91112--121191112-----------------------------9--|
-91112-121191112-------------------------------------------------|
-----------------------------------------------------------------|
-----------------------------------------------------------------|
2
------------------------------------------------------------------|
------------------------------------------------------------------|
---------------------------------------------------------77776666-|
---------4444------------------------------------55554444---------|
-22222222----5555------------4444--------55554444-----------------|
-----------------666666667777----33332222-------------------------|

1
///-----///---///-///-------------/15-----14---12---14--15--14-12--|
-15-----14----12--14--------------///----///---///-///--///-//////-|
-------------------------------------------------------------------|
-------------------------------------------------------------------|
-------------------------------------------------------------------|
-------------------------------------------------------------------|
2
------------------------------------------------------------------|
------------------------------------------------------------------|
------------------------------------------------------------------|
---------4444----------------------------4444---------------------|
-22222222----5555------------444422222222----5555--------55554555-|
-----------------666666667777--------------------33332222---------|

1
--------------------------------------------------------------------|
-15---14------------------------------------------------------------|
-------------------15-16----15--------------------------------------|
-----------12-11---------17----17-16-14-16-12-14-12-11----12-11-15~~|
-------------------------------------------------------14-----------|
--------------------------------------------------------------------|
2
------------------------------------------------------------------|
------------------------------------------------------------------|
---------------------------------------------------------77776666-|
---------4444------------------------------------55554444---------|
-22222222----5555------------4444--------55554444-----------------|
-----------------666666667777----33332222-------------------------|




5:19

----------------------------------------------------------------------|
----------------------------------------------------------------------|
----------------------------------------------------------------------|
-----------------------------------------------8--7--11---------------|
-3---4--3-4-6--7-6-------7------6--3---4--3-4--6--5--9-------4------4-|
-1---2--1-2-4--5-4--4444-5-4444-4--1---2--1-2--6--5--9--2222-2-2222-2-|
                    ****   ****                         ****   ****
----------------------------------------------------------------------|
----------------------------------------------------------------------|
----------------------------------------------------------------------|
-----------------------------------------------8--7--11---------------|
-3---4--3-4-6--7-6-------7------6--3---4--3-4--6--5--9-------4------4-|
-1---2--1-2-4--5-4--4444-5-4444-4--1---2--1-2--6--5--9--2222-2-2222-2-|
                    ****   ****                         ****   ****




5:42
----------------------------------------------------------------------|
----------------------------------------------------------------------|
----------------------------------------------------------------------|
-----444466667777----777766664444----777799997777----1010101099997777-|
-4444------------4444------------5555------------5555-----------------|
----------------------------------------------------------------------|

----------------------------------------------------------------------|
----------------------------------------------------------------------|
----------------------------------------------------------------------|
-----444466667777----777766664444----777799997777----1010101099997777-|
-4444------------4444------------5555------------5555-----------------|
----------------------------------------------------------------------|



5:53
------------------------------------------------------------------|
------------------------------------------------------------------|
------------------------------------------------------------------|
-------------66667777777766666666------------77776666----77776666-|
-444444444444--------------------555555555555--------5555---------|
------------------------------------------------------------------|

------------------------------------------------------------------|
------------------------------------------------------------------|
------------------------------------------------------------------|
-------------66667777777766666666------------77776666----77776666-|
-444444444444--------------------555555555555--------5555---------|
------------------------------------------------------------------|



6:04
------------------------------------------------------------------|
------------------------------------------------------------------|
------------------------------------------------------------------|
---------4444----------------------------4444---------------------|
-22222222----5555------------444422222222----5555--------55554555-|
-----------------666666667777--------------------33332222---------|

------------------------------------------------------------------|
------------------------------------------------------------------|
---------------------------------------------------------77776666-|
---------4444------------------------------------55554444---------|
-22222222----5555------------4444--------55554444-----------------|
-----------------666666667777----33332222-------------------------|

------------------------------------------------------------------|
------------------------------------------------------------------|
------------------------------------------------------------------|
---------4444----------------------------4444---------------------|
-22222222----5555------------444422222222----5555--------55554555-|
-----------------666666667777--------------------33332222---------|

---------------------------------------------------------------------|
---------------------------------------------------------------------|
---------------------------------------------------------77776666----|
---------4444------------------------------------55554444------------|
-22222222----5555------------4444--------55554444-----------------2--|
-----------------666666667777----33332222-------------------------0--|




|||||||||||||||||||||||||||||||||||||||||||||||||||||||||||||||||
|||||||||||||||||||||||||||||||||||||||||||||||||||||||||||||||||
|||||||||||||||||||||||||||||||||||||||||||||||||||||||||||||||||


07 LILITH IMMACULATE




--------------------------------------------------------------------|
--------------------------------------------------------------------|
--------------------------------------------------------------------|
----------------------------------------------_---------------------|
-2222222222222222-5------6-6-----------------/ \----------------/\--|
-0000000000000000-3-1111-4-4--777777777777-107107-666666666666-9696-|
 ****************   ****      ************        ************

--------------------------------------------------------------------|
--------------------------------------------------------------------|
--------------------------------------------------------------------|
----------------------------------------------_---------------------|
-2222222222222222-5------6-6-----------------/ \----------------/\--|
-0000000000000000-3-1111-4-4--777777777777-107107-666666666666-9696-|
 ****************   ****      ************        ************

--------------------------------------------------------------------|
--------------------------------------------------------------------|
--------------------------------------------------------------------|
----------------------------------------------_---------------------|
-2222222222222222-5------6-6-----------------/ \----------------/\--|
-0000000000000000-3-1111-4-4--777777777777-107107-666666666666-9696-|
 ****************   ****      ************        ************

--------------------------------------------------------------------|
--------------------------------------------------------------------|
--------------------------------------------------------------------|
----------------------------------------------_---------------------|
-2222222222222222-5------6-6-----------------/ \----------------/\--|
-0000000000000000-3-1111-4-4--777777777777-107107-666666666666-9696-|
 ****************   ****      ************        ************



0:24

-------------------------------------------------------------|
-------------------------------------------------------------|
-------------------------------------------------------------|
-8888-10101010-8888-10101010-11111111-10101010-8888-10101010-|
-8888--8-8-8-8-8888--8-8-8-8--8-8-8-8--8-8-8-8-8888--8-8-8-8-|
-------------------------------------------------------------|

-------------------------------------------------------------|
-------------------------------------------------------------|
-------------------------------------------------------------|
-8888-10101010-8888-10101010-11111111-10101010-8888-10101010-|
-8888--8-8-8-8-8888--8-8-8-8--8-8-8-8--8-8-8-8-8888--8-8-8-8-|
-------------------------------------------------------------|

-----------------------------------------------------------------------|
-----------------------------------------------------------------------|
-----------------------------------------------------------------------|
11111111-13131313-11111111-13131313-14141414-13131313-11111111-13131313|
11111111-11111111-11111111-11111111-11111111-11111111-11111111-11111111|
-----------------------------------------------------------------------|

--------------------------------------------------------------|
--------------------------------------------------------------|
--------------------------------------------------------------|
-9999-11111111-9999-11111111-13131313-11111111-9999-11111111--|
-9999--9-9-9-9-9999--9-9-9-9--9-9-9-9--9-9-9-9-9999--9-9-9-9--|
--------------------------------------------------------------|


-------------------------------------------------------------|
-------------------------------------------------------------|
-------------------------------------------------------------|
-8888-10101010-8888-10101010-11111111-10101010-8888-10101010-|
-8888--8-8-8-8-8888--8-8-8-8--8-8-8-8--8-8-8-8-8888--8-8-8-8-|
-------------------------------------------------------------|

-------------------------------------------------------------|
-------------------------------------------------------------|
-------------------------------------------------------------|
-8888-10101010-8888-10101010-11111111-10101010-8888-10101010-|
-8888--8-8-8-8-8888--8-8-8-8--8-8-8-8--8-8-8-8-8888--8-8-8-8-|
-------------------------------------------------------------|

-----------------------------------------------------------------------|
-----------------------------------------------------------------------|
-----------------------------------------------------------------------|
11111111-13131313-11111111-13131313-14141414-13131313-11111111-13131313|
11111111-11111111-11111111-11111111-11111111-11111111-11111111-11111111|
-----------------------------------------------------------------------|

--------------------------------------------------------------|
--------------------------------------------------------------|
--------------------------------------------------------------|
-9999-11111111-9999-11111111-13131313-11111111-9999-11111111--|
-9999--9-9-9-9-9999--9-9-9-9--9-9-9-9--9-9-9-9-9999--9-9-9-9--|
--------------------------------------------------------------|



0:48
-----------------------------------------------|
-----------------------------------------------|
----------------------9-9-9-8-8-8-7-7-7-8-8-8--|
-7-7-7-9-9-9-10-10-10-7-7-7-7-7-7-7-7-7-7-7-7--|
-0-0-0-0-0-0-0--0--0--0-0-0-0-0-0-0-0-0-0-0-0--|
-----------------------------------------------|

-----------------------------------------------------------------|
-----------------------------------------------------------------|
----------------------9-9-9--------------------------------------|
-7-7-7-9-9-9-10-10-10-7-7-7-10--101010-9-10-10-10--101010-9-10-9-|
-0-0-0-0-0-0--0--0--0-0-0-0--8---8-8-8-7--8--8--8---8-8-8-7--8-7-|
-----------------------------------------------------------------|

-----------------------------------------------|
-----------------------------------------------|
----------------------9-9-9-8-8-8-7-7-7-8-8-8--|
-7-7-7-9-9-9-10-10-10-7-7-7-7-7-7-7-7-7-7-7-7--|
-0-0-0-0-0-0-0--0--0--0-0-0-0-0-0-0-0-0-0-0-0--|
-----------------------------------------------|

-----------------------------------------------------------------|
-----------------------------------------------------------------|
----------------------9-9-9--------------------------------------|
-7-7-7-9-9-9-10-10-10-7-7-7-10--101010-9-10-10-10--101010-9-10-9-|
-0-0-0-0-0-0--0--0--0-0-0-0--8---8-8-8-7--8--8--8---8-8-8-7--8-7-|
-----------------------------------------------------------------|




1:12
------------------------------------------------|
------------------------------------------------|
------------------------------------------------|
------------------------------------------------|
-------7---------7----------5------------^------|
-5~-------5--4~-----4--2~------2--4--5--454--2--|

------------------------------------------------|
------------------------------------------------|
------------------------------------------------|
------------------------------------------------|
-------7---------7----------5------------^------|
-5~-------5--4~-----4--2~------2--4--5--454--2--|

------------------------------------------------|
------------------------------------------------|
------------------------------------------------|
------------------------------------------------|
-------7---------7----------5------------^------|
-5~-------5--4~-----4--2~------2--4--5--454--2--|

--------------------------------------------------|
--------------------------------------------------|
--------------------------------------------------|
------------------------------------------------9-|
-------7---------7----------5------------^------7-|
-5~-------5--4~-----4--2~------2--4--5--454--2--7\|





1:36
----------------------------------------------------|
----------------------------------------------------|
----------------------------------------------------|
------------------------------_---------------------|
--5------6-6-----------------/ \----------------/\--|
--3-1111-4-4--777777777777-107107-666666666666-9696-|
    ****      ************        ************

--------------------------------------------------------------------|
--------------------------------------------------------------------|
--------------------------------------------------------------------|
----------------------------------------------_---------------------|
-2222222222222222-5------6-6-----------------/ \----------------/\--|
-0000000000000000-3-1111-4-4--777777777777-107107-666666666666-9696-|
 ****************   ****      ************        ************

--------------------------------------------------------------------|
--------------------------------------------------------------------|
--------------------------------------------------------------------|
----------------------------------------------_---------------------|
-2222222222222222-5------6-6-----------------/ \----------------/\--|
-0000000000000000-3-1111-4-4--777777777777-107107-666666666666-9696-|
 ****************   ****      ************        ************
------------------------------------------------------------------|
------------------------------------------------------------------|
------------------------------------------------------------------|
----------------------------------------------_-------------------|
-2222222222222222-5------6-6-----------------/ \---------------8--|
-0000000000000000-3-1111-4-4--777777777777-107107-666666666666-6|-|
 ****************   ****      ************        ************



2:00
-------------------------------------------------------------|
-------------------------------------------------------------|
-------------------------------------------------------------|
-8888-10101010-8888-10101010-11111111-10101010-8888-10101010-|
-8888--8-8-8-8-8888--8-8-8-8--8-8-8-8--8-8-8-8-8888--8-8-8-8-|
-------------------------------------------------------------|

-------------------------------------------------------------|
-------------------------------------------------------------|
-------------------------------------------------------------|
-8888-10101010-8888-10101010-11111111-10101010-8888-10101010-|
-8888--8-8-8-8-8888--8-8-8-8--8-8-8-8--8-8-8-8-8888--8-8-8-8-|
-------------------------------------------------------------|

-----------------------------------------------------------------------|
-----------------------------------------------------------------------|
-----------------------------------------------------------------------|
11111111-13131313-11111111-13131313-14141414-13131313-11111111-13131313|
11111111-11111111-11111111-11111111-11111111-11111111-11111111-11111111|
-----------------------------------------------------------------------|

--------------------------------------------------------------|
--------------------------------------------------------------|
--------------------------------------------------------------|
-9999-11111111-9999-11111111-13131313-11111111-9999-11111111--|
-9999--9-9-9-9-9999--9-9-9-9--9-9-9-9--9-9-9-9-9999--9-9-9-9--|
--------------------------------------------------------------|


-------------------------------------------------------------|
-------------------------------------------------------------|
-------------------------------------------------------------|
-8888-10101010-8888-10101010-11111111-10101010-8888-10101010-|
-8888--8-8-8-8-8888--8-8-8-8--8-8-8-8--8-8-8-8-8888--8-8-8-8-|
-------------------------------------------------------------|

-------------------------------------------------------------|
-------------------------------------------------------------|
-------------------------------------------------------------|
-8888-10101010-8888-10101010-11111111-10101010-8888-10101010-|
-8888--8-8-8-8-8888--8-8-8-8--8-8-8-8--8-8-8-8-8888--8-8-8-8-|
-------------------------------------------------------------|

-----------------------------------------------------------------------|
-----------------------------------------------------------------------|
-----------------------------------------------------------------------|
11111111-13131313-11111111-13131313-14141414-13131313-11111111-13131313|
11111111-11111111-11111111-11111111-11111111-11111111-11111111-11111111|
-----------------------------------------------------------------------|

--------------------------------------------------------------|
--------------------------------------------------------------|
--------------------------------------------------------------|
-9999-11111111-9999-11111111-13131313-11111111-9999-11111111--|
-9999--9-9-9-9-9999--9-9-9-9--9-9-9-9--9-9-9-9-9999--9-9-9-9--|
--------------------------------------------------------------|



2:24
-----------------------------------------------|
-----------------------------------------------|
----------------------9-9-9-8-8-8-7-7-7-8-8-8--|
-7-7-7-9-9-9-10-10-10-7-7-7-7-7-7-7-7-7-7-7-7--|
-0-0-0-0-0-0-0--0--0--0-0-0-0-0-0-0-0-0-0-0-0--|
-----------------------------------------------|

-----------------------------------------------------------------|
-----------------------------------------------------------------|
----------------------9-9-9--------------------------------------|
-7-7-7-9-9-9-10-10-10-7-7-7-10--101010-9-10-10-10--101010-9-10-9-|
-0-0-0-0-0-0--0--0--0-0-0-0--8---8-8-8-7--8--8--8---8-8-8-7--8-7-|
-----------------------------------------------------------------|

-----------------------------------------------|
-----------------------------------------------|
----------------------9-9-9-8-8-8-7-7-7-8-8-8--|
-7-7-7-9-9-9-10-10-10-7-7-7-7-7-7-7-7-7-7-7-7--|
-0-0-0-0-0-0-0--0--0--0-0-0-0-0-0-0-0-0-0-0-0--|
-----------------------------------------------|

-----------------------------------------------------------------|
-----------------------------------------------------------------|
----------------------9-9-9--------------------------------------|
-7-7-7-9-9-9-10-10-10-7-7-7-10--101010-9-10-10-10--101010-9-10-9-|
-0-0-0-0-0-0--0--0--0-0-0-0--8---8-8-8-7--8--8--8---8-8-8-7--8-7-|
-----------------------------------------------------------------|




2:48
----------------------------------------------------------------------|
----------------------------------------------------------------------|
----------------------------------------------------------------------|
----------------------------------------------------------------------|
-/7~---\/9~-\/10~-\/6~--/10-9-10-12-10--3---5-3-2-3-2-2---3-2-0-10-9--|
----------------------------------------------------------------------|

----------------------------------------------------------------------|
----------------------------------------------------------------------|
----------------------------------------------------------------------|
----------------------------------------------------------------------|
-/7~---\/9~-\/10~-\/6~--/10-9-10-12-10--3---5-3-2-3-2-2---3-2-0-10-9--|
----------------------------------------------------------------------|



----------------------------------------------------------------------|
----------------------------------------------------------------------|
----------------------------------------------------------------------|
----------------------------------------------------------------------|
-/7~---\/9~-\/10~-\/6~--/10-9-10-12-10--3---5-3-2-3-2-2---3-2-0-10-9--|
----------------------------------------------------------------------|

----------------------------------------------------------------------|
----------------------------------------------------------------------|
---------11---12------------------------------------------------------|
----------------------------------------------------------------------|
-/7~---\/9--\/10--\/6~--/10-9-10-12-10--3---5-3-2-3-2-2---3-2-0-10-9--|
----------------------------------------------------------------------|



1
----------------------------------------------------------------------|
----------------------------------------------------------------------|
----------------------------------------------------------------------|
----------------------------------------------------------------------|
-/7~---\/9~-\/10~-\/6~--/10-9-10-12-10--3---5-3-2-3-2-2---3-2-0-10-9--|
----------------------------------------------------------------------|
2
----------------------------------------------------------------------|
----------------------------------------------------------------------|
------------------------5--4--5--7--4--5---7-5-4-5-4-4---5-4---4------|
-/5~---\/9~-\/9~-\/4~----------------------------------------7---7----|
----------------------------------------------------------------------|
----------------------------------------------------------------------|


1
----------------------------------------------------------------------|
----------------------------------------------------------------------|
----------------------------------------------------------------------|
----------------------------------------------------------------------|
-/7~---\/9~-\/10~-\/6~--/10-9-10-12-10--3---5-3-2-3-2-2---3-2-0-10-9--|
----------------------------------------------------------------------|
2
----------------------------------------------------------------------|
----------------------------------------------------------------------|
------------------------5--4--5--7--4--5---7-5-4-5-4-4---5-4---4------|
-/5~---\/9~-\/9~-\/4~----------------------------------------7---7----|
----------------------------------------------------------------------|
----------------------------------------------------------------------|




4:00
------------------------------------------------|
------------------------------------------------|
------------------------------------------------|
------------------------------------------------|
-------7---------7----------5------------^------|
-5~-------5--4~-----4--2~------2--4--5--454--2--|

------------------------------------------------|
------------------------------------------------|
------------------------------------------------|
------------------------------------------------|
-------7---------7----------5------------^------|
-5~-------5--4~-----4--2~------2--4--5--454--2--|

------------------------------------------------|
------------------------------------------------|
------------------------------------------------|
------------------------------------------------|
-------7---------7----------5------------^------|
-5~-------5--4~-----4--2~------2--4--5--454--2--|

------------------------------------------------|
------------------------------------------------|
------------------------------------------------|
------------------------------------------------|
-------7---------7----------5------------^------|
-5~-------5--4~-----4--2~------2--4--5--454--2--|


------------------------------------------------|
------------------------------------------------|
------------------------------------------------|
------------------------------------------------|
-------7---------7----------5------------^------|
-5~-------5--4~-----4--2~------2--4--5--454--2--|

------------------------------------------------|
------------------------------------------------|
------------------------------------------------|
------------------------------------------------|
-------7---------7----------5------------^------|
-5~-------5--4~-----4--2~------2--4--5--454--2--|



4:36

SOLO

1
-/19~~~~~~~~~~~--------------------------------------)------------|
-------------------------------------19--15~---18--14----14~~~--\-|
--------------------------------15--------------------------------|
------------------------------------------------------------------|
------------------------------------------------------------------|
------------------------------------------------------------------|
2
--------------------------------------------------------------------|
--------------------------------------------------------------------|
--------------------------------------------------------------------|
----------------------------------------------_---------------------|
------------------5------6-6-----------------/ \----------------/\--|
-0000000000000000-3-1111-4-4--777777777777-107107-666666666666-9696-|
 ****************   ****      ************        ************

4:42

1                                     ___
--------------------------/\---------/   \---|
---------------------12-111211\8-11-8\7-8-11-|
-----11------12---9--------------------------|
---9------10----7----------------------------|
-7------8------------------------------------|
---------------------------------------------|
 * *    *  *    * *
1   __________      __________     ________     _______
---/          \----/          \---/        \---/       \----____-----___---|
-12-15-12-0-12-0-11-12-11-0-11-0-8-11-8-0-8\7-7-8-7-0-7-0--/    \---/   \--|
----------------------------------------------------------7-10-7-0-6-7-6-0-|
---------------------------------------------------------------------------|
---------------------------------------------------------------------------|
---------------------------------------------------------------------------|
2
--------------------------------------------------------------------|
--------------------------------------------------------------------|
--------------------------------------------------------------------|
----------------------------------------------_---------------------|
------------------5------6-6-----------------/ \----------------/\--|
-0000000000000000-3-1111-4-4--777777777777-107107-666666666666-9696-|
 ****************   ****      ************        ************


4:48
1                                                    __
----------------------------------------------------/  \------|
-/6-------------------8-----9----------------------8--9-8-----|
--------------------------------------------------------------|
--------------------------------------------------------------|
--------------------------------------------------------------|
--------------------------------------------------------------|
2
-------------------------------------------------------------|
-------------------------------------------------------------|
-------------------------------------------------------------|
-8888-10101010-8888-10101010-11111111-10101010-8888-10101010-|
-8888--8-8-8-8-8888--8-8-8-8--8-8-8-8--8-8-8-8-8888--8-8-8-8-|
-------------------------------------------------------------|

1
--------------------------------------------------------------|
-------------6---------------------------------8---9-9--/13---|
--------------------------------------------------------------|
--------------------------------------------------------------|
--------------------------------------------------------------|
--------------------------------------------------------------|
2
-------------------------------------------------------------|
-------------------------------------------------------------|
-------------------------------------------------------------|
-8888-10101010-8888-10101010-11111111-10101010-8888-10101010-|
-8888--8-8-8-8-8888--8-8-8-8--8-8-8-8--8-8-8-8-8888--8-8-8-8-|
-------------------------------------------------------------|


4:55
1
-----------------------------------------------------11----12----11----|
---12----------------------------------14---12---14--------------------|
----------------------------13-13--15----------------------------------|
-----------------------------------------------------------------------|
-----------------------------------------------------------------------|
-----------------------------------------------------------------------|
2
-----------------------------------------------------------------------|
-----------------------------------------------------------------------|
-----------------------------------------------------------------------|
11111111-13131313-11111111-13131313-14141414-13131313-11111111-13131313|
11111111-11111111-11111111-11111111-11111111-11111111-11111111-11111111|
-----------------------------------------------------------------------|


1 T   ^    T   ^    T   ^    T   ^    T   ^    T   ^
-16-12-11-14-12-11-16-12-11-18-12-11-16-12-11-18-12-11-|
-------------------------------------------------------|
-------------------------------------------------------|
-------------------------------------------------------|
-------------------------------------------------------|
-------------------------------------------------------|

 T   ^    T   ^    T   ^    T   ^    T   ^    T   ^
19-12-11-18-12-11-19-12-11-21-12-11-19-12-11-21-12-11-[20]\-|
------------------------------------------------------------|
------------------------------------------------------------|
------------------------------------------------------------|
------------------------------------------------------------|
------------------------------------------------------------|
2
--------------------------------------------------------------|
--------------------------------------------------------------|
--------------------------------------------------------------|
-9999-11111111-9999-11111111-13131313-11111111-9999-11111111--|
-9999--9-9-9-9-9999--9-9-9-9--9-9-9-9--9-9-9-9-9999--9-9-9-9--|
--------------------------------------------------------------|




-------------------------------------------------------------|
-------------------------------------------------------------|
-------------------------------------------------------------|
-8888-10101010-8888-10101010-11111111-10101010-8888-10101010-|
-8888--8-8-8-8-8888--8-8-8-8--8-8-8-8--8-8-8-8-8888--8-8-8-8-|
-------------------------------------------------------------|

-------------------------------------------------------------|
-------------------------------------------------------------|
-------------------------------------------------------------|
-8888-10101010-8888-10101010-11111111-10101010-8888-10101010-|
-8888--8-8-8-8-8888--8-8-8-8--8-8-8-8--8-8-8-8-8888--8-8-8-8-|
-------------------------------------------------------------|

-----------------------------------------------------------------------|
-----------------------------------------------------------------------|
-----------------------------------------------------------------------|
11111111-13131313-11111111-13131313-14141414-13131313-11111111-13131313|
11111111-11111111-11111111-11111111-11111111-11111111-11111111-11111111|
-----------------------------------------------------------------------|

--------------------------------------------------------------|
--------------------------------------------------------------|
--------------------------------------------------------------|
-9999-11111111-9999-11111111-13131313-11111111-9999-11111111--|
-9999--9-9-9-9-9999--9-9-9-9--9-9-9-9--9-9-9-9-9999--9-9-9-9--|
--------------------------------------------------------------|





-----------------------------------------------|
-----------------------------------------------|
----------------------9-9-9-8-8-8-7-7-7-8-8-8--|
-7-7-7-9-9-9-10-10-10-7-7-7-7-7-7-7-7-7-7-7-7--|
-0-0-0-0-0-0-0--0--0--0-0-0-0-0-0-0-0-0-0-0-0--|
-----------------------------------------------|

-----------------------------------------------------------------|
-----------------------------------------------------------------|
----------------------9-9-9--------------------------------------|
-7-7-7-9-9-9-10-10-10-7-7-7-10--101010-9-10-10-10--101010-9-10-9-|
-0-0-0-0-0-0--0--0--0-0-0-0--8---8-8-8-7--8--8--8---8-8-8-7--8-7-|
-----------------------------------------------------------------|

-----------------------------------------------|
-----------------------------------------------|
----------------------9-9-9-8-8-8-7-7-7-8-8-8--|
-7-7-7-9-9-9-10-10-10-7-7-7-7-7-7-7-7-7-7-7-7--|
-0-0-0-0-0-0-0--0--0--0-0-0-0-0-0-0-0-0-0-0-0--|
-----------------------------------------------|

-----------------------------------------------------------------|
-----------------------------------------------------------------|
----------------------9-9-9--------------------------------------|
-7-7-7-9-9-9-10-10-10-7-7-7-10--101010-9-10-10-10--101010-9-10-9-|
-0-0-0-0-0-0--0--0--0-0-0-0--8---8-8-8-7--8--8--8---8-8-8-7--8-7-|
-----------------------------------------------------------------|

-----------------------------------------------|
-----------------------------------------------|
----------------------9-9-9-8-8-8-7-7-7-8-8-8--|
-7-7-7-9-9-9-10-10-10-7-7-7-7-7-7-7-7-7-7-7-7--|
-0-0-0-0-0-0-0--0--0--0-0-0-0-0-0-0-0-0-0-0-0--|
-----------------------------------------------|

-----------------------------------------------------------------|
-----------------------------------------------------------------|
----------------------9-9-9--------------------------------------|
-7-7-7-9-9-9-10-10-10-7-7-7-10--101010-9-10-10-10--101010-9-10-9-|
-0-0-0-0-0-0--0--0--0-0-0-0--8---8-8-8-7--8--8--8---8-8-8-7--8-7-|
-----------------------------------------------------------------|

-----------------------------------------------|
-----------------------------------------------|
----------------------9-9-9-8-8-8-7-7-7-8-8-8--|
-7-7-7-9-9-9-10-10-10-7-7-7-7-7-7-7-7-7-7-7-7--|
-0-0-0-0-0-0-0--0--0--0-0-0-0-0-0-0-0-0-0-0-0--|
-----------------------------------------------|

---------------------------------------------------------------------|
---------------------------------------------------------------------|
----------------------9-9-9------------------------------------------|
-7-7-7-9-9-9-10-10-10-7-7-7-10--101010-9-10-10-10--101010-9-10-9-----|
-0-0-0-0-0-0--0--0--0-0-0-0--8---8-8-8-7--8--8--8---8-8-8-7--8-7--7--|
------------------------------------------------------------------5--|




|||||||||||||||||||||||||||||||||||||||||||||||||||||||||||||||||
|||||||||||||||||||||||||||||||||||||||||||||||||||||||||||||||||
|||||||||||||||||||||||||||||||||||||||||||||||||||||||||||||||||


08  SPAWN OF LOVE AND WAR


-------------------------------------------------------------|
-------------------------------------------------------------|
-------------------------------------------------------------|
-------10-9----10-9----10-12-10-9----10-9--------------------|
--------8-7-----8-7-----8-10--8-7-----8-7-----888888888555---|
-000000-8\7-000-8\7-000-8-10--8-7-000-8\7-000-666666666333---|
 ******     ***     ***           ***     ***

-------------------------------------------------------------|
-------------------------------------------------------------|
-------------------------------------------------------------|
-------10-9----10-9----10-12-10-9----10-9--------------------|
--------8-7-----8-7-----8-10--8-7-----8-7-----888888888555---|
-000000-8\7-000-8\7-000-8-10--8-7-000-8\7-000-666666666333---|
 ******     ***     ***           ***     ***

----------------------------------------------------------------------|
----------------------------------------------------------------------|
-----------------------------________---------------------------------|
---------^---------^--------/        \----------^---------------------|
--------8-7------10-7------8-7-8-10-8-7--------8-7------888888888555--|
-000000-----0000------0000--------------000000-----0000-666666666333--|
 ******     ****      ****              ******     ****
----------------------------------------------------------------------|
----------------------------------------------------------------------|
-----------------------------________---------------------------------|
---------^---------^--------/        \----------^---------------------|
--------8-7------10-7------8-7-8-10-8-7--------8-7------888888888555--|
-000000-----0000------0000--------------000000-----0000-666666666333--|
 ******     ****      ****              ******     ****

------------------------------------------------------------------------|
------------------------------------------------------------------------|
------------------------------------------------------------------------|
------------------------------_______-----------------------------------|
--^--------^--------^--------/       \---^--------^-------888888888555--|
-1-0-0000-3-0-0000-1-0-0000-1-0-1-3-1-0-1-0-0000-1-0-0000-666666666333--|

----------------------------------------------------------------------|
----------------------------------------------------------------------|
-----------------------------________---------------------------------|
---------^---------^--------/        \----------^---------------------|
--------8-7------10-7------8-7-8-10-8-7--------8-7------888888888555--|
-000000-----0000------0000--------------000000-----0000-666666666333--|
 ******     ****      ****              ******     ****





--------------------------------------------------|
--------------------------------------------------|
--------------------------------------------------|
--------------------------------------------------|
-6-6-6-6-6-6-7-6-6-6-6-6-7-6-6-6-6-6-7-6-6-7-6-6--|
-4-4-4-4-4-4-5-4-4-4-4-4-5-4-4-4-4-4-5-4-4-5-4-4--|

-------------------------------------------------------------------------|
-------------------------------------------------------------------------|
-------------------------------------------------------------------------|
-------------------------------------------------------------------------|
-10-10-10-10-10-10-11-10-10-10-10-10-11-10-10-10-10-10-11-10-10-11-10-10-|
--8--8--8--8--8--8--9--8--8--8--8--8--9--8--8--8--8--8--9--8--8--9--8--8-|

--------------------------------------------------|
--------------------------------------------------|
--------------------------------------------------|
--------------------------------------------------|
-6-6-6-6-6-6-7-6-6-6-6-6-7-6-6-6-6-6-7-6-6-7-6-6--|
-4-4-4-4-4-4-5-4-4-4-4-4-5-4-4-4-4-4-5-4-4-5-4-4--|

-------------------------------------------------------------------------|
-------------------------------------------------------------------------|
-------------------------------------------------------------------------|
-------------------------------------------------------------------------|
-10-10-10-10-10-10-11-10-10-10-10-10-11-10-10-10-10-10-11-10-10-11-10-10-|
--8--8--8--8--8--8--9--8--8--8--8--8--9--8--8--8--8--8--9--8--8--9--8--8-|




----------------------------------------------------------------------|
----------------------------------------------------------------------|
-----------------------------________---------------------------------|
---------^---------^--------/        \----------^---------------------|
--------8-7------10-7------8-7-8-10-8-7--------8-7------888888888555--|
-000000-----0000------0000--------------000000-----0000-666666666333--|
 ******     ****      ****              ******     ****
----------------------------------------------------------------------|
----------------------------------------------------------------------|
-----------------------------________---------------------------------|
---------^---------^--------/        \----------^---------------------|
--------8-7------10-7------8-7-8-10-8-7--------8-7------888888888555--|
-000000-----0000------0000--------------000000-----0000-666666666333--|
 ******     ****      ****              ******     ****




---------------------------------------------------------------|
---------------------------------------------------------------|
---------------------------------------------------------------|
---------------------------------------------------------------|
-4-----5--4-------5--4--5--4--8--7-----8--7-----8--7--8--7-10--|
-2-----3--2-------3--2--3--2--6--5-----6--5-----6--5--6--5--8--|


------------------------------------------------------------|
------------------------------------------------------------|
------------------------------------------------------------|
------------------------------------------------------------|
-4----------------------------------------------4--6--9--7--|
-2----------------------------------------------2--4--7--5--|


-------------------------------------------------------------|
-------------------------------------------------------------|
-------------------------------------------------------------|
-------10-9----10-9----10-12-10-9----10-9--------------------|
--------8-7-----8-7-----8-10--8-7-----8-7-----888888888555---|
-000000-8\7-000-8\7-000-8-10--8-7-000-8\7-000-666666666333---|
 ******     ***     ***           ***     ***

-------------------------------------------------------------|
-------------------------------------------------------------|
-------------------------------------------------------------|
-------10-9----10-9----10-12-10-9----10-9--------------------|
--------8-7-----8-7-----8-10--8-7-----8-7-----888888888555---|
-000000-8\7-000-8\7-000-8-10--8-7-000-8\7-000-666666666333---|
 ******     ***     ***           ***     ***



----------------------------------------------------------------------|
----------------------------------------------------------------------|
-----------------------------________---------------------------------|
---------^---------^--------/        \----------^---------------------|
--------8-7------10-7------8-7-8-10-8-7--------8-7------888888888555--|
-000000-----0000------0000--------------000000-----0000-666666666333--|
 ******     ****      ****              ******     ****
------------------------------------------------------------------------|
------------------------------------------------------------------------|
------------------------------------------------------------------------|
------------------------------_______-----------------------------------|
--^--------^--------^--------/       \---^--------^-------888888888555--|
-1-0-0000-3-0-0000-1-0-0000-1-0-1-3-1-0-1-0-0000-1-0-0000-666666666333--|




--------------------------------------------------|
--------------------------------------------------|
--------------------------------------------------|
--------------------------------------------------|
-6-6-6-6-6-6-7-6-6-6-6-6-7-6-6-6-6-6-7-6-6-7-6-6--|
-4-4-4-4-4-4-5-4-4-4-4-4-5-4-4-4-4-4-5-4-4-5-4-4--|

-------------------------------------------------------------------------|
-------------------------------------------------------------------------|
-------------------------------------------------------------------------|
-------------------------------------------------------------------------|
-10-10-10-10-10-10-11-10-10-10-10-10-11-10-10-10-10-10-11-10-10-11-10-10-|
--8--8--8--8--8--8--9--8--8--8--8--8--9--8--8--8--8--8--9--8--8--9--8--8-|

--------------------------------------------------|
--------------------------------------------------|
--------------------------------------------------|
--------------------------------------------------|
-6-6-6-6-6-6-7-6-6-6-6-6-7-6-6-6-6-6-7-6-6-7-6-6--|
-4-4-4-4-4-4-5-4-4-4-4-4-5-4-4-4-4-4-5-4-4-5-4-4--|

-------------------------------------------------------------------------|
-------------------------------------------------------------------------|
-------------------------------------------------------------------------|
-------------------------------------------------------------------------|
-10-10-10-10-10-10-11-10-10-10-10-10-11-10-10-10-10-10-11-10-10-11-10-10-|
--8--8--8--8--8--8--9--8--8--8--8--8--9--8--8--8--8--8--9--8--8--9--8--8-|






--------------------------------------------------|
--------------------------------------------------|
--------------------------------------------------|
---------------------_-----------------_-----_----|
--------------------/ \---------------/ \---/ \---|
-3-3-3-3-3-3-3-3-3-3-5-6-3-3-3-3-3-3-3-5-6-3-5-6--|
 * * * * * * * * *       * * * * * *

--------------------------------------------------|
--------------------------------------------------|
--------------------------------------------------|
---------------------_-----------------_-----_----|
--------------------/ \---------------/ \---/ \---|
-3-3-3-3-3-3-3-3-3-3-5-6-3-3-3-3-3-3-3-5-6-5-3-5--|
 * * * * * * * * *       * * * * * *

--------------------------------------------------|
--------------------------------------------------|
--------------------------------------------------|
---------------------_-----------------_-----_----|
--------------------/ \---------------/ \---/ \---|
-2-2-2-2-2-2-2-2-2-2-4-5-2-2-2-2-2-2-2-4-5-2-4-5--|
 * * * * * * * * *       * * * * * *

--------------------------|
--------------------------|
--------------------------|
--------------------------|
-4--8--7--5------8--7--5--|
-2--6--5--3--22--6--5--3--|
             **

--------------------------------------------------|
--------------------------------------------------|
--------------------------------------------------|
---------------------_-----------------_-----_----|
--------------------/ \---------------/ \---/ \---|
-3-3-3-3-3-3-3-3-3-3-5-6-3-3-3-3-3-3-3-5-6-3-5-6--|
 * * * * * * * * *       * * * * * *

--------------------------------------------------|
--------------------------------------------------|
--------------------------------------------------|
---------------------_-----------------_-----_----|
--------------------/ \---------------/ \---/ \---|
-3-3-3-3-3-3-3-3-3-3-5-6-3-3-3-3-3-3-3-5-6-5-3-5--|
 * * * * * * * * *       * * * * * *

--------------------------------------------------|
--------------------------------------------------|
--------------------------------------------------|
---------------------_-----------------_-----_----|
--------------------/ \---------------/ \---/ \---|
-2-2-2-2-2-2-2-2-2-2-4-5-2-2-2-2-2-2-2-4-5-2-4-5--|
 * * * * * * * * *       * * * * * *

---------------------------------------------------------------|
---------------------------------------------------------------|
---------------------------------------------------------------|
---------------------------------------------------------------|
-4--8--7--5------8--7--5--4--8--7--5------8--7--5--3-----------|
-2--6--5--3--22--6--5--3--2--6--5--3--22--6--5--3--1-----------|
             **                       **




-------------------------------------------------------------------|
-------------------------------------------------------------------|
-------------------------------------------------------------------|
-------------------------------------------------------------------|
-7-------5-------7-------5--------8-------5-------7----------------|
---8-7-8---8-7-8---8-7-8---8-7-8----8-7-8---8-7-8---8-7/10-10\8-7~-|
   * * *   * * *   * * *   * * *    * * *   * * *

-------------------------------------------------------------------|
-------------------------------------------------------------------|
-------------------------------------------------------------------|
-------------------------------------------------------------------|
-7-------5-------7-------5--------8-------5------------------------|
---8-7-8---8-7-8---8-7-8---8-7-8----8-7-8---8-7-8--10\8-8\7-7\5-5~-|
   * * *   * * *   * * *   * * *    * * *   * * *

-------------------------------------------------------------------|
-------------------------------------------------------------------|
-------------------------------------------------------------------|
-------------------------------------------------------------------|
-7-------5-------7-------5--------8-------5-------7----------------|
---8-7-8---8-7-8---8-7-8---8-7-8----8-7-8---8-7-8---8-7/10-10\8-7~-|
   * * *   * * *   * * *   * * *    * * *   * * *

-------------------------------------------------------------------|
-------------------------------------------------------------------|
-------------------------------------------------------------------|
-------------------------------------------------------------------|
-7-------5-------7-------5--------8-------5------------------------|
---8-7-8---8-7-8---8-7-8---8-7-8----8-7-8---8-7-8--10\8-8\7-7\5-5~-|
   * * *   * * *   * * *   * * *    * * *   * * *




1
-------------------------------------------------------|
-------------------------------------------------------|
-9999--------------------------------------------------|
------101010109999101010101212121210101010999910101010-|
-------------------------------------------------------|
-------------------------------------------------------|
cont
--------------------------------------------------|
--------------------------------------------------|
-9999--------------------9999---------------------|
-----10101010999910101010----10101010121212129999-|
--------------------------------------------------|
--------------------------------------------------|

2
-------------------------------------------------------------------|
-------------------------------------------------------------------|
-------------------------------------------------------------------|
-------------------------------------------------------------------|
-7777------------5555------------7777--------------------5555------|
-----888877778888----888877778888----88887777888855557777----7777--|

B
--------------------------------------------------|
--------------------------------------------------|
--------------------------------------------------|
--9-9-9-9-9-9-9-933333333-9-9-9-9-9-9-9-955555555-|
-101010101010101055555555101010101010101077777777-|
--------------------------------------------------|



1
-------------------------------------------------------|
-------------------------------------------------------|
-9999--------------------------------------------------|
------101010109999101010101212121210101010999910101010-|
-------------------------------------------------------|
-------------------------------------------------------|
cont
--------------------------------------------------|
--------------------------------------------------|
-9999--------------------9999---------------------|
-----10101010999910101010----10101010121212129999-|
--------------------------------------------------|
--------------------------------------------------|

2
-------------------------------------------------------------------|
-------------------------------------------------------------------|
-------------------------------------------------------------------|
-------------------------------------------------------------------|
-7777------------5555------------7777--------------------5555------|
-----888877778888----888877778888----88887777888855557777----7777--|

B
--------------------------------------------------|
--------------------------------------------------|
--------------------------------------------------|
--9-9-9-9-9-9-9-933333333-9-9-9-9-9-9-9-955555555-|
-101010101010101055555555101010101010101077777777-|
--------------------------------------------------|





-------------------------------------------------------------------------------|
-------------------------------------------------------------------------------|
-------------------------------------------------------------------------------|
-------------------------------------------------------------------------------|
66-6-66-6-66-6-77-7-66-6-55-5-66-6-77-7-55-5-55-5-55-5-66-6-55-5-44-4-55-5-66-6|
44-4-44-4-44-4-55-5-44-4-33-3-44-4-55-5-33-3-33-3-33-3-44-4-33-3-22-2-33-3-44-4|

-------------------------------------------------------------------------------|
-------------------------------------------------------------------------------|
-------------------------------------------------------------------------------|
-------------------------------------------------------------------------------|
66-6-66-6-66-6-77-7-66-6-55-5-66-6-77-7-55-5-55-5-55-5-66-6-55-5-44-4-55-5-66-6|
44-4-44-4-44-4-55-5-44-4-33-3-44-4-55-5-33-3-33-3-33-3-44-4-33-3-22-2-33-3-44-4|


--------------------------------------------------------------------|
--------------------------------------------------------------------|
--------------------------------------------------------------------|
--------------------------------------------------------------------|
66666666666677776666555566667777555555555555666655-5-44-4-55-5-66-6-|
44444444444455554444333344445555333333333333444433-3-22-2-33-3-44-4-|

------------------------------------------------------------------------|
------------------------------------------------------------------------|
------------------------------------------------------------------------|
------------------------------------------------------------------------|
66666666666677776666555566667777555555555555666655-5-44-4-55-5-66-6-2---|
44444444444455554444333344445555333333333333444433-3-22-2-33-3-44-4-0---|




---------------------------------------------------------------------------|
---------------------------------------------------------------------------|
---------------------------------------------------------------------------|
-9-99910-9-99910-9-99910-9-99910-12-12121110-9-99910-9-99910---------------|
-7-777-8-7-777-8-7-777-8-7-777-8-10-1010-9-8-7-777-8-7-777-8-888888888555--|
-------------------------------------------------------------666666666333--|

---------------------------------------------------------------------------|
---------------------------------------------------------------------------|
---------------------------------------------------------------------------|
-9-99910-9-99910-9-99910-9-99910-12-12121110-9-99910-9-99910---------------|
-7-777-8-7-777-8-7-777-8-7-777-8-10-1010-9-8-7-777-8-7-777-8-888888888555--|
-------------------------------------------------------------666666666333--|

---------------------------------------------------------------------------|
---------------------------------------------------------------------------|
---------------------------------------------------------------------------|
-9-99910-9-99910-9-99910-9-99910-12-12121110-9-99910-9-99910---------------|
-7-777-8-7-777-8-7-777-8-7-777-8-10-1010-9-8-7-777-8-7-777-8-888888888555--|
-------------------------------------------------------------666666666333--|

---------------------------------------------------------------------------|
---------------------------------------------------------------------------|
---------------------------------------------------------------------------|
-9-99910-9-99910-9-99910-9-99910-12-12121110-9-99910-9-99910---------------|
-7-777-8-7-777-8-7-777-8-7-777-8-10-1010-9-8-7-777-8-7-777-8-888888888555--|
-------------------------------------------------------------666666666333--|


----------------------------------------------------------------------|
----------------------------------------------------------------------|
-----------------------------________---------------------------------|
---------^---------^--------/        \----------^---------------------|
--------8-7------10-7------8-7-8-10-8-7--------8-7------888888888555--|
-000000-----0000------0000--------------000000-----0000-666666666333--|
 ******     ****      ****              ******     ****

------------------------------------------------------------------------|
------------------------------------------------------------------------|
------------------------------------------------------------------------|
------------------------------_______-----------------------------------|
--^--------^--------^--------/       \---^--------^-------888888888555--|
-1-0-0000-3-0-0000-1-0-0000-1-0-1-3-1-0-1-0-0000-1-0-0000-666666666333--|



--------------------------------------------------|
--------------------------------------------------|
--------------------------------------------------|
--------------------------------------------------|
-6-6-6-6-6-6-7-6-6-6-6-6-7-6-6-6-6-6-7-6-6-7-6-6--|
-4-4-4-4-4-4-5-4-4-4-4-4-5-4-4-4-4-4-5-4-4-5-4-4--|

-------------------------------------------------------------------------|
-------------------------------------------------------------------------|
-------------------------------------------------------------------------|
-------------------------------------------------------------------------|
-10-10-10-10-10-10-11-10-10-10-10-10-11-10-10-10-10-10-11-10-10-11-10-10-|
--8--8--8--8--8--8--9--8--8--8--8--8--9--8--8--8--8--8--9--8--8--9--8--8-|

--------------------------------------------------|
--------------------------------------------------|
--------------------------------------------------|
--------------------------------------------------|
-6-6-6-6-6-6-7-6-6-6-6-6-7-6-6-6-6-6-7-6-6-7-6-6--|
-4-4-4-4-4-4-5-4-4-4-4-4-5-4-4-4-4-4-5-4-4-5-4-4--|

-------------------------------------------------------------------------|
-------------------------------------------------------------------------|
-------------------------------------------------------------------------|
-------------------------------------------------------------------------|
-10-10-10-10-10-10-11-10-10-10-10-10-11-10-10-10-10-10-11-10-10-11-10-10-|
--8--8--8--8--8--8--9--8--8--8--8--8--9--8--8--8--8--8--9--8--8--9--8--8-|



---------------------------------------------------------------|
---------------------------------------------------------------|
---------------------------------------------------------------|
---------------------------------------------------------------|
-4-----5--4-------5--4--5--4--8--7-----8--7-----8--7--8--7-10--|
-2-----3--2-------3--2--3--2--6--5-----6--5-----6--5--6--5--8--|


------------------------------------------------|
------------------------------------------------|
------------------------------------------------|
------------------------------------------------|
-4----------------------------------------------|
-2----------------------------------------------|



|||||||||||||||||||||||||||||||||||||||||||||||||||||||||||||||||
|||||||||||||||||||||||||||||||||||||||||||||||||||||||||||||||||
|||||||||||||||||||||||||||||||||||||||||||||||||||||||||||||||||


09 HARLOT ON A PEDESTAL



------------------------------------------------------------------|
------------------------------------------------------------------|
------------------------------------------------------------------|
------------------------------------------------------------------|
4444444444444444666666666666666677777777777777776666666688888888--|
------------------------------------------------------------------|
****************************************************************

----------------------------------------------------------------|
----------------------------------------------------------------|
----------------------------------------------------------------|
----------------------------------------------------------------|
7777777777777777999999999999999910101010101010101010101010101010|
----------------------------------------------------------------|
******************************** * * * * * * * * * * * * * * * *

-------------------|
-------------------|
-------------------|
-------------------|
-9999999988888888--|
-------------------|

------------------------------------------------------------------|
------------------------------------------------------------------|
------------------------------------------------------------------|
------------------------------------------------------------------|
4444444444444444666666666666666677777777777777776666666688888888--|
------------------------------------------------------------------|
****************************************************************

----------------------------------------------------------------|
----------------------------------------------------------------|
----------------------------------------------------------------|
----------------------------------------------------------------|
7777777777777777999999999999999910101010101010101010101010101010|
----------------------------------------------------------------|
******************************** * * * * * * * * * * * * * * * *

-------------------|
-------------------|
-------------------|
-------------------|
-9999999988888888--|
-------------------|


0:20

---------------------------------------------------------------|
---------------------------------------------------------------|
----------------^---------------------------^------------------|
-6----8-9-8----9-8-----------6----8-9-8----9-8-----------------|
-4----6/7-6----7-6-7---10----4----6/7-6----7-6-7----3-3-3-4-3--|
-------------------5----8----------------------5----1-1-1-2-1--|

------------------------------------------------------------------|
------------------------------------------------------------------|
----------------^---------------------------^---------------------|
-6----8-9-8----9-8-----------6----8-9-8----9-8--------------------|
-4----6/7-6----7-6-7---10----4----6/7-6----7-6-3----4-3-4-3-4-5-4-|
-------------------5----8----------------------1----2\1-2-1-2/3-2-|




---------------------------------------------------------------|
---------------------------------------------------------------|
---------------------------------------------------------------|
---------------------------------------------------------------|
-6--------------7--------------10-------------10-9-9-7-7-6-6-4-|
-4-444444444444-5-444444444444-8--444444444444-8\7-7\5-5\4-4\2-|
   ************   ************    ************

------------------------------------------------------------|
------------------------------------------------------------|
------------------------------------------------------------|
------------------------------------------------------------|
-6--------------7--------------10--------------7-6-----9-9--|
-4-444444444444-5-444444444444-8--444444444444-5\4-000-7-7--|
   ************   ************    ************     ***

-------------------------------------------------------------|
-------------------------------------------------------------|
-------------------------------------------------------------|
-------------------------------------------------------------|
-6-------------7-------------10------------10-9-9-7-7-6-6-4--|
-4-444-444-444-5-444-444-444-8--444-444-444-8\7-7\5-5\4-4\2--|
   *** *** ***   *** *** ***    *** *** ***

---------------------------------------------------------|
---------------------------------------------------------|
---------------------------------------------------------|
---------------------------------------------------------|
-6-------------7-------------10-------------7-6-----9-9--|
-4-444-444-444-5-444-444-444-8--444-444-444-5\4-000-7-7--|
   *** *** ***   *** *** ***    *** *** ***     ***




----------------------------------------------------------------------|
----------------------------------------------------------------------|
----------------------------------------------------------------------|
-14141414141414141414141415151514141413131313131313131313131313131313-|
-12121212121212121212121213131312121211111111111111111111111111111111-|
----------------------------------------------------------------------|

--------------------------------------------|
--------------------------------------------|
--------------------------------------------|
-9999999999999999888888888899151515151515---|
-7777777777777777666666666677131313131313---|
--------------------------------------------|

----------------------------------------------------------------------|
----------------------------------------------------------------------|
----------------------------------------------------------------------|
-14141414141414141414141415151514141413131313131313131313131313131313-|
-12121212121212121212121213131312121211111111111111111111111111111111-|
----------------------------------------------------------------------|

--------------------------------------------|
--------------------------------------------|
--------------------------------------------|
-9999999999999999888888888899151515151515---|
-7777777777777777666666666677131313131313---|
--------------------------------------------|

----------------------------------------------------------------------|
----------------------------------------------------------------------|
----------------------------------------------------------------------|
-14141414141414141414141415151514141413131313131313131313131313131313-|
-12121212121212121212121213131312121211111111111111111111111111111111-|
----------------------------------------------------------------------|

--------------------------------------------|
--------------------------------------------|
--------------------------------------------|
-9999999999999999888888888899151515151515---|
-7777777777777777666666666677131313131313---|
--------------------------------------------|

----------------------------------------------------------------------|
----------------------------------------------------------------------|
----------------------------------------------------------------------|
-14141414141414141414141415151514141413131313131313131313131313131313-|
-12121212121212121212121213131312121211111111111111111111111111111111-|
----------------------------------------------------------------------|

--------------------------------------------|
--------------------------------------------|
--------------------------------------------|
-9999999999999999888888888899151515151515---|
-7777777777777777666666666677131313131313---|
--------------------------------------------|


------------------------------------------------------------------|
------------------------------------------------------------------|
------------------------------------------------------------------|
------------------------------------------------------------------|
4444444444444444666666666666666677777777777777776666666688888888--|
------------------------------------------------------------------|
****************************************************************

----------------------------------------------------------------|
----------------------------------------------------------------|
----------------------------------------------------------------|
----------------------------------------------------------------|
7777777777777777999999999999999910101010101010101010101010101010|
----------------------------------------------------------------|
******************************** * * * * * * * * * * * * * * * *

-------------------|
-------------------|
-------------------|
-------------------|
-9999999988888888--|
-------------------|

------------------------------------------------------------------|
------------------------------------------------------------------|
------------------------------------------------------------------|
------------------------------------------------------------------|
4444444444444444666666666666666677777777777777776666666688888888--|
------------------------------------------------------------------|
****************************************************************

----------------------------------------------------------------|
----------------------------------------------------------------|
----------------------------------------------------------------|
----------------------------------------------------------------|
7777777777777777999999999999999910101010101010101010101010101010|
----------------------------------------------------------------|
******************************** * * * * * * * * * * * * * * * *

-------------------|
-------------------|
-------------------|
-------------------|
-9999999988888888--|
-------------------|


---------------------------------------------------------------|
---------------------------------------------------------------|
----------------^---------------------------^------------------|
-6----8-9-8----9-8-----------6----8-9-8----9-8-----------------|
-4----6/7-6----7-6-7---10----4----6/7-6----7-6-7----3-3-3-4-3--|
-------------------5----8----------------------5----1-1-1-2-1--|

------------------------------------------------------------------|
------------------------------------------------------------------|
----------------^---------------------------^---------------------|
-6----8-9-8----9-8-----------6----8-9-8----9-8--------------------|
-4----6/7-6----7-6-7---10----4----6/7-6----7-6-3----4-3-4-3-4-5-4-|
-------------------5----8----------------------1----2\1-2-1-2/3-2-|





1
----------------------------------------------|
T--^-T--^-T--^-T--^--T-^---T--^--T--^--T--^---|
8-45-8-45-8-45-8-45-11-45-11-45-11-45-11-45---|
----------------------------------------------|
----------------------------------------------|
----------------------------------------------|
   T--^--T--^--T--^--T------------------------|
--11-78-11-78-11-78-11-78/20---19--17--19-----|
----------------------------------------------|
----------------------------------------------|
----------------------------------------------|
----------------------------------------------|
----------------------------------------------|
2
---------------------------------------------------------------|
---------------------------------------------------------------|
---------------------------------------------------------------|
---------------------------------------------------------------|
-6--------------7--------------10-------------10-9-9-7-7-6-6-4-|
-4-444444444444-5-444444444444-8--444444444444-8\7-7\5-5\4-4\2-|
   ************   ************    ************

1
---------------------------------------------------------------|
/13-12----12--------------)--)-ph------------------------------|
-------14----14-12-11-12-14-15-12---------8----------ph--------|
-----------------------------------7-9-10---10-9-7-9-7-~fade---|
---------------------------------------------------------------|
---------------------------------------------------------------|
2
------------------------------------------------------------|
------------------------------------------------------------|
------------------------------------------------------------|
------------------------------------------------------------|
-6--------------7--------------10--------------7-6-----9-9--|
-4-444444444444-5-444444444444-8--444444444444-5\4-000-7-7--|
   ************   ************    ************     ***

1
------------------------------------------------|
------------------------------------------------|
-----------------------------------8-9-8--------|
---4-5-4----------9-10-9-------9-10-----10-9-10-|
5-6-----6-5-6-9-10------10-9-10-----------------|
------------------------------------------------|
cont
---------------------------|
---^----^---^----^---^---^-|
-12-0-11-0-9-0-11-0-9-0-8-0|
---------------------------|
---------------------------|
---------------------------|
2
-------------------------------------------------------------|
-------------------------------------------------------------|
-------------------------------------------------------------|
-------------------------------------------------------------|
-6-------------7-------------10------------10-9-9-7-7-6-6-4--|
-4-444-444-444-5-444-444-444-8--444-444-444-8\7-7\5-5\4-4\2--|
   *** *** ***   *** *** ***    *** *** ***

1
------------------------------------------|
-------------------------12-13-12---------|
13--------13--------13-14--------14-13-14-|
--14-13-14--14-13-14----------------------|
------------------------------------------|
------------------------------------------|
cont.
----------------------------------------|
13--------13-----------------------10~~~|
--14-13-14--14-13\9------------9-13-----|
--------------------10-9---9-10---------|
------------------------12--------------|
----------------------------------------|

2
---------------------------------------------------------|
---------------------------------------------------------|
---------------------------------------------------------|
---------------------------------------------------------|
-6-------------7-------------10-------------7-6-----9-9--|
-4-444-444-444-5-444-444-444-8--444-444-444-5\4-000-7-7--|
   *** *** ***   *** *** ***    *** *** ***     ***




1
------------------------------------------------------------------------|
-13--12---10--------13--12--10--------13--12--10-------13--12--10-------|
---9---9----9-11-12---9---9---9-11-12---9---9---9-11-12--9---9---9-11-12|
------------------------------------------------------------------------|
------------------------------------------------------------------------|
------------------------------------------------------------------------|
2
------------------------------------------------------------------------|
------------------------------------------------------------------------|
------------------------------------------------------------------------|
------------------------------7--5--------------------------------5--7--|
-2-------------------4--5--4--5--3--------------------------------3--5--|
-0-------------------2--3--2--5--3--------------------------------3--5--|


1
------------------------------------------------------------------------|
-13--12---10--------13--12--10--------13--12--10-------13--12--10-------|
---9---9----9-11-12---9---9---9-11-12---9---9---9-11-12--9---9---9-11-12|
------------------------------------------------------------------------|
------------------------------------------------------------------------|
------------------------------------------------------------------------|
2
------------------------------------------------------------------------|
------------------------------------------------------------------------|
------------------------------------------------------------------------|
------------------------------7--5--------------------------------5--7--|
-2-------------------4--5--4--5--3--------------------------------3--5--|
-0-------------------2--3--2--5--3--------------------------------3--5--|



1
------------------------------------------------------------------------|
-13--12---10--------13--12--10--------13--12--10-------13--12--10-------|
---9---9----9-11-12---9---9---9-11-12---9---9---9-11-12--9---9---9-11-12|
------------------------------------------------------------------------|
------------------------------------------------------------------------|
------------------------------------------------------------------------|
2
------------------------------------------------------------------------|
------------------------------------------------------------------------|
------------------------------------------------------------------------|
------------------------------7--5--------------------------------5--7--|
-2-------------------4--5--4--5--3--------------------------------3--5--|
-0-------------------2--3--2--5--3--------------------------------3--5--|


1
------------------------------------------------------------------------|
-13--12---10--------13--12--10--------13--12--10-------13--12--10-------|
---9---9----9-11-12---9---9---9-11-12---9---9---9-11-12--9---9---9-11-12|
------------------------------------------------------------------------|
------------------------------------------------------------------------|
------------------------------------------------------------------------|
2
---------------------------------------------------------------------|
---------------------------------------------------------------------|
---------------------------------------------------------------------|
-----------------------------7--5-----------------5----------5-5-7-7-|
-2------------------4--5--4--5--3-----------------3----------3-3-5-5-|
-0--00000000000000--2--3--2--5--3--33333333333333-3--333333--3-3-5-5-|
    **************                 **************    ******


1
------------------------------------------------------------------------|
-13--12---10--------13--12--10--------13--12--10-------13--12--10-------|
---9---9----9-11-12---9---9---9-11-12---9---9---9-11-12--9---9---9-11-12|
------------------------------------------------------------------------|
------------------------------------------------------------------------|
------------------------------------------------------------------------|
2
------------------------------------------------------------------------|
------------------------------------------------------------------------|
------------------------------------------------------------------------|
------------------------------7--5--------------------------------5--7--|
-2-------------------4--5--4--5--3--------------------------------3--5--|
-0-------------------2--3--2--5--3--------------------------------3--5--|


1
---------------------------------------|
13--12--10-------13--12--10------------|
--9---9---9-11-12--9---9---9-11-12-12--|
---------------------------------------|
---------------------------------------|
---------------------------------------|
cont
-------------------------------------------|
-----------------------/\------------------|
--14-12-14--16-14-16-141614-16-17-16-14-16-|
-------------------------------------------|
-------------------------------------------|
-------------------------------------------|

2
---------------------------------------------------------------------|
---------------------------------------------------------------------|
---------------------------------------------------------------------|
-----------------------------7--5-----------------5----------5-5-7-7-|
-2------------------4--5--4--5--3-----------------3----------3-3-5-5-|
-0--00000000000000--2--3--2--5--3--33333333333333-3--333333--3-3-5-5-|
    **************                 **************    ******

----------------------------------------------------------------------|
----------------------------------------------------------------------|
----------------------------------------------------------------------|
-14141414141414141414141415151514141413131313131313131313131313131313-|
-12121212121212121212121213131312121211111111111111111111111111111111-|
----------------------------------------------------------------------|

--------------------------------------------|
--------------------------------------------|
--------------------------------------------|
-9999999999999999888888888899151515151515---|
-7777777777777777666666666677131313131313---|
--------------------------------------------|

----------------------------------------------------------------------|
----------------------------------------------------------------------|
----------------------------------------------------------------------|
-14141414141414141414141415151514141413131313131313131313131313131313-|
-12121212121212121212121213131312121211111111111111111111111111111111-|
----------------------------------------------------------------------|

--------------------------------------------|
--------------------------------------------|
--------------------------------------------|
-9999999999999999888888888899151515151515---|
-7777777777777777666666666677131313131313---|
--------------------------------------------|

----------------------------------------------------------------------|
----------------------------------------------------------------------|
----------------------------------------------------------------------|
-14141414141414141414141415151514141413131313131313131313131313131313-|
-12121212121212121212121213131312121211111111111111111111111111111111-|
----------------------------------------------------------------------|

--------------------------------------------|
--------------------------------------------|
--------------------------------------------|
-9999999999999999888888888899151515151515---|
-7777777777777777666666666677131313131313---|
--------------------------------------------|

----------------------------------------------------------------------|
----------------------------------------------------------------------|
----------------------------------------------------------------------|
-14141414141414141414141415151514141413131313131313131313131313131313-|
-12121212121212121212121213131312121211111111111111111111111111111111-|
----------------------------------------------------------------------|

--------------------------------------------|
--------------------------------------------|
--------------------------------------------|
-9999999999999999888888888899151515151515---|
-7777777777777777666666666677131313131313---|
--------------------------------------------|



---------------------------------------------------------------|
---------------------------------------------------------------|
----------------^---------------------------^------------------|
-6----8-9-8----9-8-----------6----8-9-8----9-8-----------------|
-4----6/7-6----7-6-7---10----4----6/7-6----7-6-7----3-3-3-4-3--|
-------------------5----8----------------------5----1-1-1-2-1--|

------------------------------------------------------------------|
------------------------------------------------------------------|
----------------^---------------------------^---------------------|
-6----8-9-8----9-8-----------6----8-9-8----9-8--------------------|
-4----6/7-6----7-6-7---10----4----6/7-6----7-6-3----4-3-4-3-4-5-4-|
-------------------5----8----------------------1----2\1-2-1-2/3-2-|




---------------------------------------------------------------|
---------------------------------------------------------------|
---------------------------------------------------------------|
---------------------------------------------------------------|
-6--------------7--------------10-------------10-9-9-7-7-6-6-4-|
-4-444444444444-5-444444444444-8--444444444444-8\7-7\5-5\4-4\2-|
   ************   ************    ************

------------------------------------------------------------|
------------------------------------------------------------|
------------------------------------------------------------|
------------------------------------------------------------|
-6--------------7--------------10--------------7-6-----9-9--|
-4-444444444444-5-444444444444-8--444444444444-5\4-000-7-7--|
   ************   ************    ************     ***

-------------------------------------------------------------|
-------------------------------------------------------------|
-------------------------------------------------------------|
-------------------------------------------------------------|
-6-------------7-------------10------------10-9-9-7-7-6-6-4--|
-4-444-444-444-5-444-444-444-8--444-444-444-8\7-7\5-5\4-4\2--|
   *** *** ***   *** *** ***    *** *** ***

---------------------------------------------------------|
---------------------------------------------------------|
---------------------------------------------------------|
---------------------------------------------------------|
-6-------------7-------------10-------------7-6-----9-9--|
-4-444-444-444-5-444-444-444-8--444-444-444-5\4-000-7-7--|
   *** *** ***   *** *** ***    *** *** ***     ***


---------------------------------------------------------------|
---------------------------------------------------------------|
---------------------------------------------------------------|
---------------------------------------------------------------|
-6--------------7--------------10-------------10-9-9-7-7-6-6-4-|
-4-444444444444-5-444444444444-8--444444444444-8\7-7\5-5\4-4\2-|
   ************   ************    ************

------------------------------------------------------------|
------------------------------------------------------------|
------------------------------------------------------------|
------------------------------------------------------------|
-6--------------7--------------10--------------7-6-----9-9--|
-4-444444444444-5-444444444444-8--444444444444-5\4-000-7-7--|
   ************   ************    ************     ***

-------------------------------------------------------------|
-------------------------------------------------------------|
-------------------------------------------------------------|
-------------------------------------------------------------|
-6-------------7-------------10------------10-9-9-7-7-6-6-4--|
-4-444-444-444-5-444-444-444-8--444-444-444-8\7-7\5-5\4-4\2--|
   *** *** ***   *** *** ***    *** *** ***

---------------------------------------------------------|
---------------------------------------------------------|
---------------------------------------------------------|
---------------------------------------------------------|
-6-------------7-------------10-------------7-6-----9-9--|
-4-444-444-444-5-444-444-444-8--444-444-444-5\4-000-7-7--|
   *** *** ***   *** *** ***    *** *** ***     ***



|||||||||||||||||||||||||||||||||||||||||||||||||||||||||||||||||
|||||||||||||||||||||||||||||||||||||||||||||||||||||||||||||||||
|||||||||||||||||||||||||||||||||||||||||||||||||||||||||||||||||


10 FORGIVE ME FATHER(I HAVE SINNED)





-10-----7-----7---12-----7-----7---14-----7-----7---10-----7-----7---|
----0-0---0-0---0----0-0---0-0---0----0-0---0-0---0----0-0---0-0---0-|
---------------------------------------------------------------------|
---------------------------------------------------------------------|
---------------------------------------------------------------------|
---------------------------------------------------------------------|



1
-10-----7-----7---12-----7-----7---14-----7-----7---10-----7-----7---|
----0-0---0-0---0----0-0---0-0---0----0-0---0-0---0----0-0---0-0---0-|
---------------------------------------------------------------------|
---------------------------------------------------------------------|
---------------------------------------------------------------------|
---------------------------------------------------------------------|
2
--------------------------------------------------------------------|
--------------------------------------------------------------------|
--------------------------------------------------------------------|
-----------------------------------4------4---4-----4------4---4----|
-----------------------------------2------2---2-----2------2---2----|
--------------------------------------------------------------------|

1
-10-----7-----7---12-----7-----7---14-----7-----7---10-----7-----7---|
----0-0---0-0---0----0-0---0-0---0----0-0---0-0---0----0-0---0-0---0-|
---------------------------------------------------------------------|
---------------------------------------------------------------------|
---------------------------------------------------------------------|
---------------------------------------------------------------------|
2
-----------------------------------------------------------------|
-----------------------------------------------------------------|
-----------------------------------------------------------------|
-5-----5---5-----4-----4---4------4------4---4-----4------4---4--|
-5-----5---5-----4-----4---4------2------2---2-----2------2---2--|
-----------------------------------------------------------------|


1
-10-----7-----7---12-----7-----7---14-----7-----7---10-----7-----7---|
----0-0---0-0---0----0-0---0-0---0----0-0---0-0---0----0-0---0-0---0-|
---------------------------------------------------------------------|
---------------------------------------------------------------------|
---------------------------------------------------------------------|
---------------------------------------------------------------------|
2
-----------------------------------------------------------------|
-----------------------------------------------------------------|
-----------------------------------------------------------------|
-5-----5---5-----4-----4---4------4------4---4-----4------4---4--|
-5-----5---5-----4-----4---4------2------2---2-----2------2---2--|
-----------------------------------------------------------------|





1
-10\7---7-----7/12-12\7----7-----7/14-14\7---7-----7/14-14\7---7-----7/10-|
------0---0-0-----------0----0-0-----------0---0-0-----------0---0-0------|
--------------------------------------------------------------------------|
--------------------------------------------------------------------------|
--------------------------------------------------------------------------|
--------------------------------------------------------------------------|
2
-----------------------------------------------------------------|
-----------------------------------------------------------------|
-----------------------------------------------------------------|
-5-----5---5-----4-----4---4------4------4---4-----4------4---4--|
-5-----5---5-----4-----4---4------2------2---2-----2------2---2--|
-----------------------------------------------------------------|

1
-10\7---7-----7/12-12\7----7-----7/14-14\7---7-----7/14-14\7---7-----7/10-|
------0---0-0-----------0----0-0-----------0---0-0-----------0---0-0------|
--------------------------------------------------------------------------|
--------------------------------------------------------------------------|
--------------------------------------------------------------------------|
--------------------------------------------------------------------------|
2
-----------------------------------------------------------------|
-----------------------------------------------------------------|
-----------------------------------------------------------------|
-5-----5---5-----4-----4---4------4------4---4-----4------4---4--|
-5-----5---5-----4-----4---4------2------2---2-----2------2---2--|
-----------------------------------------------------------------|






---------------------------------------------------------------------------|
---------------------------------------------------------------------------|
-14-----14-----14---13-----13-----13--11-----11-----11-----9---10---9---7-9|
-12-----12-----12---11-----11-----11---9------9------9-------7----7---7----|
-12-----12-----12---11-----11-----11---9------9------9---------------------|
----0-0----0-0----0----0-0----0-0----0---0-0-----0-0----0------------------|
    * *    * *    *    * *    * *    *   * *     * *    *

---------------------------------------------------------------------------|
---------------------------------------------------------------------------|
-14-----14-----14---13-----13-----13--11-----11-----11-----9---10---9---7-9|
-12-----12-----12---11-----11-----11---9------9------9-------7----7---7----|
-12-----12-----12---11-----11-----11---9------9------9---------------------|
----0-0----0-0----0----0-0----0-0----0---0-0-----0-0----0------------------|
    * *    * *    *    * *    * *    *   * *     * *    *
---------------------------------------------------------------------------|
---------------------------------------------------------------------------|
-14-----14-----14---13-----13-----13--11-----11-----11-----9---10---9---7-9|
-12-----12-----12---11-----11-----11---9------9------9-------7----7---7----|
-12-----12-----12---11-----11-----11---9------9------9---------------------|
----0-0----0-0----0----0-0----0-0----0---0-0-----0-0----0------------------|
    * *    * *    *    * *    * *    *   * *     * *    *
---------------------------------------------------------------------------|
---------------------------------------------------------------------------|
-14-----14-----14---13-----13-----13--11-----11-----11-----9---10---9---7-9|
-12-----12-----12---11-----11-----11---9------9------9-------7----7---7----|
-12-----12-----12---11-----11-----11---9------9------9---------------------|
----0-0----0-0----0----0-0----0-0----0---0-0-----0-0----0------------------|
    * *    * *    *    * *    * *    *   * *     * *    *


1
--------------------------------------------------------------------------|
--------------------------------------------------------------------------|
-----------------------------------------------5-----7-----9------10------|
-10-9-7-9-7~---10-9-7-9----------10-9-7-9-7~------7-----9-----10------12--|
------------------------10~-----------------------------------------------|
--------------------------------------------------------------------------|
2
---------------------------------------------------------------------------|
---------------------------------------------------------------------------|
---------------------------------------------------------------------------|
-7-------------7-----------------5-----------------------------------------|
-7-------------7-----------------5-----------------------------------------|
-------8-10----------8--7--8-------------8-7-----8--7--3---3-------1---1---|


1
--------------------------------------------------------------------------|
--------------------------------------------------------------------------|
-----------------------------------------------5-----7-----9------10------|
-10-9-7-9-7~---10-9-7-9----------10-9-7-9-7~------7-----9-----10------12--|
------------------------10~-----------------------------------------------|
--------------------------------------------------------------------------|
2
---------------------------------------------------------------------------|
---------------------------------------------------------------------------|
---------------------------------------------------------------------------|
-7-------------7-----------------5-----------------------------------------|
-7-------------7-----------------5-----------------------------------------|
-------8-10----------8--7--8-------------8-7-----8--7--3---3-------1---1---|






1
-10-----7-----7---12-----7-----7---14-----7-----7---10-----7-----7---|
----0-0---0-0---0----0-0---0-0---0----0-0---0-0---0----0-0---0-0---0-|
---------------------------------------------------------------------|
---------------------------------------------------------------------|
---------------------------------------------------------------------|
---------------------------------------------------------------------|
2
-----------------------------------------------------------------|
-----------------------------------------------------------------|
-----------------------------------------------------------------|
-5-----5---5-----4-----4---4------4------4---4-----4------4---4--|
-5-----5---5-----4-----4---4------2------2---2-----2------2---2--|
-----------------------------------------------------------------|


1
-10-----7-----7---12-----7-----7---14-----7-----7---10-----7-----7---|
----0-0---0-0---0----0-0---0-0---0----0-0---0-0---0----0-0---0-0---0-|
---------------------------------------------------------------------|
---------------------------------------------------------------------|
---------------------------------------------------------------------|
---------------------------------------------------------------------|
2
-----------------------------------------------------------------|
-----------------------------------------------------------------|
-----------------------------------------------------------------|
-5-----5---5-----4-----4---4------4------4---4-----4------4---4--|
-5-----5---5-----4-----4---4------2------2---2-----2------2---2--|
-----------------------------------------------------------------|



1
-10\7---7-----7/12-12\7----7-----7/14-14\7---7-----7/14-14\7---7-----7/10-|
------0---0-0-----------0----0-0-----------0---0-0-----------0---0-0------|
--------------------------------------------------------------------------|
--------------------------------------------------------------------------|
--------------------------------------------------------------------------|
--------------------------------------------------------------------------|
2
-----------------------------------------------------------------|
-----------------------------------------------------------------|
-----------------------------------------------------------------|
-5-----5---5-----4-----4---4------4------4---4-----4------4---4--|
-5-----5---5-----4-----4---4------2------2---2-----2------2---2--|
-----------------------------------------------------------------|

1
-10\7---7-----7/12-12\7----7-----7/14-14\7---7-----7/14-14\7---7-----7/10-|
------0---0-0-----------0----0-0-----------0---0-0-----------0---0-0------|
--------------------------------------------------------------------------|
--------------------------------------------------------------------------|
--------------------------------------------------------------------------|
--------------------------------------------------------------------------|
2
-----------------------------------------------------------------|
-----------------------------------------------------------------|
-----------------------------------------------------------------|
-5-----5---5-----4-----4---4------4------4---4-----4------4---4--|
-5-----5---5-----4-----4---4------2------2---2-----2------2---2--|
-----------------------------------------------------------------|






---------------------------------------------------------------------------|
---------------------------------------------------------------------------|
-14-----14-----14---13-----13-----13--11-----11-----11-----9---10---9---7-9|
-12-----12-----12---11-----11-----11---9------9------9-------7----7---7----|
-12-----12-----12---11-----11-----11---9------9------9---------------------|
----0-0----0-0----0----0-0----0-0----0---0-0-----0-0----0------------------|
    * *    * *    *    * *    * *    *   * *     * *    *

---------------------------------------------------------------------------|
---------------------------------------------------------------------------|
-14-----14-----14---13-----13-----13--11-----11-----11-----9---10---9---7-9|
-12-----12-----12---11-----11-----11---9------9------9-------7----7---7----|
-12-----12-----12---11-----11-----11---9------9------9---------------------|
----0-0----0-0----0----0-0----0-0----0---0-0-----0-0----0------------------|
    * *    * *    *    * *    * *    *   * *     * *    *
---------------------------------------------------------------------------|
---------------------------------------------------------------------------|
-14-----14-----14---13-----13-----13--11-----11-----11-----9---10---9---7-9|
-12-----12-----12---11-----11-----11---9------9------9-------7----7---7----|
-12-----12-----12---11-----11-----11---9------9------9---------------------|
----0-0----0-0----0----0-0----0-0----0---0-0-----0-0----0------------------|
    * *    * *    *    * *    * *    *   * *     * *    *
---------------------------------------------------------------------------|
---------------------------------------------------------------------------|
-14-----14-----14---13-----13-----13--11-----11-----11-----9---10---9---7-9|
-12-----12-----12---11-----11-----11---9------9------9-------7----7---7----|
-12-----12-----12---11-----11-----11---9------9------9---------------------|
----0-0----0-0----0----0-0----0-0----0---0-0-----0-0----0------------------|
    * *    * *    *    * *    * *    *   * *     * *    *


1
--------------------------------------------------------------------------|
--------------------------------------------------------------------------|
-----------------------------------------------5-----7-----9------10------|
-10-9-7-9-7~---10-9-7-9----------10-9-7-9-7~------7-----9-----10------12--|
------------------------10~-----------------------------------------------|
--------------------------------------------------------------------------|
2
---------------------------------------------------------------------------|
---------------------------------------------------------------------------|
---------------------------------------------------------------------------|
-7-------------7-----------------5-----------------------------------------|
-7-------------7-----------------5-----------------------------------------|
-------8-10----------8--7--8-------------8-7-----8--7--3---3-------1---1---|







1
--------------------------------------------------------------------------|
-----------------------------------------------------13-/14-14/16-\13-13--|
------14-----14-----------------13-14--13-14--13--14----------------------|
-11------11-----11-----11----11-------------------------------------------|
--------------------14-----14---------------------------------------------|
--------------------------------------------------------------------------|
2
-------------------------------------------------------------------------|
-5---7--5---7-5-4---5-4---7--5--------4------5--4------------------------|
--------------------------------6--------6----------5-/6-6-/8-8-/9-9-----|
-------------------------------------------------------------------------|
-------------------------------------------------------------------------|
-------------------------------------------------------------------------|





------------------------------------------------------------|
------------------------------------------------------------|
------------------------------------------------------------|
------------------------------------------------------------|
-----7----7---7-6---6-7--4-----4----4-----------------------|
--9----9----9-----7---------5-----5---5--4--2--4--2--0--2---|

------------------------------------------------------------|
------------------------------------------------------------|
------------------------------------------------------------|
------------------------------------------------------------|
-----7----7---7-6---6-7--4-----4----4-----------------------|
--9----9----9-----7---------5-----5---5--4--2--4--2--0--2---|



1
--------------------------------------------------------------------------|
-----------------------------------------------------13-/14-14/16-\13-13--|
------14-----14-----------------13-14--13-14--13--14----------------------|
-11------11-----11-----11----11-------------------------------------------|
--------------------14-----14---------------------------------------------|
--------------------------------------------------------------------------|
2
-------------------------------------------------------------------------|
-5---7--5---7-5-4---5-4---7--5--------4------5--4------------------------|
--------------------------------6--------6----------5-/6-6-/8-8-/9-9-----|
-------------------------------------------------------------------------|
-------------------------------------------------------------------------|
-------------------------------------------------------------------------|




------------------------------------------------------------------|
------------------------------------------------------------------|
------------------------------------------------------------------|
------------------------------------------------------------------|
---------7777--------7777----777766666666----66666666----66667777-|
-99999999----99999999----9999------------7777--------7777---------|

------------------------------------------------------------------|
------------------------------------------------------------------|
------------------------------------------------------------------|
------------------------------------------------------------------|
---------7777--------7777----777766666666----66666666----66667777-|
-99999999----99999999----9999------------7777--------7777---------|






SOLO
1


------------------------------------------------------------------------|
---)-----)-----)-----)-----)--------)---)---)---)---)---)---)^----------|
--5-----5-----5-----5-----5--------5---5---5---5---5---5---5--4---^-----|
-----------------------------------------------------------------5-4-5~~|
------------------------------------------------------------------------|
------------------------------------------------------------------------|

-----------------------------------------------------------------|
-----------------------------------5-------5---5-------5---5-----|
-7-6-4-6-7-6-4-6-7-6-4-6-7-6-4-6-----6-5-6---6---6-5-6---6---6---|
-----------------------------------------------------------------|
-----------------------------------------------------------------|
-----------------------------------------------------------------|


---------------------------------------|
------7-------7--------9---------9-----|
--7-9---9-7-9---9-9-11---11-9-11---11--|
---------------------------------------|
---------------------------------------|
---------------------------------------|


------------------------------------------------------|
-------10----------10---------12-------12-------------|
-11-13----13-11-13---13-11-13----13-12----13-12-13----|
------------------------------------------------------|
------------------------------------------------------|
------------------------------------------------------|



------------------------------------------------|
-14-10---10-14-10-14-10----10-14-10-14-10---10--|
-------11---------------11----------------11----|
------------------------------------------------|
------------------------------------------------|
------------------------------------------------|

-------------------------------------------|
-12-9----9-12-9-12-9----9-12-9-12-9----9---|
------11-------------11-------------11-----|
-------------------------------------------|
-------------------------------------------|
-------------------------------------------|


--------------------------------------------------------------------|
10-9---9-10-9-10-9--9-10-9-10-9--9-12-9--9-10-9--9-12-9--9-10-9--9--|
----11------------11-----------11------11------11------11------11---|
--------------------------------------------------------------------|
--------------------------------------------------------------------|
--------------------------------------------------------------------|


SPH)(^------------------------------------|
-12---10-----------9--10---12-------------|
---------11~~-------------------9---------|
--------sph-------------------------------|
------------------------------------------|
------------------------------------------|


---------5------------------------------------------------SPH-)()(-|
-7-5---5---7-5-7-5--7-5-7-5---5-8-5---5-10-7---7-12-9----9-12------|
-----6----------------------6-------7--------9--------11-----------|
-------------------------------------------------------------------|
-------------------------------------------------------------------|
-------------------------------------------------------------------|



2nd
---------------------------------------------|
---------------------------------------------|
---------------------------------------------|
---------9-11-9---------------9-11-9----12---|
-9-11-12--------12-11-9-11-12--------11------|
---------------------------------------------|


--------------------------------------------------|
-------------------------------10-12-14-12-10-----|
----------11-13-11-------11-13----------------11--|
-11-13-14----------14-11--------------------------|
--------------------------------------------------|
--------------------------------------------------|


----------------------------------12-14---------|
-------10-12-14-10-14-10-10-12-14-------14/17---|
-11-13------------------------------------------|
------------------------------------------------|
------------------------------------------------|
------------------------------------------------|


-----------------------------------17-21-19-17------|
----------17-19-17----19--17-19-21-------------21---|
-16-18-19----------19-------------------------------|
----------------------------------------------------|
----------------------------------------------------|
----------------------------------------------------|


-21-19------21-19-------21-19-------21-19-----------|
-------22-9-------22-19-------22-19-------22-19-----|
----------------------------------------------------|
----------------------------------------------------|
----------------------------------------------------|
----------------------------------------------------|

-24-19------24-19-------24-19-------24-19----------|
------22-19-------22-19-------22-19-------22-19----|
---------------------------------------------------|
---------------------------------------------------|
---------------------------------------------------|
---------------------------------------------------|


   ) (     ) (     ) (     ) (    )( )( )
-24------24------24------24-----24--------|
------------------------------------------|
------------------------------------------|
------------------------------------------|
------------------------------------------|
------------------------------------------|


   ) (
-24----21-24-22-21--19-22-21-19----21-19-------19-------|
---------------------------------22-----22---21---22-21-|
--------------------------------------------------------|
--------------------------------------------------------|
--------------------------------------------------------|
--------------------------------------------------------|
                 __
                /  \           ^
----------19--19-21-19-------21-19--------|
-19-21-22--------------22-19-------22-21--|
------------------------------------------|
------------------------------------------|
------------------------------------------|
------------------------------------------|

-------------------------------------------------------|
-22-21-21-22-21-19--17-21-19-17--15-19-17-15-----------|
---------------------------------------------18-16~----|
-------------------------------------------------------|
-------------------------------------------------------|
-------------------------------------------------------|

        __
       /  \           /\
-----16-17-16-------141614--------|
---17---------19-17--------17-15--|
-19-------------------------------|
----------------------------------|
----------------------------------|
----------------------------------|



-14------------------------------------------------------|
----17-15-17-15-14----15-14------14-15-14----15-17-15-14-|
-------------------16------16-14----------16-------------|
---------------------------------------------------------|
---------------------------------------------------------|
---------------------------------------------------------|

-------------------------------------------------|
----17-15-14-17-15-14---15-14-------14-----------|
-16------------------16------16-14----16--14-16~~|
-------------------------------------------------|
-------------------------------------------------|
-------------------------------------------------|



----------_______----------------------|
--------)/       \---------------------|
-11---13------11-----11~~~-------------|
-----------------14--------------------|
---------------------------------------|
---------------------------------------|


  /\        /\
-9109----9-9109----9-10-9----9-12-9----9--|
------12--------12--------12--------12----|
------------------------------------------|
------------------------------------------|
------------------------------------------|
------------------------------------------|

   /\
-101210---10-14-10---10-16-14---14-17-14----14---|
--------12--------12---------17----------17------|
-------------------------------------------------|
-------------------------------------------------|
-------------------------------------------------|
-------------------------------------------------|


   ^
-19-17----17-19-17-----19-21-19----19-21-19--------|
-------19----------19-----------21----------21-----|
---------------------------------------------------|
---------------------------------------------------|
---------------------------------------------------|
---------------------------------------------------|

                                          ) ( ) (
-19-22-19----19-22-19----21-24-21----21-24--------|
----------22----------22----------24--------------|
--------------------------------------------------|
--------------------------------------------------|
--------------------------------------------------|
--------------------------------------------------|


-21-24-22-21--19-22-21-19----21-19------19--------|
--------------------------22------22--21--22-21---|
--------------------------------------------------|
--------------------------------------------------|
--------------------------------------------------|
--------------------------------------------------|

----------------------------------------|
-19-22-21-19--17-21-19-17--15-19-17-15--|
----------------------------------------|
----------------------------------------|
----------------------------------------|
----------------------------------------|

--------------------------------------------------------------|
-14-17-15-14-----15-14------14--------------------------------|
--------------16------16--14--16-14--13-16-14-13--11-14-13-11-|
--------------------------------------------------------------|
--------------------------------------------------------------|
--------------------------------------------------------------|


----_____--------------------------------------------------|
---)-------------------------------------------------------|
-13------11~---------13~-----------14~---------------------|
-----------------------------------------------------------|
-----------------------------------------------------------|
-----------------------------------------------------------|



|||||||||||||||||||||||||||||||||||||||||||||||||||||||||||||||||
|||||||||||||||||||||||||||||||||||||||||||||||||||||||||||||||||
|||||||||||||||||||||||||||||||||||||||||||||||||||||||||||||||||


11 BEYOND ELEVENTH HOUR


--------------------------------------------------------------------|
--------------------------------------------------------------------|
--------------------------------------------------------------------|
-------------------------------^------------------------------------|
-6------6------6----6----6----7-6-4-6-6------6------6----4--4--7--7-|
-4-4444-4-4444-4-44-4-44-4-44-5-4-2/4-4-4444-4-4444-4-44-2--2--5--5-|
   ****   ****   **   **   **           ****   ****   **
--------------------------------------------------------------------|
--------------------------------------------------------------------|
--------------------------------------------------------------------|
-------------------------------^------------------------------------|
-6------6------6----6----6----7-6-4-6-6------6------6----4--4--5--5-|
-4-4444-4-4444-4-44-4-44-4-44-5-4-2/4-4-4444-4-4444-4-44-2--2--3--3-|
   ****   ****   **   **   **           ****   ****   **

--------------------------------------------------------------------|
--------------------------------------------------------------------|
--------------------------------------------------------------------|
-------------------------------^---^--------------------------------|
-4------4------4----4----4----5-4-2-4-4------4------4----2--2--5--5-|
-2-2222-2-2222-2-22-2-22-2-22-3-2-0-2-2-2222-2-2222-2-22-0--0--3--3-|
   ****   ****   **   **   **           ****   ****   **
--------------------------------------------------------------------|
--------------------------------------------------------------------|
--------------------------------------------------------------------|
-------------------------------^---^--------------------------------|
-4------4------4----4----4----5-4-2-4-4------4------4----2--2--5--7-|
-2-2222-2-2222-2-22-2-22-2-22-3-2-0-2-2-2222-2-2222-2-22-0--0--3--5-|
   ****   ****   **   **   **           ****   ****   **


--------------------------------------------------------------------|
--------------------------------------------------------------------|
--------------------------------------------------------------------|
-------------------------------^------------------------------------|
-6------6------6----6----6----7-6-4-6-6------6------6----4--4--7--7-|
-4-4444-4-4444-4-44-4-44-4-44-5-4-2/4-4-4444-4-4444-4-44-2--2--5--5-|
   ****   ****   **   **   **           ****   ****   **
--------------------------------------------------------------------|
--------------------------------------------------------------------|
--------------------------------------------------------------------|
-------------------------------^------------------------------------|
-6------6------6----6----6----7-6-4-6-6------6------6----4--4--5--5-|
-4-4444-4-4444-4-44-4-44-4-44-5-4-2/4-4-4444-4-4444-4-44-2--2--3--3-|
   ****   ****   **   **   **           ****   ****   **

--------------------------------------------------------------------|
--------------------------------------------------------------------|
--------------------------------------------------------------------|
-------------------------------^---^--------------------------------|
-4------4------4----4----4----5-4-2-4-4------4------4----2--2--5--5-|
-2-2222-2-2222-2-22-2-22-2-22-3-2-0-2-2-2222-2-2222-2-22-0--0--3--3-|
   ****   ****   **   **   **           ****   ****   **
--------------------------------------------------------------------|
--------------------------------------------------------------------|
--------------------------------------------------------------------|
-------------------------------^---^--------------------------------|
-4------4------4----4----4----5-4-2-4-4------4------4----2--2--5--7-|
-2-2222-2-2222-2-22-2-22-2-22-3-2-0-2-2-2222-2-2222-2-22-0--0--3--5-|
   ****   ****   **   **   **           ****   ****   **



GT1
---------------------------------------------------------------|
---------------------------------------------------------------|
------------8-----------8-----------------5-----------5--------|
-10--------------10----------10----7-------------7--------7----|
---------------------------------------------------------------|
---------------------------------------------------------------|
GT2
------------------------------------------------------------------|
------------------------------------------------------------------|
------------------------------------------------------------------|
------------------------------------------------------------------|
-10101010101010101010101010101010-7-7-7-7-7-7-7-7-7-7-7-7-7-7-7-7-|
--8-8-8-8-8-8-8-8-8-8-8-8-8-8-8-8-5-5-5-5-5-5-5-5-5-5-5-5-5-5-5-5-|


GT1
-----------------------------------------------------------------|
-------------------------------------------8----------)(---------|
------------8-----------8-----------9----------9----8---~~-------|
-10--------------10----------10~---------------------------------|
-----------------------------------------------------------------|
-----------------------------------------------------------------|
GT2
------------------------------------------------------------------|
------------------------------------------------------------------|
------------------------------------------------------------------|
----------------------------------9-9-9-9-9-9-9-9-8-8-8-8-8-8-8-8-|
-10101010101010101010101010101010-7-7-7-7-7-7-7-7-6-6-6-6-6-6-6-6-|
--8-8-8-8-8-8-8-8-8-8-8-8-8-8-8-8---------------------------------|


GT1
---------------------------------------------------------------|
---------------------------------------------------------------|
------------8-----------8-----------------5-----------5--------|
-10--------------10----------10----7-------------7--------7----|
---------------------------------------------------------------|
---------------------------------------------------------------|
GT2
------------------------------------------------------------------|
------------------------------------------------------------------|
------------------------------------------------------------------|
------------------------------------------------------------------|
-10101010101010101010101010101010-7-7-7-7-7-7-7-7-7-7-7-7-7-7-7-7-|
--8-8-8-8-8-8-8-8-8-8-8-8-8-8-8-8-5-5-5-5-5-5-5-5-5-5-5-5-5-5-5-5-|


GT1
-----------------------------------------------------------------|
-------------------------------------------8----------)(---------|
------------8-----------8-----------9----------9----8---~~-------|
-10--------------10----------10~---------------------------------|
-----------------------------------------------------------------|
-----------------------------------------------------------------|
GT2
------------------------------------------------------------------|
------------------------------------------------------------------|
------------------------------------------------------------------|
----------------------------------9-9-9-9-9-9-9-9-8-8-8-8-8-8-8-8-|
-10101010101010101010101010101010-7-7-7-7-7-7-7-7-6-6-6-6-6-6-6-6-|
--8-8-8-8-8-8-8-8-8-8-8-8-8-8-8-8---------------------------------|





-----------------------------------------------------------------|
-----------------------------------------------------------------|
-----------------------------------------------------------------|
-----------------------------------------------------------------|
---7---7-8-7---7---7---7-8-7---7---6---6-7-6---6---6---6-7-6---6-|
-5---5-------5---5---5-------5---4---4-------4---4---4-------4---|
 *   *       *   *   *       *   *   *       *   *   *       *

--------------------------------------------------------------------------|
--------------------------------------------------------------------------|
--------------------------------------------------------------------------|
--------------------------------------------------------------------------|
---8---8-9-8---8---8---8-9-8---8---10---10-11-10---10---10---10-11-10-8-10|
-6---6-------6---6---6-------6---8----8----------8----8----8--------------|
 *   *       *   *   *       *   *    *          *    *    *

-----------------------------------------------------------------|
-----------------------------------------------------------------|
-----------------------------------------------------------------|
-----------------------------------------------------------------|
---7---7-8-7---7---7---7-8-7---7---6---6-7-6---6---6---6-7-6---6-|
-5---5-------5---5---5-------5---4---4-------4---4---4-------4---|
 *   *       *   *   *       *   *   *       *   *   *       *

--------------------------------------------------------------------------|
--------------------------------------------------------------------------|
--------------------------------------------------------------------------|
--------------------------------------------------------------------------|
---8---8-9-8---8---8---8-9-8---8---10---10-11-10---10---10---10-11-10-8-10|
-6---6-------6---6---6-------6---8----8----------8----8----8--------------|
 *   *       *   *   *       *   *    *          *    *    *

-----------------------------------------------------------------|
-----------------------------------------------------------------|
-----------------------------------------------------------------|
-----------------------------------------------------------------|
---7---7-8-7---7---7---7-8-7---7---6---6-7-6---6---6---6-7-6---6-|
-5---5-------5---5---5-------5---4---4-------4---4---4-------4---|
 *   *       *   *   *       *   *   *       *   *   *       *

--------------------------------------------------------------------------|
--------------------------------------------------------------------------|
--------------------------------------------------------------------------|
--------------------------------------------------------------------------|
---8---8-9-8---8---8---8-9-8---8---10---10-11-10---10---10---10-11-10-8-10|
-6---6-------6---6---6-------6---8----8----------8----8----8--------------|
 *   *       *   *   *       *   *    *          *    *    *



--------------------------------------------------------------------|
--------------------------------------------------------------------|
--------------------------------------------------------------------|
-------------------------------^------------------------------------|
-6------6------6----6----6----7-6-4-6-6------6------6----4--4--7--7-|
-4-4444-4-4444-4-44-4-44-4-44-5-4-2/4-4-4444-4-4444-4-44-2--2--5--5-|
   ****   ****   **   **   **           ****   ****   **
--------------------------------------------------------------------|
--------------------------------------------------------------------|
--------------------------------------------------------------------|
-------------------------------^------------------------------------|
-6------6------6----6----6----7-6-4-6-6------6------6----4--4--5--5-|
-4-4444-4-4444-4-44-4-44-4-44-5-4-2/4-4-4444-4-4444-4-44-2--2--3--3-|
   ****   ****   **   **   **           ****   ****   **

--------------------------------------------------------------------|
--------------------------------------------------------------------|
--------------------------------------------------------------------|
-------------------------------^---^--------------------------------|
-4------4------4----4----4----5-4-2-4-4------4------4----2--2--5--5-|
-2-2222-2-2222-2-22-2-22-2-22-3-2-0-2-2-2222-2-2222-2-22-0--0--3--3-|
   ****   ****   **   **   **           ****   ****   **
--------------------------------------------------------------------|
--------------------------------------------------------------------|
--------------------------------------------------------------------|
-------------------------------^---^--------------------------------|
-4------4------4----4----4----5-4-2-4-4------4------4----2--2--5--7-|
-2-2222-2-2222-2-22-2-22-2-22-3-2-0-2-2-2222-2-2222-2-22-0--0--3--5-|
   ****   ****   **   **   **           ****   ****   **



GT1
---------------------------------------------------------------|
---------------------------------------------------------------|
------------8-----------8-----------------5-----------5--------|
-10--------------10----------10----7-------------7--------7----|
---------------------------------------------------------------|
---------------------------------------------------------------|
GT2
---------------------------------------------------------------|
---------------------------------------------------------------|
---------------------------------------------------------------|
---------------------------------------------------------------|
10--10--10--10--10--10--10--10---7---7---7---7---7---7---7---7-|
-8---8---8---8---8---8---8---8---5---5---5---5---5---5---5---5-|


GT1
-----------------------------------------------------------------|
-------------------------------------------8----------)(---------|
------------8-----------8-----------9----------9----8---~~-------|
-10--------------10----------10~---------------------------------|
-----------------------------------------------------------------|
-----------------------------------------------------------------|
GT2
---------------------------------------------------------------|
---------------------------------------------------------------|
---------------------------------------------------------------|
---------------------------------9-----------9---8-------------|
10--10--10--10--10--10--10--10---7-----------7---6-------------|
-8---8---8---8---8---8---8---8---7-----------7---6-------------|


GT1
---------------------------------------------------------------|
---------------------------------------------------------------|
------------8-----------8-----------------5-----------5--------|
-10--------------10----------10----7-------------7--------7----|
---------------------------------------------------------------|
---------------------------------------------------------------|
GT2
---------------------------------------------------------------|
---------------------------------------------------------------|
---------------------------------------------------------------|
---------------------------------------------------------------|
10--10--10--10--10--10--10--10---7---7---7---7---7---7---7---7-|
-8---8---8---8---8---8---8---8---5---5---5---5---5---5---5---5-|


GT1
-----------------------------------------------------------------|
-------------------------------------------8----------)(---------|
------------8-----------8-----------9----------9----8---~~-------|
-10--------------10----------10~---------------------------------|
-----------------------------------------------------------------|
-----------------------------------------------------------------|
GT2
---------------------------------------------------------------|
---------------------------------------------------------------|
---------------------------------------------------------------|
---------------------------------9-----------9---8-------------|
10--10--10--10--10--10--10--10---7-----------7---6-------------|
-8---8---8---8---8---8---8---8---7-----------7---6-------------|

-----------------------------------------------------------------|
-----------------------------------------------------------------|
-----------------------------------------------------------------|
-----------------------------------------------------------------|
---7---7-8-7---7---7---7-8-7---7---6---6-7-6---6---6---6-7-6---6-|
-5---5-------5---5---5-------5---4---4-------4---4---4-------4---|
 *   *       *   *   *       *   *   *       *   *   *       *

--------------------------------------------------------------------------|
--------------------------------------------------------------------------|
--------------------------------------------------------------------------|
--------------------------------------------------------------------------|
---8---8-9-8---8---8---8-9-8---8---10---10-11-10---10---10---10-11-10-8-10|
-6---6-------6---6---6-------6---8----8----------8----8----8--------------|
 *   *       *   *   *       *   *    *          *    *    *

-----------------------------------------------------------------|
-----------------------------------------------------------------|
-----------------------------------------------------------------|
-----------------------------------------------------------------|
---7---7-8-7---7---7---7-8-7---7---6---6-7-6---6---6---6-7-6---6-|
-5---5-------5---5---5-------5---4---4-------4---4---4-------4---|
 *   *       *   *   *       *   *   *       *   *   *       *

--------------------------------------------------------------------------|
--------------------------------------------------------------------------|
--------------------------------------------------------------------------|
--------------------------------------------------------------------------|
---8---8-9-8---8---8---8-9-8---8---10---10-11-10---10---10---10-11-10-8-10|
-6---6-------6---6---6-------6---8----8----------8----8----8--------------|
 *   *       *   *   *       *   *    *          *    *    *

-----------------------------------------------------------------|
-----------------------------------------------------------------|
-----------------------------------------------------------------|
-----------------------------------------------------------------|
---7---7-8-7---7---7---7-8-7---7---6---6-7-6---6---6---6-7-6---6-|
-5---5-------5---5---5-------5---4---4-------4---4---4-------4---|
 *   *       *   *   *       *   *   *       *   *   *       *

--------------------------------------------------------------------------|
--------------------------------------------------------------------------|
--------------------------------------------------------------------------|
--------------------------------------------------------------------------|
---8---8-9-8---8---8---8-9-8---8---10---10-11-10---10---10---10-11-10-8-10|
-6---6-------6---6---6-------6---8----8----------8----8----8--------------|
 *   *       *   *   *       *   *    *          *    *    *


GT1
---------------------------------------------------------------|
---------------------------------------------------------------|
------------8-----------8-----------------5-----------5--------|
-10--------------10----------10----7-------------7--------7----|
---------------------------------------------------------------|
---------------------------------------------------------------|
GT2
------------------------------------------------------------------|
------------------------------------------------------------------|
------------------------------------------------------------------|
------------------------------------------------------------------|
-10101010101010101010101010101010-7-7-7-7-7-7-7-7-7-7-7-7-7-7-7-7-|
--8-8-8-8-8-8-8-8-8-8-8-8-8-8-8-8-5-5-5-5-5-5-5-5-5-5-5-5-5-5-5-5-|


GT1
-----------------------------------------------------------------|
-------------------------------------------8----------)(---------|
------------8-----------8-----------9----------9----8---~~-------|
-10--------------10----------10~---------------------------------|
-----------------------------------------------------------------|
-----------------------------------------------------------------|
GT2
------------------------------------------------------------------|
------------------------------------------------------------------|
------------------------------------------------------------------|
----------------------------------9-9-9-9-9-9-9-9-8-8-8-8-8-8-8-8-|
-10101010101010101010101010101010-7-7-7-7-7-7-7-7-6-6-6-6-6-6-6-6-|
--8-8-8-8-8-8-8-8-8-8-8-8-8-8-8-8---------------------------------|


GT1
---------------------------------------------------------------|
---------------------------------------------------------------|
------------8-----------8-----------------5-----------5--------|
-10--------------10----------10----7-------------7--------7----|
---------------------------------------------------------------|
---------------------------------------------------------------|
GT2
------------------------------------------------------------------|
------------------------------------------------------------------|
------------------------------------------------------------------|
------------------------------------------------------------------|
-10101010101010101010101010101010-7-7-7-7-7-7-7-7-7-7-7-7-7-7-7-7-|
--8-8-8-8-8-8-8-8-8-8-8-8-8-8-8-8-5-5-5-5-5-5-5-5-5-5-5-5-5-5-5-5-|


GT1
-----------------------------------------------------------------|
-------------------------------------------8----------)(---------|
------------8-----------8-----------9----------9----8---~~-------|
-10--------------10----------10~---------------------------------|
-----------------------------------------------------------------|
-----------------------------------------------------------------|
GT2
------------------------------------------------------------------|
------------------------------------------------------------------|
------------------------------------------------------------------|
----------------------------------9-9-9-9-9-9-9-9-8-8-8-8-8-8-8-8-|
-10101010101010101010101010101010-7-7-7-7-7-7-7-7-6-6-6-6-6-6-6-6-|
--8-8-8-8-8-8-8-8-8-8-8-8-8-8-8-8---------------------------------|





------------------------------------------------------------|
------------------------------------------------------------|
------------------------------------------------------------|
------------------------------------------------------------|
-2--------5-----8----------2---------8----7-8-7--4-5-4------|
-0--------3-----6----------0---------6----5-6-5\-2-3-2------|
                                          * *    * *

--------------------------------------------------|
--------------------------------------------------|
--------------------------------------------------|
------9------7------9----10-----------------------|
------7------5------7-----8----5-----8------------|
-000----000----000----000------3-----6------------|
 ***    ***    ***    ***
--------------------------------------------------|
--------------------------------------------------|
--------------------------------------------------|
------9------7------9----10-----------------------|
------7------5------7-----8----8----7-8-7--4-5-4--|
-000----000----000----000------6----5-6-5\-2-3-2--|
 ***    ***    ***    ***







-----------------------------------------------|
-----------------------------------------------|
-----------------------------------------------|
-----------------------------------------------|
-2-2-2-2---2-2-2-2---2-2-2-2---2-2-2-2---------|
-0-0-0-0---0-0-0-0---0-0-0-0---0-0-0-0---------|
 * * * *   * * * *   * * * *   * * * *

-----------------------------------------------|
-----------------------------------------------|
-----------------------------------------------|
-----------------------------------------------|
\---2-2-2-2---2-2-2-2---2-2-2-2---2-2-2-2------|
-\--0-0-0-0---0-0-0-0---0-0-0-0---0-0-0-0------|
    * * * *   * * * *   * * * *   * * * *

--------------------------------------------------------------------|
--------------------------------------------------------------------|
--------------------------------------------------------------------|
---------------------------------------------9------7------9----10--|
-2-2-2-2---2-2-2-2---2-2-2-2---2-2-2-2-------7------5------7-----8--|
-0-0-0-0---0-0-0-0---0-0-0-0---0-0-0-0--000----000----000----000----|
 * * * *   * * * *   * * * *   * * * *  ***    ***    ***    ***


--------------------------------------------------|
--------------------------------------------------|
--------------------------------------------------|
------9------7------9----10-----------------------|
------7------5------7-----8----5-----8------------|
-000----000----000----000------3-----6------------|
 ***    ***    ***    ***
--------------------------------------------------|
--------------------------------------------------|
--------------------------------------------------|
------9------7------9----10-----------------------|
------7------5------7-----8----8----7-8-7--4-5-4--|
-000----000----000----000------6----5-6-5\-2-3-2--|
 ***    ***    ***    ***


--------------------------------------------------|
--------------------------------------------------|
--------------------------------------------------|
--------------------------------------------------|
------7~-----5~-----7~----8~---5-----8------------|
-000----000----000----000------3-----6------------|
 ***    ***    ***    ***

GT1
--------------------------------------------------|
--------------------------------------------------|
--------------------------------------------------|
------9~-----7~-----9~----10~---------------------|
-------------------------------8----7-8-7--4-5-4--|
-000----000----000----000------6----5-6-5\-2-3-2--|
 ***    ***    ***    ***
GT2
--------------------------------------------------|
--------------------------------------------------|
--------------------------------------------------|
--------------------------------------------------|
------7~-----5~-----7~----8~---8----7-8-7--4-5-4--|
-000----000----000----000------6----5-6-5\-2-3-2--|
 ***    ***    ***    ***


SOLO
GT1                                                _____
-------------------------_------------------------/     \----------|
------------------------/ \--------9--9/12-11-9-11-12-11-9-11------|
-------------------8---8-9-8-6---8---------------------------------|
-----/6--5--9--8---------------6-----------------------------------|
-------------------------------*-*---------------------------------|
-4-----------------------------------------------------------------|
GT2
--------------------------------------------------------------------|
--------------------------------------------------------------------|
--------------------------------------------------------------------|
-------------------------------^------------------------------------|
-6------6------6----6----6----7-6-4-6-6------6------6----4--4--7--7-|
-4-4444-4-4444-4-44-4-44-4-44-5-4-2/4-4-4444-4-4444-4-44-2--2--5--5-|
   ****   ****   **   **   **           ****   ****   **
GT1                                  /\
-------------------------------/\---91112-11---------------------------|
--------------------------/\--91112----------12-9-/12-11-9-12-11-12----|
------------/\-------/\--8911---------------------------------------11-|
-------/\--8911-/\--8911-----------------------------------------------|
--/\--7911-----7911----------------------------------------------------|
-7911------------------------------------------------------------------|
GT2
--------------------------------------------------------------------|
--------------------------------------------------------------------|
--------------------------------------------------------------------|
-------------------------------^------------------------------------|
-6------6------6----6----6----7-6-4-6-6------6------6----4--4--5--5-|
-4-4444-4-4444-4-44-4-44-4-44-5-4-2/4-4-4444-4-4444-4-44-2--2--3--3-|
   ****   ****   **   **   **           ****   ****   **
GT1                __                                     _
------------------/  \-------------^---------------------/ \-------|
-12-0-0-11-0-7-0-8-10-8-0-7-0-5-0-7-8-7-0-0-3-0-5-0-2-0-2-3-2-0----|
----------------------------------------------------------------3~-|
-------------------------------------------------------------------|
-------------------------------------------------------------------|
-------------------------------------------------------------------|

--------------------------------------------------------------------|
--------------------------------------------------------------------|
--------------------------------------------------------------------|
-------------------------------^---^--------------------------------|
-4------4------4----4----4----5-4-2-4-4------4------4----2--2--5--5-|
-2-2222-2-2222-2-22-2-22-2-22-3-2-0-2-2-2222-2-2222-2-22-0--0--3--3-|
   ****   ****   **   **   **           ****   ****   **
                                       ______
GT1                                   /      \
------------------------------------18-19-18-15---14----------------------|
7\5-5-5/8-8-8\7-7-7/11-11-11/12-12------------17----14-15-17-14-11-12-14--|
-----------------------------------------------16-----------------------11|
--------------------------------------------------------------------------|
--------------------------------------------------------------------------|
--------------------------------------------------------------------------|

--------------------------------------------------------------------|
--------------------------------------------------------------------|
--------------------------------------------------------------------|
-------------------------------^---^--------------------------------|
-4------4------4----4----4----5-4-2-4-4------4------4----2--2--5--7-|
-2-2222-2-2222-2-22-2-22-2-22-3-2-0-2-2-2222-2-2222-2-22-0--0--3--5-|
   ****   ****   **   **   **           ****   ****   **





--------------------------------------------------------------------|
--------------------------------------------------------------------|
--------------------------------------------------------------------|
-------------------------------^------------------------------------|
-6------6------6----6----6----7-6-4-6-6------6------6----4--4--7--7-|
-4-4444-4-4444-4-44-4-44-4-44-5-4-2/4-4-4444-4-4444-4-44-2--2--5--5-|
   ****   ****   **   **   **           ****   ****   **
--------------------------------------------------------------------|
--------------------------------------------------------------------|
--------------------------------------------------------------------|
-------------------------------^------------------------------------|
-6------6------6----6----6----7-6-4-6-6------6------6----4--4--5--5-|
-4-4444-4-4444-4-44-4-44-4-44-5-4-2/4-4-4444-4-4444-4-44-2--2--3--3-|
   ****   ****   **   **   **           ****   ****   **

--------------------------------------------------------------------|
--------------------------------------------------------------------|
--------------------------------------------------------------------|
-------------------------------^---^--------------------------------|
-4------4------4----4----4----5-4-2-4-4------4------4----2--2--5--5-|
-2-2222-2-2222-2-22-2-22-2-22-3-2-0-2-2-2222-2-2222-2-22-0--0--3--3-|
   ****   ****   **   **   **           ****   ****   **
--------------------------------------------------------------------|
--------------------------------------------------------------------|
--------------------------------------------------------------------|
-------------------------------^---^--------------------------------|
-4------4------4----4----4----5-4-2-4-4------4------4----2--2--5--7-|
-2-2222-2-2222-2-22-2-22-2-22-3-2-0-2-2-2222-2-2222-2-22-0--0--3--5-|
   ****   ****   **   **   **           ****   ****   **



GT1
---------------------------------------------------------------|
---------------------------------------------------------------|
------------8-----------8-----------------5-----------5--------|
-10--------------10----------10----7-------------7--------7----|
---------------------------------------------------------------|
---------------------------------------------------------------|
GT2
------------------------------------------------------------------|
------------------------------------------------------------------|
------------------------------------------------------------------|
------------------------------------------------------------------|
-10101010101010101010101010101010-7-7-7-7-7-7-7-7-7-7-7-7-7-7-7-7-|
--8-8-8-8-8-8-8-8-8-8-8-8-8-8-8-8-5-5-5-5-5-5-5-5-5-5-5-5-5-5-5-5-|


GT1
-----------------------------------------------------------------|
-------------------------------------------8----------)(---------|
------------8-----------8-----------9----------9----8---~~-------|
-10--------------10----------10~---------------------------------|
-----------------------------------------------------------------|
-----------------------------------------------------------------|
GT2
------------------------------------------------------------------|
------------------------------------------------------------------|
------------------------------------------------------------------|
----------------------------------9-9-9-9-9-9-9-9-8-8-8-8-8-8-8-8-|
-10101010101010101010101010101010-7-7-7-7-7-7-7-7-6-6-6-6-6-6-6-6-|
--8-8-8-8-8-8-8-8-8-8-8-8-8-8-8-8---------------------------------|


GT1
---------------------------------------------------------------|
---------------------------------------------------------------|
------------8-----------8-----------------5-----------5--------|
-10--------------10----------10----7-------------7--------7----|
---------------------------------------------------------------|
---------------------------------------------------------------|
GT2
------------------------------------------------------------------|
------------------------------------------------------------------|
------------------------------------------------------------------|
------------------------------------------------------------------|
-10101010101010101010101010101010-7-7-7-7-7-7-7-7-7-7-7-7-7-7-7-7-|
--8-8-8-8-8-8-8-8-8-8-8-8-8-8-8-8-5-5-5-5-5-5-5-5-5-5-5-5-5-5-5-5-|


GT1
-----------------------------------------------------------------|
-------------------------------------------8----------)(---------|
------------8-----------8-----------9----------9----8---~~-------|
-10--------------10----------10~---------------------------------|
-----------------------------------------------------------------|
-----------------------------------------------------------------|
GT2
------------------------------------------------------------------|
------------------------------------------------------------------|
------------------------------------------------------------------|
----------------------------------9-9-9-9-9-9-9-9-8-8-8-8-8-8-8-8-|
-10101010101010101010101010101010-7-7-7-7-7-7-7-7-6-6-6-6-6-6-6-6-|
--8-8-8-8-8-8-8-8-8-8-8-8-8-8-8-8---------------------------------|

GT1
---------------------------------------------------------------|
---------------------------------------------------------------|
------------8-----------8-----------------5-----------5--------|
-10--------------10----------10----7-------------7--------7----|
---------------------------------------------------------------|
---------------------------------------------------------------|
GT2
------------------------------------------------------------------|
------------------------------------------------------------------|
------------------------------------------------------------------|
------------------------------------------------------------------|
-10101010101010101010101010101010-7-7-7-7-7-7-7-7-7-7-7-7-7-7-7-7-|
--8-8-8-8-8-8-8-8-8-8-8-8-8-8-8-8-5-5-5-5-5-5-5-5-5-5-5-5-5-5-5-5-|


GT1
-----------------------------------------------------------------|
-------------------------------------------8----------)(---------|
------------8-----------8-----------9----------9----8---~~-------|
-10--------------10----------10~---------------------------------|
-----------------------------------------------------------------|
-----------------------------------------------------------------|
GT2
------------------------------------------------------------------|
------------------------------------------------------------------|
------------------------------------------------------------------|
----------------------------------9-9-9-9-9-9-9-9-8-8-8-8-8-8-8-8-|
-10101010101010101010101010101010-7-7-7-7-7-7-7-7-6-6-6-6-6-6-6-6-|
--8-8-8-8-8-8-8-8-8-8-8-8-8-8-8-8---------------------------------|


GT1
---------------------------------------------------------------|
---------------------------------------------------------------|
------------8-----------8-----------------5-----------5--------|
-10--------------10----------10----7-------------7--------7----|
---------------------------------------------------------------|
---------------------------------------------------------------|
GT2
------------------------------------------------------------------|
------------------------------------------------------------------|
------------------------------------------------------------------|
------------------------------------------------------------------|
-10101010101010101010101010101010-7-7-7-7-7-7-7-7-7-7-7-7-7-7-7-7-|
--8-8-8-8-8-8-8-8-8-8-8-8-8-8-8-8-5-5-5-5-5-5-5-5-5-5-5-5-5-5-5-5-|


GT1
-----------------------------------------------------------------|
-------------------------------------------8----------)(---------|
------------8-----------8-----------9----------9----8---~~-------|
-10--------------10----------10~---------------------------------|
-----------------------------------------------------------------|
-----------------------------------------------------------------|
GT2
------------------------------------------------------------------|
------------------------------------------------------------------|
------------------------------------------------------------------|
----------------------------------9-9-9-9-9-9-9-9-8-8-8-8-8-8-8-8-|
-10101010101010101010101010101010-7-7-7-7-7-7-7-7-6-6-6-6-6-6-6-6-|
--8-8-8-8-8-8-8-8-8-8-8-8-8-8-8-8---------------------------------|
comments
We did not receive enough feedback on this tab! Please rate:
print report bad tab
1 2 3 4 5
I want to post or [tab]
guest
You may want to rate the tab now too:
select rating
Please do not post tabs as comments. Select "correction" instead!