Oops, an error
Loading. Please wait.

For Your Vulgar Delectation Tab

601 views 6 this week
1 commentread comment
1 2 3 4 5
excellent!
x 4
Autoscroll
+/-
esc
set tempo
stop
Contributor
Difficulty
Tuning
novice
D G C F A D
WARNING: You are trying to view
                                    content from Ultimate-Guitar.com
                                    in an unauthorized application,
                                    which is prohibited.

                                    Please use an official Ultimate
                                    Guitar Tabs application for iPhone,
                                    iPad or Android to access legitimate
                                    chords, guitar, bass, and drum tabs
                                    from Ultimate-Guitar.com database.

                                    Type "ultimate guitar tabs" in Apple
                                    App Store's or Android Market's
                                    search to find the application.
CRADLE OF FILTH 

FOR YOUR VULGAR DELECTATION

D-G-C-F-A-D

TABBED BY-andherembrace

www.facebook.com/andherembrace

* = palm mute




----------------------------------------------------------|
----------------------------------------------------------|
----------------------------------------------------------|
----------------------------------------------------------|
-2-5--4-7-5-4--2-5--4-8-7-5--2-5--4-7-5-4--8-7-5--6-5-3-5-|
-0-3--2-5-3-2--0-3--2-6-5-3--0-3--2-5-3-2--6-5-3--4-3-1-3-|


--------------------------------------------------------|
--------------------------------------------------------|
--------------------------------------------------------|
--------------------------------------------------------|
-2-5--4-7-5-4--2-5--4-8-7-5--2-5--4-7-5-4-3----6-5-3-5--|
-0-3--2-5-3-2--0-3--2-6-5-3--0-3--2-5-3-2-1----4-3-1-3--|


0:13

----------------------------------------------------------|
----------------------------------------------------------|
----------------------------------------------------------|
----------------------------------------------------------|
-2-5--4-7-5-4--2-5--4-8-7-5--2-5--4-7-5-4--8-7--5-6-5-3-5-|
-0-3--2-5-3-2--0-3--2-6-5-3--0-3--2-5-3-2--6-5--3-4-3-1-3-|


--------------------------------------------------------|
--------------------------------------------------------|
--------------------------------------------------------|
--------------------------------------------------------|
-2-5--4-7-5-4--2-5--4-8-7-5--2-5--4-7-5-4-3----6-5-3-5--|
-0-3--2-5-3-2--0-3--2-6-5-3--0-3--2-5-3-2-1----4-3-1-3--|



0:26

-----------------------------------------------------------------|
-----------------------------------------------------------------|
-----------------------------------------------------------------|
-----------------------------------------------------------------|
-5-2-2-2-2-2-5-4-8-2-2-2-2-2-2-2-4-2-2-2-2-2-8-7-5-2-2-2-8-88-8--|
-3-0-0-0-0-0-3-2-6-0-0-0-0-0-0-0-2-0-0-0-0-0-6-5-3-0-0-0-6-66-6--|

----------------------------------------------------|
----------------------------------------------------|
----------------------------------------------------|
----------------------------------------------------|
-7-5-2-2-2-2-5-4-8-2-2-2-2-2-2-2-5--4--3--5--4--3---|
-5\3-0-0-0-0-3-2-6-0-0-0-0-0-0-0-3--2--1--3--2--1---|

-----------------------------------------------------------------|
-----------------------------------------------------------------|
-----------------------------------------------------------------|
-----------------------------------------------------------------|
-5-2-2-2-2-2-5-4-8-2-2-2-2-2-2-2-4-2-2-2-2-2-8-7-5-2-2-2-8-86-8--|
-3-0-0-0-0-0-3-2-6-0-0-0-0-0-0-0-2-0-0-0-0-0-6-5-3-0-0-0-6-66-6--|


------------------------------------------------------------------|
------------------------------------------------------------------|
------------------------------------------------------------------|
------------------------------------------------------------------|
-7-5-2-2-2-2-5-4-8-2-2-2-2-2-2-2-5--4--3--5--4--3-6-5-3-5-7--5--4-|
-5\3-0-0-0-0-3-2-6-0-0-0-0-0-0-0-3--2--1--3--2--1-4-3-1-3-5--3--2-|



0:51

---------------------------------------------------------------|
--------------------0-------0-----------------------------3----|
------------------3---3---3---3-------------------------5---5--|
-66---5----4----2-------2--------66---5----4---3------4--------|
-44-0-3--0-2-0-------------------44-0-3--0-2-0-1---------------|
--------------------------------------------------000----------|
    *    *   *                      *    *   *    ***         
----------------------------------------------------------------|
--------------------0-------0-----------------------------------|
------------------3---3---3---3---------------------------------|
-66---5----4----2-------2--------66---5----4---3----------------|
-44-0-3--0-2-0-------------------44-0-3--0-2-0-1-------7--5-4---|
--------------------------------------------------000--5--3-2---|
    *    *   *                      *    *   *    ***         



1:03
---------------------------------------------------------|
---------------------------------------------------------|
---------------------------------------------------------|
---------------------------------------------------------|
-2-5--4-7-5-4--2-5--4-8-7-5--2-5--4-7-5-4-8-7-5--6-5-3-5-|
-0-3--2-5-3-2--0-3--2-6-5-3--0-3--2-5-3-2-6-5-3--4-3-1-3-|

------------------------------------------------------|
------------------------------------------------------|
------------------------------------------------------|
------------------------------------------------------|
-2-5-4-7-5-4--2-5-4-8-7-5--2-5-4-7-5-4-3--------------|
-0-3-2-5-3-2--0-3-2-6-5-3--0-3-2-5-3-2-1-----0-0-000--|
                                             * * ***


1:16
-----------------------------------------------------------------|
-----------------------------------------------------------------|
-----------------------------------------------------------------|
-----------------------------------------------------------------|
-5-2-2-2-2-2-5-4-8-2-2-2-2-2-2-2-4-2-2-2-2-2-8-7-5-2-2-2-8-88-8--|
-3-0-0-0-0-0-3-2-6-0-0-0-0-0-0-0-2-0-0-0-0-0-6-5-3-0-0-0-6-66-6--|

----------------------------------------------------|
----------------------------------------------------|
----------------------------------------------------|
----------------------------------------------------|
-7-5-2-2-2-2-5-4-8-2-2-2-2-2-2-2-5--4--3--5--4--3---|
-5\3-0-0-0-0-3-2-6-0-0-0-0-0-0-0-3--2--1--3--2--1---|

-----------------------------------------------------------------|
-----------------------------------------------------------------|
-----------------------------------------------------------------|
-----------------------------------------------------------------|
-5-2-2-2-2-2-5-4-8-2-2-2-2-2-2-2-4-2-2-2-2-2-8-7-5-2-2-2-8-86-8--|
-3-0-0-0-0-0-3-2-6-0-0-0-0-0-0-0-2-0-0-0-0-0-6-5-3-0-0-0-6-66-6--|

--------------------------------------------------------|
--------------------------------------------------------|
--------------------------------------------------------|
--------------------------------------------------------|
-7-5-2-2-2-2-5-4-8-2-2-2-2-2-2-2-5--4--3--5--4--3-5-4-3-|
-5\3-0-0-0-0-3-2-6-0-0-0-0-0-0-0-3--2--1--3--2--1-3-2-1-|
                                                  * * *

1:39

M
-------------------------------------------------------------------|
-------------------------------------------------------------------|
-9-12-9---------------------------12-14-12-----------12-14-11------|
-------------------------------------------------------------------|
-------------------------------------------------------------------|
-------------------------------------------------------------------|
R
---------------------0-------0-------------------------------------|
-----0-------0-----0---0---0---0------3-------3--------------------|
------------------------------------2---2---2---2------------------|
---2---2---2---2-2-------2--------0-------0------------------------|
-2-------------------------------------------------2---2---3-2-----|
-0-------0-----------------------------------------0-0-0-0-1-0-----|
                                                     *   *      

M
-------------------------------------------------------------------|
-------------------------------------------------------------------|
-9-12-9---------------------------12-14-12-----------12-14-11------|
-------------------------------------------------------------------|
-------------------------------------------------------------------|
-------------------------------------------------------------------|
R
---------------------0-------0-------------------------------------|
-----0-------0-----0---0---0---0------3-------3--------------------|
------------------------------------2---2---2---2------------------|
---2---2---2---2-2-------2--------0-------0------------------------|
-2-------------------------------------------------2---2---3-2-----|
-0-------0-----------------------------------------0-0-0-0-1-0-----|
                                                     *   *

1:52

SOLO W/PREVIOUS RYTHM REPEATS
-----------------------------------------------___------__-------__-----|
---12--------------12-------------------------/   \ ---/  \-----/  \----|
-9----9-11------12----12------14-16-12-14--/16171617-14161416-12141211--|
------------------------------------------------------------------------|
------------------------------------------------------------------------|
------------------------------------------------------------------------|


1:58

-------------------------------------__------------------|
------15--------------GRAD BEND-----/  \-----------------|
-12------16---17---14-------------11-12-11----11---------|
-------------------------------------------14----14-12---|
---------------------------------------------------------|
---------------------------------------------------------|


2:05

-------------------------------------------------------------|
-------------------------------------------------------------|
-11-9-9-9-9-9-12-9-9-9-9-9-11-9-9-9-11-9-9-9-9-9-12-9-9-9-9-9|
-------------------------------------------------------------|
-------------------------------------------------------------|
-------------------------------------------------------------|

--------------------------------------------------|
-----------------------------------------10-12~~--|
11-9-9-9-11-9-9-9-9-9-11-9-9-9-9-9-11-12----------|
--------------------------------------------------|
--------------------------------------------------|
--------------------------------------------------|


2:11

-------------------------------------------------------------------|
-13-12-12-12-12-12-15-12-12-12-12-12-13-12-12-12-13-12-12-12-12-12-|
-------------------------------------------------------------------|
-------------------------------------------------------------------|
-------------------------------------------------------------------|
-------------------------------------------------------------------|

------------------------------12-------------------------------------------|
15-12-12-12-12-12-13-12-12-12---13---13-12---------------------------------|
----------------------------------14-------14----/19-17-16|14/16-14--------|
----------------------------------------------12-------------------17-16-14|
---------------------------------------------------------------------------|
---------------------------------------------------------------------------|


2:17

--------------------------------------------------------------------|
--------------------------------------------------------------------|
--------------------------------------------------------------------|
----------^--------------------------------^------------------------|
-2--8-7--5-7-4----/\--------/\----2--8-7--5-7-4----/\---------------|
-0-------------0-2320-2--0-2320-1-0-------------0-2320-2--0-3-2222--|
                                                              ****
--------------------------------------------------------------------|
--------------------------------------------------------------------|
--------------------------------------------------------------------|
----------^--------------------------------^------------------------|
-2--8-7--5-7------/\--------/\----2--8-7--5-7-4----/\---------------|
-0-----------6-0-2320-2--0-2320-1-0-------------0-2320-2---3-2222---|
                                                             ****

2:43

------------------------------------------------------|
------------------------------------------------------|
------------------------------------------------------|
------------------------------------------------------|
-2-5-4-7-5-4--2-5-4-8-7-5--2-5-4-7-5-4-3--------------|
-0-3-2-5-3-2--0-3-2-6-5-3--0-3-2-5-3-2-1-----0-0-000--|
                                             * * ***

2:50

-------------------------------------------------------------------|
-------------------------------------------------------------------|
-------------------------------------------------------------------|
---------------------------------8-8-8-8-8-8-8-8-7-7-7-7-7-7-------|
-6-6-6-6-6-6-6-6-5-5-5-5-5-5-5-5-6-6-6-6-6-6-6-6-5-5-5-5-5-5-5-5---|
-4-4-4-4-4-4-4-4-3-3-3-3-3-3-3-3-----------------------------3-3---|

-------------------------------------------------------------------|
-------------------------------------------------------------------|
-------------------------------------------------------------------|
---------------------------------8-8-8-8-8-8-8-8-7-7-7-7-7-7-------|
-6-6-6-6-6-6-6-6-5-5-5-5-5-5-5-5-6-6-6-6-6-6-6-6-5-5-5-5-5-5-5-5---|
-4-4-4-4-4-4-4-4-3-3-3-3-3-3-3-3-----------------------------3-3---|

-------------------------------------------------------------------|
-------------------------------------------------------------------|
-------------------------------------------------------------------|
---------------------------------8-8-8-8-8-8-8-8-7-7-7-7-7-7-------|
-6-6-6-6-6-6-6-6-5-5-5-5-5-5-5-5-6-6-6-6-6-6-6-6-5-5-5-5-5-5-5-5---|
-4-4-4-4-4-4-4-4-3-3-3-3-3-3-3-3-----------------------------3-3---|

------------------------------------------------------------------|
------------------------------------------------------------------|
------------------------------------------------------------------|
---------------------------------8-8-8-8-8-8-8-8-7-7-7-7----------|
-6-6-6-6-6-6-6-6-5-5-5-5-5-5-5-5-6-6-6-6-6-6-6-6-5-5-5-5----------|
-4-4-4-4-4-4-4-4-3-3-3-3-3-3-3-3--------------------------0-0-000-|
                                                          * * ***


3:15

---------------------------------------------------------------|
--------------------0-------0-----------------------------3----|
------------------3---3---3---3-------------------------5---5--|
-66---5----4----2-------2--------66---5----4---3------4--------|
-44-0-3--0-2-0-------------------44-0-3--0-2-0-1---------------|
--------------------------------------------------000----------|
    *    *   *                      *    *   *    ***         

----------------------------------------------------------------|
--------------------0-------0-----------------------------------|
------------------3---3---3---3---------------------------------|
-66---5----4----2-------2--------66---5----4---3----------------|
-44-0-3--0-2-0-------------------44-0-3--0-2-0-1-------7--5-4---|
--------------------------------------------------000--5--3-2---|
    *    *   *                      *    *   *    ***         

3:28

---------------------------------------------------------|
---------------------------------------------------------|
---------------------------------------------------------|
---------------------------------------------------------|
-2-5--4-7-5-4--2-5--4-8-7-5--2-5--4-7-5-4-8-7-5--6-5-3-5-|
-0-3--2-5-3-2--0-3--2-6-5-3--0-3--2-5-3-2-6-5-3--4-3-1-3-|


------------------------------------------------------|
------------------------------------------------------|
------------------------------------------------------|
------------------------------------------------------|
-2-5--4-7-5-4--2-5--4-8-7-5--2-5--4-7-5-4-3-----------|
-0-3--2-5-3-2--0-3--2-6-5-3--0-3--2-5-3-2-1--0-0-000--|
                                             * * ***

-----------------------------------------------------------------|
-----------------------------------------------------------------|
-----------------------------------------------------------------|
-----------------------------------------------------------------|
-5-2-2-2-2-2-5-4-8-2-2-2-2-2-2-2-4-2-2-2-2-2-8-7-5-2-2-2-8-88-8--|
-3-0-0-0-0-0-3-2-6-0-0-0-0-0-0-0-2-0-0-0-0-0-6-5-3-0-0-0-6-66-6--|


----------------------------------------------------|
----------------------------------------------------|
----------------------------------------------------|
----------------------------------------------------|
-7-5-2-2-2-2-5-4-8-2-2-2-2-2-2-2-5--4--3--5--4--3---|
-5\3-0-0-0-0-3-2-6-0-0-0-0-0-0-0-3--2--1--3--2--1---|

-----------------------------------------------------------------|
-----------------------------------------------------------------|
-----------------------------------------------------------------|
-----------------------------------------------------------------|
-5-2-2-2-2-2-5-4-8-2-2-2-2-2-2-2-4-2-2-2-2-2-8-7-5-2-2-2-8-88-8--|
-3-0-0-0-0-0-3-2-6-0-0-0-0-0-0-0-2-0-0-0-0-0-6-5-3-0-0-0-6-66-6--|


----------------------------------------------------|
----------------------------------------------------|
----------------------------------------------------|
----------------------------------------------------|
-7-5-2-2-2-2-5-4-8-2-2-2-2-2-2-2-5--4--3--5--4--3---|
-5\3-0-0-0-0-3-2-6-0-0-0-0-0-0-0-3--2--1--3--2--1---|

                                                  
-----------------------------------------------------------------|
-----------------------------------------------------------------|
-----------------------------------------------------------------|
-----------------------------------------------------------------|
-5-2-2-2-2-2-5-4-8-2-2-2-2-2-2-2-4-2-2-2-2-2-8-7-5-2-2-2-8-88-8--|
-3-0-0-0-0-0-3-2-6-0-0-0-0-0-0-0-2-0-0-0-0-0-6-5-3-0-0-0-6-66-6--|


----------------------------------------------------|
----------------------------------------------------|
----------------------------------------------------|
----------------------------------------------------|
-7-5-2-2-2-2-5-4-8-2-2-2-2-2-2-2-5--4--3--5--4--3---|
-5\3-0-0-0-0-3-2-6-0-0-0-0-0-0-0-3--2--1--3--2--1---|


----------------------------------------------------------|
----------------------------------------------------------|
----------------------------------------------------------|
----------------------------------------------------------|
-2-5--4-7-5-4--2-5--4-8-7-5--2-5--4-7-5-4--8-7-5--6-5-3-5-|
-0-3--2-5-3-2--0-3--2-6-5-3--0-3--2-5-3-2--6-5-3--4-3-1-3-|

----------------------------------------------------------|
----------------------------------------------------------|
----------------------------------------------------------|
----------------------------------------------------------|
-2-5--4-7-5-4--2-5--4-8-7-5--2-5--4-7-5-4--8-7-5--6-5-3-5-|
-0-3--2-5-3-2--0-3--2-6-5-3--0-3--2-5-3-2--6-5-3--4-3-1-3-|

--------------------------------------------------------|
--------------------------------------------------------|
--------------------------------------------------------|
--------------------------------------------------------|
-2-5--4-7-5-4--2-5--4-8-7-5--2-5--4-7-5-4-3----6-5-3-5--|
-0-3--2-5-3-2--0-3--2-6-5-3--0-3--2-5-3-2-1----4-3-1-3--|

----------------------------------------------------------------|
----------------------------------------------------------------|
----------------------------------------------------------------|
----------------------------------------------------------------|
-2-5--4-7-5-4--2-5--4-8-7-5--2-5--4-7-5-4-3-----8-7-5-7-5-3-5-2-|
-0-3--2-5-3-2--0-3--2-6-5-3--0-3--2-5-3-2-1-----6-5-3-5-3-1-3-0-|
1 comment total.
0 reply
andherembrace wrote on September 20 2012, 05:30 pm

@1:15 and other places like it they should be 0's instead of 1's ...sorry

I want to post or [tab]
guest
You may want to rate the tab now too:
select rating
Please do not post tabs as comments. Select "correction" instead!