Oops, an error
Loading. Please wait.

Forgive Me Father I Have Sinned Tab

ver1
ver1

Solo

Whole song

More versions @911Tabs.com
1,707 views 6 this week
no commentswrite comment
1 2 3 4 5
excellent!
x 1
add to favorites launch autoscroll
font size
0
reset
Autoscroll
+/-
esc
set tempo
stop
Contributor
Difficulty
Tuning
advanced
D G C F A D
WARNING: You are trying to view
                                    content from Ultimate-Guitar.com
                                    in an unauthorized application,
                                    which is prohibited.

                                    Please use an official Ultimate
                                    Guitar Tabs application for iPhone,
                                    iPad or Android to access legitimate
                                    chords, guitar, bass, and drum tabs
                                    from Ultimate-Guitar.com database.

                                    Type "ultimate guitar tabs" in Apple
                                    App Store's or Android Market's
                                    search to find the application.


SOLO
1


------------------------------------------------------------------------|
---)-----)-----)-----)-----)--------)---)---)---)---)---)---)^----------|
--5-----5-----5-----5-----5--------5---5---5---5---5---5---5--4---^-----|
-----------------------------------------------------------------5-4-5~~|
------------------------------------------------------------------------|
------------------------------------------------------------------------|  

-----------------------------------------------------------------|
-----------------------------------5-------5---5-------5---5-----|
-7-6-4-6-7-6-4-6-7-6-4-6-7-6-4-6-----6-5-6---6---6-5-6---6---6---|
-----------------------------------------------------------------|
-----------------------------------------------------------------|
-----------------------------------------------------------------|


---------------------------------------|
------7-------7--------9---------9-----|
--7-9---9-7-9---9-9-11---11-9-11---11--|
---------------------------------------|
---------------------------------------|
---------------------------------------|


---------------------------------------------------|
-------10----------10---------12-------12----------|
-11-13----13-11-13---13-11-13----13-12----13-12-13-|
---------------------------------------------------|
---------------------------------------------------|
----------------------------------------------------|



------------------------------------------------|
-14-10---10-14-10-14-10----10-14-10-14-10---10--|
-------11---------------11----------------11----|
------------------------------------------------|
------------------------------------------------|
------------------------------------------------|

-------------------------------------------|
-12-9----9-12-9-12-9----9-12-9-12-9----9---|
------11-------------11-------------11-----|
-------------------------------------------|
-------------------------------------------|
-------------------------------------------|


--------------------------------------------------------------------|
10-9---9-10-9-10-9--9-10-9-10-9--9-12-9--9-10-9--9-12-9--9-10-9--9--|
----11------------11-----------11------11------11------11------11---|
--------------------------------------------------------------------|
--------------------------------------------------------------------|
--------------------------------------------------------------------|


SPH)(^------------------------------------|
-12---10-----------9--10---12-------------|
---------11~~-------------------9---------|
--------sph-------------------------------|
------------------------------------------|
------------------------------------------|


---------5------------------------------------------------SPH-)()(-|
-7-5---5---7-5-7-5--7-5-7-5---5-8-5---5-10-7---7-12-9----9-12------|
-----6----------------------6-------7--------9--------11-----------|
-------------------------------------------------------------------|
-------------------------------------------------------------------|
-------------------------------------------------------------------|



2nd
---------------------------------------------|
---------------------------------------------|
---------------------------------------------|
---------9-11-9---------------9-11-9----12---|
-9-11-12--------12-11-9-11-12--------11------|
---------------------------------------------|


--------------------------------------------------|
-------------------------------10-12-14-12-10-----|
----------11-13-11-------11-13----------------11--|
-11-13-14----------14-11--------------------------|
--------------------------------------------------|
--------------------------------------------------|


----------------------------------12-14---------|
-------10-12-14-10-14-10-10-12-14-------14/17---|
-11-13------------------------------------------|
------------------------------------------------|
------------------------------------------------|
------------------------------------------------|


-----------------------------------17-21-19-17------|
----------17-19-17----19--17-19-21-------------21---|
-16-18-19----------19-------------------------------|
----------------------------------------------------|
----------------------------------------------------|
----------------------------------------------------|


-21-19------21-19-------21-19-------21-19-----------|
-------22-9-------22-19-------22-19-------22-19-----|
----------------------------------------------------|
----------------------------------------------------|
----------------------------------------------------|
----------------------------------------------------|

-24-19------24-19-------24-19-------24-19----------|
------22-19-------22-19-------22-19-------22-19----|
---------------------------------------------------|
---------------------------------------------------|
---------------------------------------------------|
---------------------------------------------------|


   ) (     ) (     ) (     ) (    )( )( )
-24------24------24------24-----24--------|
------------------------------------------|
------------------------------------------|
------------------------------------------|
------------------------------------------|
------------------------------------------|


   ) (
-24----21-24-22-21--19-22-21-19----21-19-------19-------|
---------------------------------22-----22---21---22-21-|
--------------------------------------------------------|
--------------------------------------------------------|
--------------------------------------------------------|
--------------------------------------------------------|
                 __
                /  \           ^     
----------19--19-21-19-------21-19--------|
-19-21-22--------------22-19-------22-21--|
------------------------------------------|
------------------------------------------|
------------------------------------------|
------------------------------------------|

-------------------------------------------------------|
-22-21-21-22-21-19--17-21-19-17--15-19-17-15-----------|
---------------------------------------------18-16~----|
-------------------------------------------------------|
-------------------------------------------------------|
-------------------------------------------------------|

        __             
       /  \           /\
-----16-17-16-------141614--------|
---17---------19-17--------17-15--|
-19-------------------------------|
----------------------------------|
----------------------------------|
----------------------------------|



-14------------------------------------------------------|
----17-15-17-15-14----15-14------14-15-14----15-17-15-14-|
-------------------16------16-14----------16-------------|
---------------------------------------------------------|
---------------------------------------------------------|
---------------------------------------------------------|

-------------------------------------------------|
----17-15-14-17-15-14---15-14-------14-----------|
-16------------------16------16-14----16--14-16~~|
-------------------------------------------------|
-------------------------------------------------|
-------------------------------------------------|



----------_______----------------------|
--------)/       \---------------------|
-11---13------11-----11~~~-------------|
-----------------14--------------------|
---------------------------------------|
---------------------------------------|

   
  /\        /\
-9109----9-9109----9-10-9----9-12-9----9--|
------12--------12--------12--------12----|
------------------------------------------|
------------------------------------------|
------------------------------------------|
------------------------------------------|

   /\      
-101210---10-14-10---10-16-14---14-17-14----14---|
--------12--------12---------17----------17------|
-------------------------------------------------|
-------------------------------------------------|
-------------------------------------------------|
-------------------------------------------------|


   ^
-19-17----17-19-17-----19-21-19----19-21-19--------|
-------19----------19-----------21----------21-----|
---------------------------------------------------|
---------------------------------------------------|
---------------------------------------------------|
---------------------------------------------------|

                                          ) ( ) (
-19-22-19----19-22-19----21-24-21----21-24--------|
----------22----------22----------24--------------|
--------------------------------------------------|
--------------------------------------------------|
--------------------------------------------------|
--------------------------------------------------|


-21-24-22-21--19-22-21-19----21-19------19--------|
--------------------------22------22--21--22-21---|
--------------------------------------------------|
--------------------------------------------------|
--------------------------------------------------|
--------------------------------------------------|

----------------------------------------|
-19-22-21-19--17-21-19-17--15-19-17-15--|
----------------------------------------|
----------------------------------------|
----------------------------------------|
----------------------------------------|

--------------------------------------------------------------|
-14-17-15-14-----15-14------14--------------------------------|
--------------16------16--14--16-14--13-16-14-13--11-14-13-11-|
--------------------------------------------------------------|
--------------------------------------------------------------|
--------------------------------------------------------------|


----_____--------------------------------------------------|
---)-------------------------------------------------------|
-13------11~---------13~-----------14~---------------------|
-----------------------------------------------------------|
-----------------------------------------------------------|
-----------------------------------------------------------|
comments
We did not receive enough feedback on this tab! Please rate:
1 2 3 4 5
I want to post or [tab]
guest
You may want to rate the tab now too:
select rating
Please do not post tabs as comments. Select "correction" instead!