Oops, an error
Loading. Please wait.

Forgive Me Father I Have Sinned Tab

ver4
ver4

Solo

Whole song

Interactive

More versions @911Tabs.com
1,924 views 12 this week
1 commentread comment
1 2 3 4 5
excellent!
x 3
Autoscroll
+/-
esc
set tempo
stop
Contributor
Difficulty
Tuning
advanced
D G C F A D
Hey! There's an official Ultimate Guitar app which is ideal
for learning songs when you're away from computer. Get the app
WARNING: You are trying to view
                                    content from Ultimate-Guitar.com
                                    in an unauthorized application,
                                    which is prohibited.

                                    Please use an official Ultimate
                                    Guitar Tabs application for iPhone,
                                    iPad or Android to access legitimate
                                    chords, guitar, bass, and drum tabs
                                    from Ultimate-Guitar.com database.

                                    Type "ultimate guitar tabs" in Apple
                                    App Store's or Android Market's
                                    search to find the application.
CRADLE OF FILTH

FORGIVE ME FATHER(I HAVE SINNED)

DGCFAD


tabbed by andherembrace




-10-----7-----7---12-----7-----7---14-----7-----7---10-----7-----7---|
----0-0---0-0---0----0-0---0-0---0----0-0---0-0---0----0-0---0-0---0-|
---------------------------------------------------------------------|
---------------------------------------------------------------------|
---------------------------------------------------------------------|
---------------------------------------------------------------------|



1
-10-----7-----7---12-----7-----7---14-----7-----7---10-----7-----7---|
----0-0---0-0---0----0-0---0-0---0----0-0---0-0---0----0-0---0-0---0-|
---------------------------------------------------------------------|
---------------------------------------------------------------------|
---------------------------------------------------------------------|
---------------------------------------------------------------------|
2
--------------------------------------------------------------------|
--------------------------------------------------------------------|
--------------------------------------------------------------------|
-----------------------------------4------4---4-----4------4---4----|
-----------------------------------2------2---2-----2------2---2----|
--------------------------------------------------------------------|

1
-10-----7-----7---12-----7-----7---14-----7-----7---10-----7-----7---|
----0-0---0-0---0----0-0---0-0---0----0-0---0-0---0----0-0---0-0---0-|
---------------------------------------------------------------------|
---------------------------------------------------------------------|
---------------------------------------------------------------------|
---------------------------------------------------------------------|
2
-----------------------------------------------------------------|
-----------------------------------------------------------------|
-----------------------------------------------------------------|
-5-----5---5-----4-----4---4------4------4---4-----4------4---4--|
-5-----5---5-----4-----4---4------2------2---2-----2------2---2--|
-----------------------------------------------------------------|


1
-10-----7-----7---12-----7-----7---14-----7-----7---10-----7-----7---|
----0-0---0-0---0----0-0---0-0---0----0-0---0-0---0----0-0---0-0---0-|
---------------------------------------------------------------------|
---------------------------------------------------------------------|
---------------------------------------------------------------------|
---------------------------------------------------------------------|
2
-----------------------------------------------------------------|
-----------------------------------------------------------------|
-----------------------------------------------------------------|
-5-----5---5-----4-----4---4------4------4---4-----4------4---4--|
-5-----5---5-----4-----4---4------2------2---2-----2------2---2--|
-----------------------------------------------------------------|





1
-10\7---7-----7/12-12\7----7-----7/14-14\7---7-----7/14-14\7---7-----7/10-|
------0---0-0-----------0----0-0-----------0---0-0-----------0---0-0------|
--------------------------------------------------------------------------|
--------------------------------------------------------------------------|
--------------------------------------------------------------------------|
--------------------------------------------------------------------------|
2
-----------------------------------------------------------------|
-----------------------------------------------------------------|
-----------------------------------------------------------------|
-5-----5---5-----4-----4---4------4------4---4-----4------4---4--|
-5-----5---5-----4-----4---4------2------2---2-----2------2---2--|
-----------------------------------------------------------------|

1
-10\7---7-----7/12-12\7----7-----7/14-14\7---7-----7/14-14\7---7-----7/10-|
------0---0-0-----------0----0-0-----------0---0-0-----------0---0-0------|
--------------------------------------------------------------------------|
--------------------------------------------------------------------------|
--------------------------------------------------------------------------|
--------------------------------------------------------------------------|
2
-----------------------------------------------------------------|
-----------------------------------------------------------------|
-----------------------------------------------------------------|
-5-----5---5-----4-----4---4------4------4---4-----4------4---4--|
-5-----5---5-----4-----4---4------2------2---2-----2------2---2--|
-----------------------------------------------------------------|






---------------------------------------------------------------------------|
---------------------------------------------------------------------------|
-14-----14-----14---13-----13-----13--11-----11-----11-----9---10---9---7-9|
-12-----12-----12---11-----11-----11---9------9------9-------7----7---7----|
-12-----12-----12---11-----11-----11---9------9------9---------------------|
----0-0----0-0----0----0-0----0-0----0---0-0-----0-0----0------------------|
    * *    * *    *    * *    * *    *   * *     * *    *

---------------------------------------------------------------------------|
---------------------------------------------------------------------------|
-14-----14-----14---13-----13-----13--11-----11-----11-----9---10---9---7-9|
-12-----12-----12---11-----11-----11---9------9------9-------7----7---7----|
-12-----12-----12---11-----11-----11---9------9------9---------------------|
----0-0----0-0----0----0-0----0-0----0---0-0-----0-0----0------------------|
    * *    * *    *    * *    * *    *   * *     * *    *
---------------------------------------------------------------------------|
---------------------------------------------------------------------------|
-14-----14-----14---13-----13-----13--11-----11-----11-----9---10---9---7-9|
-12-----12-----12---11-----11-----11---9------9------9-------7----7---7----|
-12-----12-----12---11-----11-----11---9------9------9---------------------|
----0-0----0-0----0----0-0----0-0----0---0-0-----0-0----0------------------|
    * *    * *    *    * *    * *    *   * *     * *    *
---------------------------------------------------------------------------|
---------------------------------------------------------------------------|
-14-----14-----14---13-----13-----13--11-----11-----11-----9---10---9---7-9|
-12-----12-----12---11-----11-----11---9------9------9-------7----7---7----|
-12-----12-----12---11-----11-----11---9------9------9---------------------|
----0-0----0-0----0----0-0----0-0----0---0-0-----0-0----0------------------|
    * *    * *    *    * *    * *    *   * *     * *    *


1
--------------------------------------------------------------------------|
--------------------------------------------------------------------------|
-----------------------------------------------5-----7-----9------10------|
-10-9-7-9-7~---10-9-7-9----------10-9-7-9-7~------7-----9-----10------12--|
------------------------10~-----------------------------------------------|
--------------------------------------------------------------------------|
2
---------------------------------------------------------------------------|
---------------------------------------------------------------------------|
---------------------------------------------------------------------------|
-7-------------7-----------------5-----------------------------------------|
-7-------------7-----------------5-----------------------------------------|
-------8-10----------8--7--8-------------8-7-----8--7--3---3-------1---1---|


1
--------------------------------------------------------------------------|
--------------------------------------------------------------------------|
-----------------------------------------------5-----7-----9------10------|
-10-9-7-9-7~---10-9-7-9----------10-9-7-9-7~------7-----9-----10------12--|
------------------------10~-----------------------------------------------|
--------------------------------------------------------------------------|
2
---------------------------------------------------------------------------|
---------------------------------------------------------------------------|
---------------------------------------------------------------------------|
-7-------------7-----------------5-----------------------------------------|
-7-------------7-----------------5-----------------------------------------|
-------8-10----------8--7--8-------------8-7-----8--7--3---3-------1---1---|






1
-10-----7-----7---12-----7-----7---14-----7-----7---10-----7-----7---|
----0-0---0-0---0----0-0---0-0---0----0-0---0-0---0----0-0---0-0---0-|
---------------------------------------------------------------------|
---------------------------------------------------------------------|
---------------------------------------------------------------------|
---------------------------------------------------------------------|
2
-----------------------------------------------------------------|
-----------------------------------------------------------------|
-----------------------------------------------------------------|
-5-----5---5-----4-----4---4------4------4---4-----4------4---4--|
-5-----5---5-----4-----4---4------2------2---2-----2------2---2--|
-----------------------------------------------------------------|


1
-10-----7-----7---12-----7-----7---14-----7-----7---10-----7-----7---|
----0-0---0-0---0----0-0---0-0---0----0-0---0-0---0----0-0---0-0---0-|
---------------------------------------------------------------------|
---------------------------------------------------------------------|
---------------------------------------------------------------------|
---------------------------------------------------------------------|
2
-----------------------------------------------------------------|
-----------------------------------------------------------------|
-----------------------------------------------------------------|
-5-----5---5-----4-----4---4------4------4---4-----4------4---4--|
-5-----5---5-----4-----4---4------2------2---2-----2------2---2--|
-----------------------------------------------------------------|



1
-10\7---7-----7/12-12\7----7-----7/14-14\7---7-----7/14-14\7---7-----7/10-|
------0---0-0-----------0----0-0-----------0---0-0-----------0---0-0------|
--------------------------------------------------------------------------|
--------------------------------------------------------------------------|
--------------------------------------------------------------------------|
--------------------------------------------------------------------------|
2
-----------------------------------------------------------------|
-----------------------------------------------------------------|
-----------------------------------------------------------------|
-5-----5---5-----4-----4---4------4------4---4-----4------4---4--|
-5-----5---5-----4-----4---4------2------2---2-----2------2---2--|
-----------------------------------------------------------------|

1
-10\7---7-----7/12-12\7----7-----7/14-14\7---7-----7/14-14\7---7-----7/10-|
------0---0-0-----------0----0-0-----------0---0-0-----------0---0-0------|
--------------------------------------------------------------------------|
--------------------------------------------------------------------------|
--------------------------------------------------------------------------|
--------------------------------------------------------------------------|
2
-----------------------------------------------------------------|
-----------------------------------------------------------------|
-----------------------------------------------------------------|
-5-----5---5-----4-----4---4------4------4---4-----4------4---4--|
-5-----5---5-----4-----4---4------2------2---2-----2------2---2--|
-----------------------------------------------------------------|






---------------------------------------------------------------------------|
---------------------------------------------------------------------------|
-14-----14-----14---13-----13-----13--11-----11-----11-----9---10---9---7-9|
-12-----12-----12---11-----11-----11---9------9------9-------7----7---7----|
-12-----12-----12---11-----11-----11---9------9------9---------------------|
----0-0----0-0----0----0-0----0-0----0---0-0-----0-0----0------------------|
    * *    * *    *    * *    * *    *   * *     * *    *

---------------------------------------------------------------------------|
---------------------------------------------------------------------------|
-14-----14-----14---13-----13-----13--11-----11-----11-----9---10---9---7-9|
-12-----12-----12---11-----11-----11---9------9------9-------7----7---7----|
-12-----12-----12---11-----11-----11---9------9------9---------------------|
----0-0----0-0----0----0-0----0-0----0---0-0-----0-0----0------------------|
    * *    * *    *    * *    * *    *   * *     * *    *
---------------------------------------------------------------------------|
---------------------------------------------------------------------------|
-14-----14-----14---13-----13-----13--11-----11-----11-----9---10---9---7-9|
-12-----12-----12---11-----11-----11---9------9------9-------7----7---7----|
-12-----12-----12---11-----11-----11---9------9------9---------------------|
----0-0----0-0----0----0-0----0-0----0---0-0-----0-0----0------------------|
    * *    * *    *    * *    * *    *   * *     * *    *
---------------------------------------------------------------------------|
---------------------------------------------------------------------------|
-14-----14-----14---13-----13-----13--11-----11-----11-----9---10---9---7-9|
-12-----12-----12---11-----11-----11---9------9------9-------7----7---7----|
-12-----12-----12---11-----11-----11---9------9------9---------------------|
----0-0----0-0----0----0-0----0-0----0---0-0-----0-0----0------------------|
    * *    * *    *    * *    * *    *   * *     * *    *


1
--------------------------------------------------------------------------|
--------------------------------------------------------------------------|
-----------------------------------------------5-----7-----9------10------|
-10-9-7-9-7~---10-9-7-9----------10-9-7-9-7~------7-----9-----10------12--|
------------------------10~-----------------------------------------------|
--------------------------------------------------------------------------|
2
---------------------------------------------------------------------------|
---------------------------------------------------------------------------|
---------------------------------------------------------------------------|
-7-------------7-----------------5-----------------------------------------|
-7-------------7-----------------5-----------------------------------------|
-------8-10----------8--7--8-------------8-7-----8--7--3---3-------1---1---|







1
--------------------------------------------------------------------------|
-----------------------------------------------------13-/14-14/16-\13-13--|
------14-----14-----------------13-14--13-14--13--14----------------------|
-11------11-----11-----11----11-------------------------------------------|
--------------------14-----14---------------------------------------------|
--------------------------------------------------------------------------|
2
-------------------------------------------------------------------------|
-5---7--5---7-5-4---5-4---7--5--------4------5--4------------------------|
--------------------------------6--------6----------5-/6-6-/8-8-/9-9-----|
-------------------------------------------------------------------------|
-------------------------------------------------------------------------|
-------------------------------------------------------------------------|





------------------------------------------------------------|
------------------------------------------------------------|
------------------------------------------------------------|
------------------------------------------------------------|
-----7----7---7-6---6-7--4-----4----4-----------------------|
--9----9----9-----7---------5-----5---5--4--2--4--2--0--2---|

------------------------------------------------------------|
------------------------------------------------------------|
------------------------------------------------------------|
------------------------------------------------------------|
-----7----7---7-6---6-7--4-----4----4-----------------------|
--9----9----9-----7---------5-----5---5--4--2--4--2--0--2---|



1
--------------------------------------------------------------------------|
-----------------------------------------------------13-/14-14/16-\13-13--|
------14-----14-----------------13-14--13-14--13--14----------------------|
-11------11-----11-----11----11-------------------------------------------|
--------------------14-----14---------------------------------------------|
--------------------------------------------------------------------------|
2
-------------------------------------------------------------------------|
-5---7--5---7-5-4---5-4---7--5--------4------5--4------------------------|
--------------------------------6--------6----------5-/6-6-/8-8-/9-9-----|
-------------------------------------------------------------------------|
-------------------------------------------------------------------------|
-------------------------------------------------------------------------|




------------------------------------------------------------------|
------------------------------------------------------------------|
------------------------------------------------------------------|
------------------------------------------------------------------|
---------7777--------7777----777766666666----66666666----66667777-|
-99999999----99999999----9999------------7777--------7777---------|

------------------------------------------------------------------|
------------------------------------------------------------------|
------------------------------------------------------------------|
------------------------------------------------------------------|
---------7777--------7777----777766666666----66666666----66667777-|
-99999999----99999999----9999------------7777--------7777---------|






SOLO
1


------------------------------------------------------------------------|
---)-----)-----)-----)-----)--------)---)---)---)---)---)---)^----------|
--5-----5-----5-----5-----5--------5---5---5---5---5---5---5--4---^-----|
-----------------------------------------------------------------5-4-5~~|
------------------------------------------------------------------------|
------------------------------------------------------------------------|  

-----------------------------------------------------------------|
-----------------------------------5-------5---5-------5---5-----|
-7-6-4-6-7-6-4-6-7-6-4-6-7-6-4-6-----6-5-6---6---6-5-6---6---6---|
-----------------------------------------------------------------|
-----------------------------------------------------------------|
-----------------------------------------------------------------|


---------------------------------------|
------7-------7--------9---------9-----|
--7-9---9-7-9---9-9-11---11-9-11---11--|
---------------------------------------|
---------------------------------------|
---------------------------------------|


---------------------------------------------------|
-------10----------10---------12-------12----------|
-11-13----13-11-13---13-11-13----13-12----13-12-13-|
---------------------------------------------------|
---------------------------------------------------|
----------------------------------------------------|



------------------------------------------------|
-14-10---10-14-10-14-10----10-14-10-14-10---10--|
-------11---------------11----------------11----|
------------------------------------------------|
------------------------------------------------|
------------------------------------------------|

-------------------------------------------|
-12-9----9-12-9-12-9----9-12-9-12-9----9---|
------11-------------11-------------11-----|
-------------------------------------------|
-------------------------------------------|
-------------------------------------------|


--------------------------------------------------------------------|
10-9---9-10-9-10-9--9-10-9-10-9--9-12-9--9-10-9--9-12-9--9-10-9--9--|
----11------------11-----------11------11------11------11------11---|
--------------------------------------------------------------------|
--------------------------------------------------------------------|
--------------------------------------------------------------------|


SPH)(^------------------------------------|
-12---10-----------9--10---12-------------|
---------11~~-------------------9---------|
--------sph-------------------------------|
------------------------------------------|
------------------------------------------|


---------5------------------------------------------------SPH-)()(-|
-7-5---5---7-5-7-5--7-5-7-5---5-8-5---5-10-7---7-12-9----9-12------|
-----6----------------------6-------7--------9--------11-----------|
-------------------------------------------------------------------|
-------------------------------------------------------------------|
-------------------------------------------------------------------|



2nd
---------------------------------------------|
---------------------------------------------|
---------------------------------------------|
---------9-11-9---------------9-11-9----12---|
-9-11-12--------12-11-9-11-12--------11------|
---------------------------------------------|


--------------------------------------------------|
-------------------------------10-12-14-12-10-----|
----------11-13-11-------11-13----------------11--|
-11-13-14----------14-11--------------------------|
--------------------------------------------------|
--------------------------------------------------|


----------------------------------12-14---------|
-------10-12-14-10-14-10-10-12-14-------14/17---|
-11-13------------------------------------------|
------------------------------------------------|
------------------------------------------------|
------------------------------------------------|


-----------------------------------17-21-19-17------|
----------17-19-17----19--17-19-21-------------21---|
-16-18-19----------19-------------------------------|
----------------------------------------------------|
----------------------------------------------------|
----------------------------------------------------|


-21-19------21-19-------21-19-------21-19-----------|
-------22-9-------22-19-------22-19-------22-19-----|
----------------------------------------------------|
----------------------------------------------------|
----------------------------------------------------|
----------------------------------------------------|

-24-19------24-19-------24-19-------24-19----------|
------22-19-------22-19-------22-19-------22-19----|
---------------------------------------------------|
---------------------------------------------------|
---------------------------------------------------|
---------------------------------------------------|


   ) (     ) (     ) (     ) (    )( )( )
-24------24------24------24-----24--------|
------------------------------------------|
------------------------------------------|
------------------------------------------|
------------------------------------------|
------------------------------------------|


   ) (
-24----21-24-22-21--19-22-21-19----21-19-------19-------|
---------------------------------22-----22---21---22-21-|
--------------------------------------------------------|
--------------------------------------------------------|
--------------------------------------------------------|
--------------------------------------------------------|
                 __
                /  \           ^     
----------19--19-21-19-------21-19--------|
-19-21-22--------------22-19-------22-21--|
------------------------------------------|
------------------------------------------|
------------------------------------------|
------------------------------------------|

-------------------------------------------------------|
-22-21-21-22-21-19--17-21-19-17--15-19-17-15-----------|
---------------------------------------------18-16~----|
-------------------------------------------------------|
-------------------------------------------------------|
-------------------------------------------------------|

        __             
       /  \           /\
-----16-17-16-------141614--------|
---17---------19-17--------17-15--|
-19-------------------------------|
----------------------------------|
----------------------------------|
----------------------------------|



-14------------------------------------------------------|
----17-15-17-15-14----15-14------14-15-14----15-17-15-14-|
-------------------16------16-14----------16-------------|
---------------------------------------------------------|
---------------------------------------------------------|
---------------------------------------------------------|

-------------------------------------------------|
----17-15-14-17-15-14---15-14-------14-----------|
-16------------------16------16-14----16--14-16~~|
-------------------------------------------------|
-------------------------------------------------|
-------------------------------------------------|



----------_______----------------------|
--------)/       \---------------------|
-11---13------11-----11~~~-------------|
-----------------14--------------------|
---------------------------------------|
---------------------------------------|

   
  /\        /\
-9109----9-9109----9-10-9----9-12-9----9--|
------12--------12--------12--------12----|
------------------------------------------|
------------------------------------------|
------------------------------------------|
------------------------------------------|

   /\      
-101210---10-14-10---10-16-14---14-17-14----14---|
--------12--------12---------17----------17------|
-------------------------------------------------|
-------------------------------------------------|
-------------------------------------------------|
-------------------------------------------------|


   ^
-19-17----17-19-17-----19-21-19----19-21-19--------|
-------19----------19-----------21----------21-----|
---------------------------------------------------|
---------------------------------------------------|
---------------------------------------------------|
---------------------------------------------------|

                                          ) ( ) (
-19-22-19----19-22-19----21-24-21----21-24--------|
----------22----------22----------24--------------|
--------------------------------------------------|
--------------------------------------------------|
--------------------------------------------------|
--------------------------------------------------|


-21-24-22-21--19-22-21-19----21-19------19--------|
--------------------------22------22--21--22-21---|
--------------------------------------------------|
--------------------------------------------------|
--------------------------------------------------|
--------------------------------------------------|

----------------------------------------|
-19-22-21-19--17-21-19-17--15-19-17-15--|
----------------------------------------|
----------------------------------------|
----------------------------------------|
----------------------------------------|

--------------------------------------------------------------|
-14-17-15-14-----15-14------14--------------------------------|
--------------16------16--14--16-14--13-16-14-13--11-14-13-11-|
--------------------------------------------------------------|
--------------------------------------------------------------|
--------------------------------------------------------------|


----_____--------------------------------------------------|
---)-------------------------------------------------------|
-13------11~---------13~-----------14~---------------------|
-----------------------------------------------------------|
-----------------------------------------------------------|
-----------------------------------------------------------|
comments
We did not receive enough feedback on this tab! Please rate:
print report bad tab
1 2 3 4 5
1 comment total.
0 reply
andherembrace wrote on March 24 2011, 02:05 pm

10th note of Riff E is on 3rd string not 2nd ,sorry

I want to post or [tab]
guest
You may want to rate the tab now too:
select rating
Please do not post tabs as comments. Select "correction" instead!