Oops, an error
Loading. Please wait.

Frost On Her Pillow Tab

ver1
ver1

Whole song

Interactive

More versions @911Tabs.com
1,005 views 1 this week
no commentswrite comment
1 2 3 4 5
excellent!
x 1
add to favorites launch autoscroll
font size
0
reset
Autoscroll
+/-
esc
set tempo
stop
Contributor
Difficulty
Tuning
intermediate
D G C F A D
WARNING: You are trying to view
                                    content from Ultimate-Guitar.com
                                    in an unauthorized application,
                                    which is prohibited.

                                    Please use an official Ultimate
                                    Guitar Tabs application for iPhone,
                                    iPad or Android to access legitimate
                                    chords, guitar, bass, and drum tabs
                                    from Ultimate-Guitar.com database.

                                    Type "ultimate guitar tabs" in Apple
                                    App Store's or Android Market's
                                    search to find the application.
Cradle Of Filth

Frost On Her Pillow

dgcfad

proof that this tab is accurate

https://www.facebook.com/photo.php?v=520712721273396&set=vb.100000040195827&type=2&theater


Tabbed by andherembrace




0:23

--------------------------------------------------------------------|
--------------------------------------------------------------------|
--------------------------------------------------------------------|
---------9----------7-5-4-----4-----2-2-2-2-4-4-5-5-----------------|
-2------/7-4---5----5-3-2-----2-----0-0-0-0-2-2-3-3-5-5-5-5-7-7-7-7-|
-0---------2---3----5-3-2-----2---------------------3-3-3-3-5-5-5-5-|
                                    * * * * * * * * * * * * * * * * 


0:35

MELODY                                                 _
------------------------------------------------------/ \-------------|
-10-----8---------10-----8---------12-----10---8-----7-8-7---7--------|
----9-9----9-11-9----9-9----9-11-9----9-9----9---9---------9---9-7-5-4|
----------------------------------------------------------------------|
----------------------------------------------------------------------|
----------------------------------------------------------------------|
RYTHM
----------------------------------------------------------------------|
----------------------------------------------------------------------|
----------------------------------------------------------------------|
-------------------------------9-------------------------------7---5--|
-2----------------------------/7-4----------------------5------5---3--|
-0-------------------------------2----------------------3------5---3--|
    
   
0:41
                          
MELODY                                                     __
----------------------------------------------------------/  \-------|
-5----7---5---8----7---5-------------------/13-12-10-12-10-12-10-----|
---44---4---4---44---4---4--5-4-5--7--5--4----------------------12-11|
---------------------------------------------------------------------|
---------------------------------------------------------------------|
---------------------------------------------------------------------|
RYTHM
--------------------------------------------------------------------|
--------------------------------------------------------------------|
--------------------------------------------------------------------|
-4----------------------------2--2--2--2--4--4--5--5----------------|
-2----------------------------0--0--0--0--2--2--3--3-5-5-5-5-7-7-7-7|
-2---------------------------------------------------3-3-3-3-5-5-5-5|
                              *  *  *  *  *  *  *  * * * * * * * * *


0:47

MELODY                                                 _
------------------------------------------------------/ \-------------|
-10-----8---------10-----8---------12-----10---8-----7-8-7---7--------|
----9-9----9-11-9----9-9----9-11-9----9-9----9---9---------9---9-7-5-4|
----------------------------------------------------------------------|
----------------------------------------------------------------------|
----------------------------------------------------------------------|
RYTHM
----------------------------------------------------------------------|
----------------------------------------------------------------------|
----------------------------------------------------------------------|
-------------------------------9-------------------------------7---5--|
-2----------------------------/7-4----------------------5------5---3--|
-0-------------------------------2----------------------3------5---3--|
    
   
0:53
                          
MELODY                                                     __
----------------------------------------------------------/  \-------|
-5----7---5---8----7---5-------------------/13-12-10-12-10-12-10-----|
---44---4---4---44---4---4--5-4-5--7--5--4----------------------12-11|
---------------------------------------------------------------------|
---------------------------------------------------------------------|
---------------------------------------------------------------------|
RYTHM
--------------------------------------------------------------------|
--------------------------------------------------------------------|
--------------------------------------------------------------------|
-4----------------------------2--2--2--2--4--4--5--5----------------|
-2----------------------------0--0--0--0--2--2--3--3-5-5-5-5-7-7-7-7|
-2---------------------------------------------------3-3-3-3-5-5-5-5|
                              *  *  *  *  *  *  *  * * * * * * * * *




0:59

-----------------------------------------------|
-----------------------------------------------|
-----------------------------------------------|
-----------------------------------------------|
----7--9--10-----5-7-5-----10-12-10--9-10-9----|
-0---------------------------------------------|

-----------------------------------------------|
-----------------------------------------------|
-----------------------------------------------|
-----------------------------9-10-9--7-9-7-----|
----7--9--10-----9-7-9-------------------------|
-0---------------------------------------------|


1:11

-----------------------------------------------|
-----------------------------------------------|
-----------------------------------------------|
-----------------------------------------------|
----7--9--10-----5-7-5-----10-12-10--9-10-9----|
-0---------------------------------------------|

-----------------------------------------------|
-----------------------------------------------|
-----------------------------------------------|
-----------------------------9-10-9--7-9-7-----|
----7--9--10-----9-7-9-------------------------|
-0---------------------------------------------|


1:23

-----------------------------------------------|
-----------------------------------------------|
-----------------------------------------------|
-----------------------------------------------|
----7--9--10-----5-7-5-----10-12-10--9-10-9----|
-0---------------------------------------------|

-----------------------------------------------|
-----------------------------------------------|
-----------------------------------------------|
-----------------------------9-10-9--7-9-7-----|
----7--9--10-----9-7-9-------------------------|
-0---------------------------------------------|



1:35

MELODY                                                 _
------------------------------------------------------/ \-------------|
-10-----8---------10-----8---------12-----10---8-----7-8-7---7--------|
----9-9----9-11-9----9-9----9-11-9----9-9----9---9---------9---9-7-5-4|
----------------------------------------------------------------------|
----------------------------------------------------------------------|
----------------------------------------------------------------------|
RYTHM
----------------------------------------------------------------------|
----------------------------------------------------------------------|
----------------------------------------------------------------------|
-------------------------------9-------------------------------7---5--|
-2----------------------------/7-4----------------------5------5---3--|
-0-------------------------------2----------------------3------5---3--|
 
   
1:41    
                        
MELODY                                                     __
----------------------------------------------------------/  \-------|
-5----7---5---8----7---5-------------------/13-12-10-12-10-12-10-----|
---44---4---4---44---4---4--5-4-5--7--5--4----------------------12-11|
---------------------------------------------------------------------|
---------------------------------------------------------------------|
---------------------------------------------------------------------|
RYTHM
--------------------------------------------------------------------|
--------------------------------------------------------------------|
--------------------------------------------------------------------|
-4----------------------------2--2--2--2--4--4--5--5----------------|
-2----------------------------0--0--0--0--2--2--3--3-5-5-5-5-7-7-7-7|
-2---------------------------------------------------3-3-3-3-5-5-5-5|
                              *  *  *  *  *  *  *  * * * * * * * * *

1:47

MELODY                                                 _
------------------------------------------------------/ \-------------|
-10-----8---------10-----8---------12-----10---8-----7-8-7---7--------|
----9-9----9-11-9----9-9----9-11-9----9-9----9---9---------9---9-7-5-4|
----------------------------------------------------------------------|
----------------------------------------------------------------------|
----------------------------------------------------------------------|
RYTHM
----------------------------------------------------------------------|
----------------------------------------------------------------------|
----------------------------------------------------------------------|
-------------------------------9-------------------------------7---5--|
-2----------------------------/7-4----------------------5------5---3--|
-0-------------------------------2----------------------3------5---3--|
    

1:53    
                         
MELODY                                                     __
----------------------------------------------------------/  \-------|
-5----7---5---8----7---5-------------------/13-12-10-12-10-12-10-----|
---44---4---4---44---4---4--5-4-5--7--5--4----------------------12-11|
---------------------------------------------------------------------|
---------------------------------------------------------------------|
---------------------------------------------------------------------|
RYTHM
--------------------------------------------------------------------|
--------------------------------------------------------------------|
--------------------------------------------------------------------|
-4----------------------------2--2--2--2--4--4--5--5----------------|
-2----------------------------0--0--0--0--2--2--3--3-5-5-5-5-7-7-7-7|
-2---------------------------------------------------3-3-3-3-5-5-5-5|
                              *  *  *  *  *  *  *  * * * * * * * * *



1:59

-----------------------------------------------|
-----------------------------------------------|
-----------------------------------------------|
-----------------------------------------------|
----7--9--10-----5-7-5-----10-12-10--9-10-9----|
-0---------------------------------------------|

-----------------------------------------------|
-----------------------------------------------|
-----------------------------------------------|
-----------------------------9-10-9--7-9-7-----|
----7--9--10-----9-7-9-------------------------|
-0---------------------------------------------|


2:11
-----------------------------------------------|
-----------------------------------------------|
-----------------------------------------------|
-----------------------------------------------|
----7--9--10-----5-7-5-----10-12-10--9-10-9----|
-0---------------------------------------------|

-----------------------------------------------|
-----------------------------------------------|
-----------------------------------------------|
-----------------------------9-10-9--7-9-7-----|
----7--9--10-----9-7-9-------------------------|
-0---------------------------------------------|


2:23
-----------------------------------------------|
-----------------------------------------------|
-----------------------------------------------|
-----------------------------------------------|
----7--9--10-----5-7-5-----10-12-10--9-10-9----|
-0---------------------------------------------|

-----------------------------------------------|
-----------------------------------------------|
-----------------------------------------------|
-----------------------------9-10-9--7-9-7-----|
----7--9--10-----9-7-9-------------------------|
-0---------------------------------------------|



2:35


------------------------------------------------|
------------------------------------------------|
-/9~~---9/12-11~------12-11------9-11-9---------|
----------------------------------------10-9~---|
------------------------------------------------|
------------------------------------------------|


2:43
                               ____________
                              /            \
----------------------------12/15-17-19-17-15\12----|
--------------------------13------------------------|
----9-11-12-11-------\-/14--------------------------|
-12-------------------------------------------------|
----------------------------------------------------|
----------------------------------------------------|

2:47
                                                                  __
SOLO CONT.                                                       /  \
-------------------------------/15\14-------------------15-14--14-15-14|
-----------------------------------------------------------------------|
-----------------------------------------------------------------------|
-----------------------------------------------------------------------|
-----------------------------------------------------------------------|
-----------------------------------------------------------------------|
RYTHM
----------------------------------------------------------------------|
----------------------------------------------------------------------|
----------------------------------------------------------------------|
-------------------------------9-------------------------------7---5--|
-2----------------------------/7-4----------------------5------5---3--|
-0-------------------------------2----------------------3------5---3--|
    

2:53

SOLO CONT.

-\12-----------------------12-14-15-17-19--17-19-20--19-20-22/24-24-|
--------------------------------------------------------------------|
--------------------------------------------------------------------|
--------------------------------------------------------------------|
--------------------------------------------------------------------|
--------------------------------------------------------------------|
RYTHM
--------------------------------------------------------------------|
--------------------------------------------------------------------|
--------------------------------------------------------------------|
-4-------------------------4----4----4----5----4----2----4----4-----|
-2-------------------------2----2----2----3----2----0----2----2-----|
-2------------------------------------------------------------------|
                              

2:59

MELODY                                                 _
------------------------------------------------------/ \-------------|
-10-----8---------10-----8---------12-----10---8-----7-8-7---7--------|
----9-9----9-11-9----9-9----9-11-9----9-9----9---9---------9---9-7-5-4|
----------------------------------------------------------------------|
----------------------------------------------------------------------|
----------------------------------------------------------------------|
RYTHM
----------------------------------------------------------------------|
----------------------------------------------------------------------|
----------------------------------------------------------------------|
-------------------------------9-------------------------------7---5--|
-2----------------------------/7-4----------------------5------5---3--|
-0-------------------------------2----------------------3------5---3--|
    

3:05                             
MELODY                                                     __
----------------------------------------------------------/  \-------|
-5----7---5---8----7---5-------------------/13-12-10-12-10-12-10-----|
---44---4---4---44---4---4--5-4-5--7--5--4----------------------12-11|
---------------------------------------------------------------------|
---------------------------------------------------------------------|
---------------------------------------------------------------------|
RYTHM
--------------------------------------------------------------------|
--------------------------------------------------------------------|
--------------------------------------------------------------------|
-4----------------------------2--2--2--2--4--4--5--5----------------|
-2----------------------------0--0--0--0--2--2--3--3-5-5-5-5-7-7-7-7|
-2---------------------------------------------------3-3-3-3-5-5-5-5|
                              *  *  *  *  *  *  *  * 



3:11

---------------------------------------------------------------------|
---------------------------------------------------------------------|
---------------------------------------------------------------------|
---------------------------------7-7-7-7-7-7-7-7-7-9-7-9-11-11-11-11-|
-2-2-2-2-4-4-5-5-5-5-5-5-5-5-5-5-5-5-5-5-5-5-5-5-5-7-5-7--9--9--9--9-|
-0-0-0-0-2-2-3-3-3-3-3-3-3-3-3-3-5-5-5-5-5-5-5-5-5-7-5-7--9--9--9--9-|


3:17
------------------------------------------------------------------|
------------------------------------------------------------------|
------------------------------------------------------------------|
-------------------------------------------------10-9-9-9-7-7-7-7-|
-2-2-2-2-4-4-5-5-5-5-5-5-5-5-5-5-4-4-4-4-4-4-4-4--x-x-x-x-x-x-x-x-|
-0-0-0-0-2-2-3-3-3-3-3-3-3-3-3-3-2-2-2-2-2-2-2-2--8-7-7-7-5-5-5-5-|



---------------------------------------------------------------------|
---------------------------------------------------------------------|
---------------------------------------------------------------------|
---------------------------------7-7-7-7-7-7-7-7-7-9-7-9-11-11-11-11-|
-2-2-2-2-4-4-5-5-5-5-5-5-5-5-5-5-5-5-5-5-5-5-5-5-5-7-5-7--9--9--9--9-|
-0-0-0-0-2-2-3-3-3-3-3-3-3-3-3-3-5-5-5-5-5-5-5-5-5-7-5-7--9--9--9--9-|


------------------------------------------------------------------|
------------------------------------------------------------------|
------------------------------------------------------------------|
-------------------------------------------------10-9-9-9-7-7-7-7-|
-2-2-2-2-4-4-5-5-5-5-5-5-5-5-5-5-4-4-4-4-4-4-4-4--x-x-x-x-x-x-x-x-|
-0-0-0-0-2-2-3-3-3-3-3-3-3-3-3-3-2-2-2-2-2-2-2-2--8-7-7-7-5-5-5-5-|




MELODY                                                 _
------------------------------------------------------/ \-------------|
-10-----8---------10-----8---------12-----10---8-----7-8-7---7--------|
----9-9----9-11-9----9-9----9-11-9----9-9----9---9---------9---9-7-5-4|
----------------------------------------------------------------------|
----------------------------------------------------------------------|
----------------------------------------------------------------------|
RYTHM
----------------------------------------------------------------------|
----------------------------------------------------------------------|
----------------------------------------------------------------------|
-------------------------------9-------------------------------7---5--|
-2----------------------------/7-4----------------------5------5---3--|
-0-------------------------------2----------------------3------5---3--|
    
                             
MELODY                                                     __
----------------------------------------------------------/  \-------|
-5----7---5---8----7---5-------------------/13-12-10-12-10-12-10-----|
---44---4---4---44---4---4--5-4-5--7--5--4----------------------12-11|
---------------------------------------------------------------------|
---------------------------------------------------------------------|
---------------------------------------------------------------------|
RYTHM
--------------------------------------------------------------------|
--------------------------------------------------------------------|
--------------------------------------------------------------------|
-4----------------------------2--2--2--2--4--4--5--5----------------|
-2----------------------------0--0--0--0--2--2--3--3-5-5-5-5-7-7-7-7|
-2---------------------------------------------------3-3-3-3-5-5-5-5|
                              *  *  *  *  *  *  *  * * * * * * * * *

MELODY                                                 _
------------------------------------------------------/ \-------------|
-10-----8---------10-----8---------12-----10---8-----7-8-7---7--------|
----9-9----9-11-9----9-9----9-11-9----9-9----9---9---------9---9-7-5-4|
----------------------------------------------------------------------|
----------------------------------------------------------------------|
----------------------------------------------------------------------|
RYTHM
----------------------------------------------------------------------|
----------------------------------------------------------------------|
----------------------------------------------------------------------|
-------------------------------9-------------------------------7---5--|
-2----------------------------/7-4----------------------5------5---3--|
-0-------------------------------2----------------------3------5---3--|
    
                             
MELODY                                                     __
----------------------------------------------------------/  \---------|
-5----7---5---8----7---5-------------------/13-12-10-12-10-12-10-------|
---44---4---4---44---4---4--5-4-5--7--5--4----------------------12-11-9|
-----------------------------------------------------------------------|
-----------------------------------------------------------------------|
-----------------------------------------------------------------------|
RYTHM
-----------------------------------------------------------------------|
-----------------------------------------------------------------------|
-----------------------------------------------------------------------|
-4----------------------------2--2--2--2--4--4--5--5-------------------|
-2----------------------------0--0--0--0--2--2--3--3-5-5-5-5-7-7-7-7-2-|
-2---------------------------------------------------3-3-3-3-5-5-5-5-0-|
                              *  *  *  *  *  *  *  * * * * * * * * *
comments
We did not receive enough feedback on this tab! Please rate:
print report bad tab
1 2 3 4 5
I want to post or [tab]
guest
You may want to rate the tab now too:
select rating
Please do not post tabs as comments. Select "correction" instead!