Oops, an error
Loading. Please wait.

Godspeed On The Devils Thunder Tab

ver1
ver1

Album

Whole song

More versions @911Tabs.com
4,037 views 9 this week
2 commentsread comments
1 2 3 4 5
excellent!
x 2
Autoscroll
+/-
esc
set tempo
stop
Contributor
Hey! There's an official Ultimate Guitar app which is ideal
for learning songs when you're away from computer. Get the app
WARNING: You are trying to view
                                    content from Ultimate-Guitar.com
                                    in an unauthorized application,
                                    which is prohibited.

                                    Please use an official Ultimate
                                    Guitar Tabs application for iPhone,
                                    iPad or Android to access legitimate
                                    chords, guitar, bass, and drum tabs
                                    from Ultimate-Guitar.com database.

                                    Type "ultimate guitar tabs" in Apple
                                    App Store's or Android Market's
                                    search to find the application.
Cradle Of Filth Godspeed On The Devils Thunder Tuning DGCFAD
2.Shat Out Of Hell
Gtr I (D G C F A D) - 'Guitar I'
Gtr II (D G C F A D) - 'Guitar II' <- I don't see the poin in this bit 'coz both 
guitars do the same thing all the way through

   Intro
    Q=225
   4/4
    Gtrs I, II
    TP   TP TP    TP  TP TP TP   TP   TPTP  TP     TP  TP  TP TP
    H    Q  Q    +Q   Q  Q  Q    Q.   E Q   Q     +Q   Q   Q  Q
||-------------|---------------|---------------|-----------------|
||o------------|---------------|---------------|-----------------|
||-------------|---------------|---------------|-----------------|
||-------------|---------------|---------------|-----------------|
||o------7--6--|-(6)-----6--7--|-9----7-9--10--|-(10)--9---------|
||--0----------|------7--------|---------------|----------10--7--|


  TP   TP TP    TP  TP TP TP   TP   TPTP  TP     TP  TP  TP  TP
  H    Q  Q    +Q   Q  Q  Q    Q.   E Q   Q     +Q   Q   Q   Q
|------------|---------------|---------------|-------------------||
|------------|---------------|---------------|------------------o||
|------------|---------------|---------------|-------------------||
|------------|---------------|---------------|-------------------||
|------7--6--|-(6)-----6--7--|-9----7-9--10--|-(10)--9--10--12--o||
|-0----------|------7--------|---------------|-------------------||


   Verse
     H.       E  E    Q  Q   Q  Q    H.      E E   Q  Q  Q  Q
||-----------------|---------------|-------------|------------|
||o----------------|---------------|-------------|------------|
||-----------------|---------------|-------------|------------|
||--11-------10-11-|-10--7--10--7--|-6-------7-6-|-7--6-------|
||o--9--------8--9-|--8--5---8--5--|-4-------5-4-|-5--4--6--5-|
||-----------------|---------------|-------------|-------4--3-|


   H.       E  E    Q  Q   Q  Q    H.      E E   Q   Q  Q   Q
|----------------|---------------|-------------|----------------||
|----------------|---------------|-------------|---------------o||
|----------------|---------------|-------------|----------------||
|-11-------10-11-|-10--7--10--7--|-6-------7-6-|-7--10--7--10---||
|--9--------8--9-|--8--5---8--5--|-4-------5-4-|-5---8--5---8--o||
|----------------|---------------|-------------|----------------||


   Pre-Chorus
    H.      E E   Q  Q  Q  Q    H.      E E   Q  Q  Q  Q  4x
||--------------|-------------|-------------|-------------||
||o-------------|-------------|-------------|------------o||
||--------------|-------------|-------------|-------------||
||--------------|-------------|-7-------6-7-|-6-----------||
||o-4-------3-4-|-3--4--6--4--|-5-------4-5-|-4--7--4--6-o||
||--2-------1-2-|-1--2--4--2--|-------------|----5--2--4--||


 Chorus
   TP       TP TP   TP       TP TP  TP         TP    TP TP
   H.       E  E    H.       E  E   W          H     Q  Q
|----------------|----------------|----------|-------------|
|----------------|----------------|----------|-------------|
|----------------|----------------|----------|-------------|
|----------------|----------------|----------|-------------|
|-14-------15-14-|-12-------14-12-|-8--------|-8----10--8--|
|----------------|----------------|----------|-------------|


   TP       TP TP   TP       TP TP   TP       TP TP   TP  TP  TP  TP
   H.       E  E    H.       E  E    H.       E  E    Q   Q   Q   Q
|----------------|----------------|----------------|-----------------|
|----------------|----------------|----------------|-----------------|
|----------------|----------------|----------------|-----------------|
|----------------|----------------|----------------|-----------------|
|-14-------15-14-|-12-------14-12-|-15-------14-15-|-14--17--15--14--|
|----------------|----------------|----------------|-----------------|


   TP       TP TP   TP       TP TP  TP         TP    TP TP
   H.       E  E    H.       E  E   W          H     Q  Q
|----------------|----------------|----------|-------------|
|----------------|----------------|----------|-------------|
|----------------|----------------|----------|-------------|
|----------------|----------------|----------|-------------|
|-14-------15-14-|-12-------14-12-|-8--------|-8----10--8--|
|----------------|----------------|----------|-------------|


   TP       TP TP   TP       TP TP   TP  TP  TP  TP    TP  TP  TP  TP
   H.       E  E    H.       E  E    Q   Q   Q   Q     Q   Q   Q   Q
|----------------|----------------|-----------------|-----------------|
|----------------|----------------|-----------------|-----------------|
|----------------|----------------|-----------------|-----------------|
|----------------|----------------|-----12--14------|-12--15--14------|
|-14-------15-14-|-12-------14-12-|-14----------15--|-------------15--|
|----------------|----------------|-----------------|-----------------|


   Breakdown
    PM------|                        PM----|            PM----|
    S S S S E E +H        W          S S S S Q  Q  Q    S S S S Q  Q  Q  4x
||----------------------|----------|------------------|------------------||
||o---------------------|----------|------------------|-----------------o||
||----------------------|----------|------------------|------------------||
||----------------------|----------|------------------|------------------||
||o-----------8-(8)\----|----------|---------8--6--8--|---------4--8--6-o||
||--7-7-7-7-7-6-(6)\----|----------|-7-7-7-7-6--4--6--|-3-3-3-3-2--6--4--||


                      PM------------|                     PM------------|
    W          +H     S S S S S S S S   W          +H     S S S S S S S S
||-----------|------------------------|----------|---------------------------||
||o----------|------------------------|----------|--------------------------o||
||-----------|------------------------|----------|---------------------------||
||-----------|------------------------|----------|---------------------------||
||o-4--------|-(4)--------------------|-4--------|-(4)----------------------o||
||--2--------|-(2)----3-3-3-3-3-3-3-3-|-2--------|-(2)----3-3-3-3-3-3-3-3----||


  E E E E E E E E   E E E E E E E E   E E E E E E E E   E E E E E E E E
|-----------------|-----------------|-----------------|-----------------|
|-----------------|-----------------|-----------------|-----------------|
|-----------------|-----------------|-----------------|-----------------|
|-6-6-6-6-6-6-6-6-|-6-6-6-6-6-6-6-6-|-5-5-5-5-5-5-5-5-|-5-5-5-5-5-5-5-5-|
|-4-4-4-4-4-4-4-4-|-4-4-4-4-4-4-4-4-|-3-3-3-3-3-3-3-3-|-3-3-3-3-3-3-3-3-|
|-----------------|-----------------|-----------------|-----------------|


  E E E E E E E E   E E E E E E E E   E E E E E E E E   Q  Q  Q  Q
|-----------------|-----------------|-----------------|-------------|
|-----------------|-----------------|-----------------|-------------|
|-----------------|-----------------|-----------------|-------------|
|-4-4-4-4-4-4-4-4-|-4-4-4-4-4-4-4-4-|-5-5-5-5-4-4-4-4-|-6--5--4--5--|
|-2-2-2-2-2-2-2-2-|-2-2-2-2-2-2-2-2-|-3-3-3-3-2-2-2-4-|-4--3--2--3--|
|-----------------|-----------------|-----------------|-------------|


                      PM------------|                     PM------------|
    W          +H     S S S S S S S S   W          +H     S S S S S S S S
||-----------|------------------------|----------|---------------------------||
||o----------|------------------------|----------|--------------------------o||
||-----------|------------------------|----------|---------------------------||
||-----------|------------------------|----------|---------------------------||
||o-4--------|-(4)--------------------|-4--------|-(4)----------------------o||
||--2--------|-(2)----3-3-3-3-3-3-3-3-|-2--------|-(2)----3-3-3-3-3-3-3-3----||


   Outro
    TP   TP TP    TP  TP TP TP   TP   TPTP  TP     TP  TP  TP TP
    H    Q  Q    +Q   Q  Q  Q    Q.   E Q   Q     +Q   Q   Q  Q
||-------------|---------------|---------------|----------------|
||o------------|---------------|---------------|----------------|
||-------------|---------------|---------------|----------------|
||-------------|---------------|---------------|----------------|
||o------7--6--|-(6)-----6--7--|-9----7-9--10--|-(10)--9--------|
||--0----------|------7--------|---------------|----------10--7-|


  TP   TP TP    TP  TP TP TP   TP   TPTP  TP     TP  TP  TP  TP
  H    Q  Q    +Q   Q  Q  Q    Q.   E Q   Q     +Q   Q   Q   Q
|------------|---------------|---------------|-------------------||
|------------|---------------|---------------|------------------o||
|------------|---------------|---------------|-------------------||
|------------|---------------|---------------|-------------------||
|------7--6--|-(6)-----6--7--|-9----7-9--10--|-(10)--9--10--12--o||
|-0----------|------7--------|---------------|-------------------||


    TP   TP TP    TP  TP TP TP   TP   TPTP  TP     TP  TP  TP TP
    H    Q  Q    +Q   Q  Q  Q    Q.   E Q   Q     +Q   Q   Q  Q
||-------------|---------------|---------------|----------------|
||o------------|---------------|---------------|----------------|
||-------------|---------------|---------------|----------------|
||-------7--6--|-(6)-----6--7--|-9----7-9--10--|-(10)--9--------|
||o-0----------|------7--------|---------------|----------10--7-|
||-------------|---------------|---------------|----------------|


  TP   TP TP    TP  TP TP TP   TP   TP    TP     TP  TP  TP  TP
  H    Q  Q    +Q   Q  Q  Q    Q.   E Q   Q     +Q   Q   Q   Q
|------------|---------------|---------------|-------------------||
|------------|---------------|---------------|------------------o||
|------------|---------------|---------------|-------------------||
|------7--6--|-(6)-----6--7--|-9----7-9--10--|-(10)--9--10--12---||
|-0----------|------7--------|---------------|------------------o||
|------------|---------------|---------------|-------------------||


  W
|-----------*|
|-----------*|
|-----------*|
|-----------*|
|-7\--------*|
|-5\--------*|

3.The Death Of Love
VERSE

Guitar One
D|-----------------------------------------------------------------|
A|-----------------------------------------------------------------|
F|-----------------------------------------------------------------|
C|-----------------------------------------------------------------|
G|-2---2---2---2---2---2---2---2---2---2---2---2---2---2---2---2---|
D|-0---0---0---0---0---0---0---0---0---0---0---0---0---0---0---0---|
   .   .   .   .   .   .   .   .   .   .   .   .   .   .   .   .       [2x]
Guitar Two
|-----------------------------------------------------------------|
|-----------------------------------------------------------------|
|-----------------------------------------------------------------|
|--------5----4----2-------(2)----5-4-2-------2-------(2)---------|
|-2----------------------------------------5----------------------|
|-----------------------------------------------------------------|

Guitar One
|-----------------------------------------------------------------|
|-----------------------------------------------------------------|
|-----------------------------------------------------------------|
|-5---5---5---5---5---5---5---5---5---5---5---5---5---5---5---5---|
|-3---3---3---3---3---3---3---3---3---3---3---3---3---3---3---3---|
|-----------------------------------------------------------------|

Guitar Two
|-----------------------------------------------------------------|
|-----------------------------------------------------------------|
|-----------------------------------------------------------------|
|--------7----5----4-------(4)----7-5-4----2--4-------(4)---------|
|-3---------------------------------------------------------------|
|-----------------------------------------------------------------|

both guitars
|-------------------------------------------------|
|-------------------------------------------------|
|-------------------------------------------------|
|-5-4-2-4-2---------------5-4-2-4-2---------------|
|-----------5-3-5-3-2-3-2-----------5-3-5-3-2-3-3-|
|-------------------------------------------------|

Guitar One
|-----------------------------------------------------------------|
|-----------------------------------------------------------------|
|-----------------------------------------------------------------|
|-----------------------------------------------------------------|
|-2---2---2---2---2---2---2---2---2---2---2---2---2---2---2---2---|
|-0---0---0---0---0---0---0---0---0---0---0---0---0---0---0---0---|
  .   .   .   .   .   .   .   .   .   .   .   .   .   .   .   .
                                                                      [2x]
Guitar Two
|-----------------------------------------------------------------|
|-5------7----5----3--------------5----3----2----3-------2--3--2--|
|-----------------------------------------------------------------|
|-----------------------------------------------------------------|
|-----------------------------------------------------------------|
|-----------------------------------------------------------------|

Guitar One
|-----------------------------------------------------------------|
|-----------------------------------------------------------------|
|-----------------------------------------------------------------|
|-5---5---5---5---5---5---5---5---5---5---5---5---5---5---5---5---|
|-3---3---3---3---3---3---3---3---3---3---3---3---3---3---3---3---|
|-----------------------------------------------------------------|

Guitar Two
|-/3------5------5------7/8----8^7----7-------5--------3----------|
|-----------------------------------------------------------------|
|-----------------------------------------------------------------|
|-----------------------------------------------------------------|
|-----------------------------------------------------------------|
|-----------------------------------------------------------------|

-both guitars
|-------------------------------------------------|
|-------------------------------------------------|
|-------------------------------------------------|
|-5-4-2-4-2---------------5-4-2-4-2---------------|
|-----------5-3-5-3-2-3-2-----------5-3-5-3-2-3-3-|
|-------------------------------------------------|

CHORUS

both guitars
|------------------------------------------------------------------|
|------------------------------------------------------------------|
|------------------------------------------------------------------|
|----------------------------------------------------4/5-5\4-4-(4)-|
|-5--4--2--2------2--2--2--5--4--2--2------4--5--7---2/3-3\2-2-(2)-|
|-3--2--0--0------0--0--0--3--2--0--0------2--3--5---0/1-1\0-0-(0)-|

both guitars (continued)
|---------------|
|---------------|
|---------------|  Guitar One repeats two more times while
|-5/7-7\5-5\4---|  Guitar Two does the following:
|-3/5-5\3-3\2---|
|-3/5-5\3-3\2---|

Guitar Two
|-3--2--0--0------0--0--0--3--2--0--0------2--33/55/7^88^77(7)-
|--------------------------------------------------------------
|--------------------------------------------------------------
|--------------------------------------------------------------
|--------------------------------------------------------------
|--------------------------------------------------------------

(continued)
-8^10-10^8-8^7-|
---------------|
---------------|
---------------|
---------------|
---------------|
INTERLUDE A

Guitar One
|--------------------------------------------------------------|
|--------------------------------------------------------------|
|--------------------------------------------------------------|
|--------------------------------------------------------------|
|-4---(4)--6-7-(7)-7-6-4-6-------------------------------------|
|--------------------------5-(5)-4^5^4-(4)-4^5^7-(7)-445-4-5-7-|

Guitar Two
|-0---(0)--2-0-(0)-4-2-0-2-0-(0)-2^0^2-(2)-4^2^4-(4)-245-4-2-4-|
|--------------------------------------------------------------|
|--------------------------------------------------------------|
|--------------------------------------------------------------|
|--------------------------------------------------------------|
|--------------------------------------------------------------|

INTERLUDE B

(break)

Guitar One
|--------------------------------------|
|---7-5-7-------------7-5-7-8--8^7^5-8-|
|-4-------4---------4------------------|
|--------------------------------------| 3x
|--------------------------------------|
|--------------------------------------|

Guitar Two
|---7-5-7-------------7-5-7-8--8^7^5-8-|
|-5-------5---------5------------------|
|--------------------------------------|
|--------------------------------------|
|--------------------------------------|
|--------------------------------------|

Guitar Two (continued)
|---7-5-7-------------7-5-7-8--8^7^5-8-|
|-4-------4---------4------------------|
|--------------------------------------|
|--------------------------------------|
|--------------------------------------|
|--------------------------------------|

Guitar Two (continued)
|---7-5-7-------------7-5-7-8--8^7^5-8-|
|-5-------5---------5------------------|
|--------------------------------------|
|--------------------------------------|
|--------------------------------------|
|--------------------------------------|

Guitar One (continued)
|---------------------------8-7-5-------------|
|---7-5-7-------------7-5-7--------8-7-5------|
|-4-------4---------4---------------------8-5-|
|---------------------------------------------|
|---------------------------------------------|
|---------------------------------------------|

Guitar Two (continued)
|---------------------------8-7-5-------------|
|-5-7-5-7-----------5-7-5-7--------8-7-5------|
|---------4-------------------------------8-5-|
|---------------------------------------------|
|---------------------------------------------|
|---------------------------------------------|

ORDER:
   Verse
   Chorus
   Verse
   (break)
   Chorus 2x
   Interlude A 2x
   (break)
   Interlude B
   Interlude A
   Verse
   Chorus
4.The 13th Caesar

00:45) Riff A

d:-------------------------------------------------------------------|
A:-------------------------------------------------------------------|
F:-------------------------------------------------------------------|
C:-----------------------------------2-2-2-2-2-2-2-2-7--6--4-6-------|
G:---4-4-4-4-4-4-4-4-4-4-4-4-4-4-4-4-0-0-0-0-0-0-0-0-5--4--2-4-4-4---|
D:---2-2-2-2-2-2-2-2-2-2-2-2-2-2-2-2---------------------------2-2---|


d:-------------------------------------------------------------------|
A:-------------------------------------------------------------------|
F:-------------------------------------------------------------------|
C:-------------------------------9-9-9-9-9-9-9-9-7-7-7---------------|
G:---4-4-4-4-4-4-4-4-4-4-4-4-4-4-7-7-7-7-7-7-7-7-5-5-5-7-5-7-5-4-----|
D:---2-2-2-2-2-2-2-2-2-2-2-2-2-2-----------------------7-5-7-5-4-----|


d:-------------------------------------------------------------------|
A:-------------------------------------------------------------------|
F:-------------------------------------------------------------------|
C:-----------------------------------------------------------2-2-2---|
G:---4-4-4--4-4-4--4-4-4--4-4-4--4-4-4--4-4-4--4-4-4--4-4-4--0-0-0---|
D:---2-2-2--2-2-2--2-2-2--2-2-2--2-2-2--2-2-2--2-2-2--2-2-2----------|


d:-------------------------------------------------------------------|
A:-------------------------------------------------------------------|
F:-------------------------------------------------------------------|
C:--2-2-2--2-2-2--2-2-2--7--7--6--6--4s6-6---------------------------|
G:--0-0-0--0-0-0--0-0-0--5--5--4--4--2s4-4--4-4-4--4-4-4--4-4-4------|
D:------------------------------------------2-2-2--2-2-2--2-2-2------|


d:-------------------------------------------------------------------|
A:-------------------------------------------------------------------|
F:-------------------------------------------------------------------|
C:-------------------------------------------------------------------|
G:--4-4-4--4-4-4--4-4-4--4-4-4--4-4-4--7--7-7--7-7-7-5-5-8-----------|
D:--2-2-2--2-2-2--2-2-2--2-2-2--2-2-2--0--0-0--0-0-0-----------------|



(01:07) Riff B

d:-------------------------------------------------------------------|
A:-------------------------------------------------------------------|
F:-------------------------------------------------------------------|
C:---2-2-2-2-2-2-2-2-2-2-2-2-5-5-5-5-2-2-2-2-2-2-2-2-5-5-5-5-4-4-4-4-|
G:-------------------------------------------------------------------|
D:-------------------------------------------------------------------|


d:-------------------------------------------------------------------|
A:------------------------------------------6-6-6-6------------------|
F:--------------------------------------------------4-4-4-4----------|
C:----------------------------------------------------------3-3-3-3--|
G:--3-3-3-3-3-3-3-3-3-3-3-3-2-2-2-2-2-2-2-2--------------------------|
D:-------------------------------------------------------------------|


d:-------------------------------------------------------------------|
A:-------------------------------------------------------------------|
F:-------------------------------------------------------------------|
C:--2-2-2-2-2-2-2-2-2-2-2-2-5-5-5-5-2-2-2-2-2-2-2-2-5-5-5-5-4-4-4-4--|
G:-------------------------------------------------------------------|
D:-------------------------------------------------------------------|


d:-------------------------------------------------------------------|
A:--------------------------------------------------------7--6-------|
F:--------------------------------------------2---5-4---4------4-----|
C:------------------------------------------5---3-----3--------------|
G:--3-3-3-3-3-3-3-3-3-3-3-3-2-2-2-2-2-2-2-2--------------------------|
D:-------------------------------------------------------------------|
                                          |                          |
                                          |--------------------------|
                                          |---------------10-9-------|
                                          |-------8-7---7------7-----|
                                          |-5-7-6-----6--------------|
                                          |--------------------------|
                                          |--------------------------|


d:-------------------------------------------------------------------|
A:-------------------------------------------------------------------|
F:-------------------------------------------------------------------|
C:---2-2-2-2-2-2-2-2-2-2-2-2-5-5-5-5-2-2-2-2-2-2-2-2-5-5-5-5-4-4-4-4-|
G:-------------------------------------------------------------------|
D:-------------------------------------------------------------------|


d:-------------------------------------------------------------------|
A:-------------------------------------------------------------------|
F:-------------------------------------------------------------------|
C:--------------------------3-3-3-3-6-6-6-6-5-5-5-5-3-3-5-5----------|
G:--3-3-3-3-3-3-3-3-3-3-3-3------------------------------------------|
D:-------------------------------------------------------------------|


d:-------------------------------------------------------------------|
A:-------------------------------------------------------------------|
F:-------------------------------------------------------------------|
C:---2-2-2-2-2-2-2-2-2-2-2-2-5-5-5-5-2-2-2-2-2-2-2-2-5-5-5-5-4-4-4-4-|
G:-------------------------------------------------------------------|
D:-------------------------------------------------------------------|


d:-------------------------------------------------------------------|
A:-------------------------------------------------------------------|
F:-------------------------------------------------------------------|
C:--------------------------3-3-3-3-8-8-8-8-7-7-7-7-5-5-7-7----------|
G:--3-3-3-3-3-3-3-3-3-3-3-3------------------------------------------|
D:-------------------------------------------------------------------|



(01:30) Riff C

d:-------------------------------------------------------------------|
A:-------------------------------------------------------------------|
F:o------------------------------------------------------------------|
C:o------------------------------------------------------------------|
G:---5--5-5-5--5-5-4-5-5-5s7s8--5--5-5-5--5-5--7-8-5-8--5--5-5-5-----|
D:---3--3-3-3--3-3-2-3-3-3s5s6--3--3-3-3--3-3--5-6-3-6--3--3-3-3-----|


d:-------------------------------------------------------------------|
A:-------------------------------------------------------------------|
F:---------------------------7-9-10---------------------------------o|
C:------------------------------------------------------------------o|
G:--5-5--4-5-5-5s7s8---------5-7-8-----------------------------------|
D:--3-3--2-3-3-3s5s6-5-8-4-7-----------------------------------------|



(01:52) Riff D

d:-------------------------------------------------------------------|
A:-------------------------------------------------------------------|
F:o-----------------------------------------------------------------o|
C:o----------8--7----5--3----------8----------3---------------------o|
G:---5----3--6--5----3--1--5----3--6--5----3--1----------------------|
D:---3----1----------------3----1-----3----1-------------------------|



(02:15) kick starting chorus

d:-------------------------------------------------------------------|
A:-------------------------------------------------------------------|
F:-------------------------------------------------------------------|
C:-------------------------------------------------------------------|
G:---4-4-4-4-4-4-4-4-------------------------------------------------|
D:---2-2-2-2-2-2-2-2-------------------------------------------------|



(03:47) Riff E

d:-------------------------------------------------------------------|
A:-------------------------------------------------------------------|
F:-------------------------------------------------------------------|
C:---------------------------2-2-2-2-3-3-3-3-3-3-3-3---------5-5-5-5-|
G:---0-0-0-0-0-0-0-0-0-0-0-0-------------------------3-3-3-3---------|
D:-------------------------------------------------------------------|
 |                                                                   |
d:-------------------------------------------------------------------|
A:-------------------------------------------------------------------|
F:-----------------------------------------------------------3-3-3-3-|
C:---7-7-7-7-7-7-7-7-7-7-7-7-5-5-5-5-7-7-7-7-7-7-7-7-3-3-3-3---------|
G:-------------------------------------------------------------------|
D:-------------------------------------------------------------------|


d:-------------------------------------------------------------------|
A:-------------------------------------------------------------------|
F:-------------------------------------------------------------------|
C:--------------------------2-2-2-2-3-3-3-3--3--3--3--3--------------|
G:--0-0-0-0-0-0-0-0-0-0-0-0------------------1--1--1--1--------------|
D:-------------------------------------------------------------------|
 |                                                                   |
d:-------------------------------------------------------------------|
A:-------------------------------------------------------------------|
F:-------------------------------------------------------------------|
C:--7-7-7-7-7-7-7-7-7-7-7-7-5-5-5-5-7-7-7-7--8--8--8--8--------------|
G:-------------------------------------------------------------------|
D:-------------------------------------------6--6--6--6--------------|


d:-------------------------------------------------------------------|
A:-------------------------------------------------------------------|
F:-------------------------------------------------------------------|
C:---------------------------2-2-2-2-3-3-3-3-3-3-3-3---------5-5-5-5-|
G:---0-0-0-0-0-0-0-0-0-0-0-0-------------------------3-3-3-3---------|
D:-------------------------------------------------------------------|
 |                                                                   |
d:-------------------------------------------------------------------|
A:-------------------------------------------------------------------|
F:-----------------------------------------------------------3-3-3-3-|
C:---7-7-7-7-7-7-7-7-7-7-7-7-5-5-5-5-7-7-7-7-7-7-7-7-3-3-3-3---------|
G:-------------------------------------------------------------------|
D:-------------------------------------------------------------------|


d:-------------------------------------------------------------------|
A:-------------------------------------------------------------------|
F:-------------------------------------------------------------------|
C:--------------------------2-2-2-2-3-3-3-3--8-----------------------|
G:--0-0-0-0-0-0-0-0-0-0-0-0------------------6--5-6-5-3--------------|
D:-------------------------------------------------------------------|
|                                                                    |
d:-------------------------------------------------------------------|
A:-------------------------------------------------------------------|
F:-------------------------------------------------------------------|
C:--7-7-7-7-7-7-7-7-7-7-7-7-5-5-5-5-7-7-7-7--5--3-5-3----------------|
G:----------------------------------------------------6--------------|
D:-------------------------------------------------------------------|
6.Tragic Kingdom
(00:00) Riff A

d:-------------------------------------------------------------------|
A:-------------------------------------------------------------------|
F:o------------------------------------------------------------------|
C:o------------------------------------------------------------------|
G:---0-0-0-0-0-0-0-0-0-0-0-0-0-0-0-0-0-0-0-0-0-0-0-0-5-5-5-5-5-5-5-5-|
D:-------------------------------------------------------------------|


d:-------------------------------------------------------------------|
A:-------------------------------------------------------------------|
F:------------------------------------------------------------------o|
C:------------------------------------------------------------4-5-3-o|
G:-0-0-0-0-0-0-0-0-0-0-0-0-0-0-0-0---------3---------3----3---2s3-1--|
D:---------------------------------0-0-0-0-1-0-0-0-0-1--0-1-0--------|



(00:26) Riff B

d:-------------------------------------------------------------------|
A:-------------------------------------------------------------------|
F:o--4s5s4~---------------------5s7s5-------------------------------o|
C:o--2s3s2~---------------------3s5s3---------3s5-3-----------------o|
G:-----------2------4-4----4-4-----------2-3--3s5-3------------------|
D:-----------0----0-2-2--0-2-2-----------0-1--------3-3-3-3-3-3-3-3--|



(00:51) Riff C

d:-------------------------------------------------------------------|
A:-------------------------------------------------------------------|
F:o-----------------------------------------------------------------o|
C:o-----------------------------------------------------------------o|
G:---7--7--7-5-5--------------------------------5-------5------------|
D:---------------6--6--6-5--5--2--2--1-1--0-6-7---5-6-7--------------|



(01:04) Riff D

d:-------------------------------------------------------------------|
A:-------------------------------------------------------------------|
F:o-----------------------------------------------------------------o|
C:o-----------------------------------------------------------------o|
G:---7--7--7-5-5--------------------------------5-------5------------|
D:---------------6--6--6-5--5--2--2--1-1--0-6-7---5-6-7--------------|
 |                                                                   |
d:-------------------------------------------------------------------|
A:-------------------------------------------------------------------|
F:-------------------------------------------------------------------|
C:------5------------------------------------------------------------|
G:---7-----7-5-5-5--5--5------------------------5-------5------------|
D:-----------------------5--5--2--2--1-1--0-6-7---5-6-7--------------|



(02:34) Riff E (excluded harmonies for now)

d:-------------------------------------------------------------------|
A:-----8-10----------------------------------------------------------|
F:---9-------10--12-10h12p10s9---------------------------------------|
C:------------------------------10---10-12-14--12h14p12-10--10-12----|
G:-------------------------------------------------------------------|
D:-------------------------------------------------------------------|


d:-------------------------------------------------------------------|
A:-----8-10----------------------------------------------------------|
F:---9-------10--12-10h12p10s9---------------------------------------|
C:------------------------------10---10-12-14--12-12-10-9-10---------|
G:-------------------------------------------------------------------|
D:-------------------------------------------------------------------|



(02:59) Riff F

d:-------------------------------------------------------------------|
A:-------------------------------------------------------------------|
F:-------------------------------------------------------------------|
C:-------------------------------------------------------------------|
G:------5-7-----8-7------5-7-----10-8-----5-7-----8-7---10-8-7-8-7-5-|
D:--0-5-----5-6------0-5-----0-8------0-5-----5-6-----8--------------|


d:-------------------------------------------------------------------|
A:-------------------------------------------------------------------|
F:-------------------------------------------------------------------|
C:--7----------------------------------------------------------------|
G:-------------------------------------------------------------------|
D:-------------------------------------------------------------------|



(03:12) Riff G

d:-------------------------------------------------------------------|
A:-------------------------------------------------------------------|
F:---------------------------------7-5---------------------7-5-4-5-4-|
C:------0-7-9-7---10-9---0-7-9---5--------0-7-9-7---10-9-5-----------|
G:----0---------8------0-------0--------0---------8------------------|
D:-------------------------------------------------------------------|


d:-------------------------------------------------------------------|
A:-----5-------------------------------------------------------------|
F:-------------------------------------------------------------------|
C:--7----------------------------------------------------------------|
G:-------------------------------------------------------------------|
D:-------------------------------------------------------------------|



(03:25) Riff H (lead, over Riff C)

d:-------------------------------------------------------------------|
A:---15fb~---15fb~~--15hb-15-13-12----------13-12----12-13-13fb~-----|
F:---------------------------------14----14-------14-----------------|
C:-------------------------------------------------------------------|
G:-------------------------------------------------------------------|
D:-------------------------------------------------------------------|


d:-------------------------------------------------------------------|
A:--12-13p12----12---------------------------------------------------|
F:-----------14----14-12---------16--14-14--12-12--11-11-----16--14--|
C:-----------------------14~~----------------------------------------|
G:-------------------------------14--12-12--10-10--9--9------10--9---|
D:-------------------------------------------------------------------|


d:-------------------------------------------------------------------|
A:-------------------------------------------------------------------|
F:--14--12-12--11-11--12-14-14-------------------4-----4-5---4-5-7---|
C:--------------------14-16-16-------4-5-7-4-5-7---5-7-----7---------|
G:--9---7--7---5--5---7--9--9------7---------------------------------|
D:-------------------------------------------------------------------|


d:-------------------------------------------------------------------|
A:-20p0-19p0-17----------20p0-19p0-17----------22p0-20p0-19----------|
F:--------------19-18-16--------------19-18-16--------------19-18----|
C:----------------------------------------------------------------21-|
G:-------------------------------------------------------------------|
D:-------------------------------------------------------------------|


d:-------------------------------------------------------------------|
A:--20p0-19p0-17----------20-19-17-19-17----17-----------------------|
F:---------------19-18-16----------------19----19-17-19-17-16-17-16--|
C:-------------------------------------------------------------------|
G:-------------------------------------------------------------------|
D:-------------------------------------------------------------------|


d:-------------------------------------------------------------------|
A:-------------------------------------------------------------------|
F:-----16------------------------------------------------------------|
C:--19----19-17-19-17-16-17-16----16---------------------------------|
G:-----------------------------19----19-17-19-16-17-16---------------|
D:-------------------------------------------------------------------|


d:-------------------------------------------------------------------|
A:-------------------------------------------t10p8p7h8p7-t12p10p8h10-|
F:---12--11~---7--9~~-------12-14fb-12-11~~--------------------------|
C:-----------------------14------------------------------------------|
G:-------------------------------------------------------------------|
D:-------------------------------------------------------------------|


d:-------------------------------------------------------------------|
A:--p8-t13p12p10h12p10-t15p13p12h13p12-12-15-15-15fb~~---------------|
F:-------------------------------------------------------------------|
C:-------------------------------------------------------------------|
G:-------------------------------------------------------------------|
D:-------------------------------------------------------------------|



(04:19)

d:-------------------------------------------------------------------|
A:-------------------------------------------------------------------|
F:-------------------------------------------------------------------|
C:---2----4----5-----------------------------------------------------|
G:---0----2----3-------------2--3------------------------------------|
D:---------------------------0--1------------------------------------|

d:-------------------------------------------------------------------|
A:-------------------------------------------------------------------|
F:-------------------------------------------------------------------|
C:---2----4----5-----------------------------------------------------|
G:---0----2----3-------------2--6----------------------2-3-5-3-5-6---|
D:---------------------------0--4----------------------0-1-3-1-3-4---|



(04:45)

d:-------------------------------------------------------------------|
A:-------------------------------------------------------------------|
F:o------------------------------------------------------------------|
C:o------------------------------------------------------------------|
G:---3-3-3-3-3-3-3-3-3-3-3-3-3-3-3-3-3-3-3-3-3-3-3-3-3-3-3-3-5-5-5-5-|
D:-------------------------------------------------------------------|


d:-------------------------------------------------------------------|
A:-------------------------------------------------------------------|
F:-------------------------------------------------------------------|
C:-------------------------------------------------------------------|
G:--2-2-2-2-2-2-2-2-2-2-2-2-3-3-3-3-0-0-0-0-0-0-0-0-0-0-0-0-2-2-2-2--|
D:-------------------------------------------------------------------|


d:-------------------------------------------------------------------|
A:-------------------------------------------------------------------|
F:------------------------------------------------------------------o|
C:------------------------------------------------------------------o|
G:-------------------------------------------------------------------|
D:--1-1-1-1-1-1-1-1-1-1-1-1-0-0-0-0----------------------------------|
7.Sweetest Maleficia
00:32) Riff A

d:-------------------------------------------------------------------|
A:-------------------------------------------------------------------|
F:o-----------------------------------------------------------------o|
C:o-----------------------------------------------------------------o|
G:---4--7-7-7-7--4--7-7-7-8-9--4--7-7-7-7--4--7-6-5------------------|
D:---2--0-0-0-0--2--0-0-0-6-7--2--0-0-0-0--2--5-4-3------------------|



(00:56) Riff B

d:-------------------------------------------------------------------|
A:-------------------------------------------------------------------|
F:-------------------------------------------------------------------|
C:---3-3-3-3-3-3-3-3-3-3-3-3-5-5-5-5-3-3-3-3-3-3-3-3-3-3-3-3-6-6-6-6-|
G:-------------------------------------------------------------------|
D:-------------------------------------------------------------------|


d:-------------------------------------------------------------------|
A:-------------------------------------------------------------------|
F:-------------------------------------------------------------------|
C:---3-3-3-3-3-3-3-3-3-3-3-3-6-6-6-6-5-5-5-5-4h5p4-4-4-4-4-4-4-4-----|
G:-------------------------------------------------------------------|
D:-------------------------------------------------------------------|


d:-------------------------------------------------------------------|
A:-------------------------------------------------------------------|
F:-------------------------------------------------------------------|
C:---3-3-3-3-3-3-3-3-3-3-3-3-5-5-5-5-3-3-3-3-3-3-3-3-3-3-3-3-6-6-6-6-|
G:-------------------------------------------------------------------|
D:-------------------------------------------------------------------|


d:-------------------------------------------------------------------|
A:-------------------------------------------------------------------|
F:----------------------------------------------------6--------------|
C:---3-3-3-3-3-3-3-3-3-3-3-3-6-6-6-6----------------5-4--------------|
G:-----------------------------------5s6s5-5--4--3--3----------------|
D:-----------------------------------3s4s3-3--2--1-------------------|



(01:20) Riff C

d:-------------------------------------------------------------------|
A:-------------------------------------------------------------------|
F:-------------------------------------------------------------------|
C:-------------------------------------------------------------------|
G:---4---5-5-4--5-5-4-5-6--6-6-6-6-5-6-5--5--6-6-5-5-----------------|
D:---2---2-2-2--2-2-2-2-3--3-3-3-3-3-3-3--3--3-3-3-3-----------------|


d:-------------------------------------------------------------------|
A:-------------------------------------------------------------------|
F:-------------------------------------------------------------------|
C:-------------------------------------------------------------------|
G:---4---5-5-4--5-5-4-5-6--6-6-6-6-5-6-5--5--3--4-4-3-4--------------|
D:---2---2-2-2--2-2-2-2-3--3-3-3-3-3-3-3--3--1--1-1-1-1--------------|


d:-------------------------------------------------------------------|
A:-------------------------------------------------------------------|
F:-------------------------------------------------------------------|
C:-------------------------------------------------------------------|
G:---4---5-5-4--5-5-4-5-6--6-6-6-6-5-6-5--5--6-6-5-5-----------------|
D:---2---2-2-2--2-2-2-2-3--3-3-3-3-3-3-3--3--3-3-3-3-----------------|


d:-------------------------------------------------------------------|
A:-------------------------------------------------------------------|
F:-------------------------------------------------------------------|
C:-------------------------------------------------------------------|
G:---4---5-5-4--5-5-4-5-6--6-6-6-6-5-6-5--5--3--4-4-3-4--------------|
D:---2---2-2-2--2-2-2-2-3--3-3-3-3-3-3-3--3--1--1-1-1-1--------------|



(01:44) Riff D

d:-------------------------------------------------------------------|
A:-------------------------------------------------------------------|
F:o-----------------------------------------------------------------o|
C:o-9--9-9-7-9-10-9--9-9-9--9-9--7-7-6-5--9-9-7-9-10-9--3-3-4-3-----o|
G:--7--7-7-5-7-8--7--7-7-7--7-7--5-5-4-3--7-7-5-7-8--7--1-1-2-1-5-4--|
D:--------------------------------------------------------------3-2--|



(02:02) Riff E

d:-------------------------------------------------------------------|
A:-------------------------------------------------------------------|
F:-------------------------------------------------------------------|
C:---9--9-9-7-9-10-9--9-9-9--9-9--7-7-6-5--9-9-7-9-10-9--9-----------|
G:---7--7-7-5-7-8--7--7-7-7--7-7--5-5-4-3--7-7-5-7-8--7--7-7-7-7-7---|
D:-------------------------------------------------------------------|


d:-------------------------------------------------------------------|
A:-------------------------------------------------------------------|
F:-------------------------------------------------------------------|
C:--8---------7------------------------------------------------------|
G:--6-6-6-6-6-5------------------------------------------------------|
D:-------------------------------------------------------------------|



(02:08) Riff F

d:-------------------------------------------------------------------|
A:-------------------------------------------------------------------|
F:-------------------------------------------------------------------|
C:-------------------------------------------------------------------|
G:---4--7-7-7-7--4--7-7-7-8-9--4--7-7-7-7--7-6-----------6--4--7-7-7-|
D:---2--0-0-0-0--2--0-0-0-6-7--2--0-0-0-0------8-7-8-7-8----2--0-0-0-|


d:-------------------------------------------------------------------|
A:-------------------------------------------------------------------|
F:-------------------------------------------------------------------|
C:-------------------------------------------------------------------|
G:--7--4--7-7-7-8-9--4--7-7-7-7--4--7-6-5----------------------------|
D:--0--2--0-0-0-6-7--2--0-0-0-0--2--5-4-3----------------------------|



(02:20) Riff G

d:-------------------------------------------------------------------|
A:-------------------------------------------------------------------|
F:o------------------------------------------------------------------|
C:o--3-3-3-3-3-3-3-3-3-3-3-3-5-5-5-5-3-3-3-3-3-3-3-3-3-3-3-3-6-6-6-6-|
G:-------------------------------------------------------------------|
D:-------------------------------------------------------------------|


d:-------------------------------------------------------------------|
A:-------------------------------------------------------------------|
F:-------------------------------------------------------------------|
C:---3-3-3-3-3-3-3-3-3-3-3-3-6-6-6-6-5-5-5-5-4h5p4-4-4-4-4-4-4-4-----|
G:-------------------------------------------------------------------|
D:-------------------------------------------------------------------|


d:-------------------------------------------------------------------|
A:-------------------------------------------------------------------|
F:-------------------------------------------------------------------|
C:---3-3-3-3-3-3-3-3-3-3-3-3-5-5-5-5-3-3-3-3-3-3-3-3-3-3-3-3-6-6-6-6-|
G:-------------------------------------------------------------------|
D:-------------------------------------------------------------------|


d:-------------------------------------------------------------------|
A:-------------------------------------------------------------------|
F:------------------------------------------------------------------o|
C:---3-3-3-3-3-3-3-3-3-3-3-3-6-6-6-6--------------------------------o|
G:-----------------------------------3-3-3-4-4-4-3-3-3-2-2-2---------|
D:-------------------------------------------------------------------|



(03:44) Riff H

d:-------------------------------------------------------------------|
A:-------------------------------------------------------------------|
F:-------------------------------------------------------------------|
C:-----------------------------6---5-----------------5-5-5-5-4-4---0-|
G:---------------------------------------------------3-3-3-3-2-2-2---|
D:---0-0-2-0-3-0-6-5-0-0-2-0-4---3---0-0-2-0-3-0-6-5-----------------|



(03:56) Riff I

d:-------------------------------------------------------------------|
A:-------------------------------------------------------------------|
F:o-----------------------------------------2-4-2-0--0-2-0----------o|
C:o--0-3-2-0-2-0--6--6-6-6-6--6-0-3-2-0-2-0----------------3--------o|
G:-------------------------------------------------------------------|
D:----------------4--4-4-4-4--4--------------------------------------|
 |                                                                   |
d:-------------------------------------------------------------------|
A:-------------------------------------------------------------------|
F:o-----------------------------------------------------------------o|
C:o--0-3-2-0-2-0--6--6-6-6-6--6-0-3-2-0-2-0-3-5-3-2--2-3-2----------o|
G:---------------------------------------------------------2---------|
D:----------------4--4-4-4-4--4--------------------------------------|



(04:08) Riff J

d:-------------------------------------------------------------------|
A:----------------9--9-9-9-9--9--------------10-12p10p8-8-10p8p6-----|
F:---7-10-9-7-9-7---------------7-10-9-7-9-7-------------------------|
C:----------------6--6-6-6-6--6--------------------------------------|
G:-------------------------------------------------------------------|
D:-------------------------------------------------------------------|
 |                                                                   |
d:-------------------------------------------------------------------|
A:----------------9--9-9-9-9--9--------------------------------------|
F:---7-10-9-7-9-7---------------7-10-9-7-9-7-10-12p10p9-9-10p9-------|
C:----------------6--6-6-6-6--6--------------------------------10----|
G:-------------------------------------------------------------------|
D:-------------------------------------------------------------------|



(04:20) Riff K (lead over Riff C)

d:-----------------------------7---7---9---9---10---10---12----12----|
A:---7-7-7-7-9-9-9-9-10-7-10-7---7---7---7---7----7----7-------------|
F:----------------------------------------------------------11-------|
C:-------------------------------------------------------------------|
G:-------------------------------------------------------------------|
D:-------------------------------------------------------------------|


d:-----14----14--------21--17--------------------------21-17---------|
A:-----------------------------19----------------------------19------|
F:--11----11----11-----------------18---------------------------18---|
C:-------------------------------------19--18------------------------|
G:--------------------------------------------19--18-----------------|
D:-------------------------------------------------------------------|


d:-------------------------------------------------------------------|
A:-------------------------------------------------------------------|
F:-------------------------------------------------------------------|
C:--19-18------------------------4*-w/bar----0-w/bar-----------------|
G:--------19-18-16---------------------------------------------------|
D:-----------------17-16-14------------------------------------------|


d:-----------------------------------17p0-16p0-14p0-16p0-17p0-16p0---|
A:-----14--12--14--15-14h15p14-12-14---------------------------------|
F:--11---------------------------------------------------------------|
C:-------------------------------------------------------------------|
G:-------------------------------------------------------------------|
D:-------------------------------------------------------------------|


d:--19p0-17p0-17p0-16p0-14p0-16p0-17p0-16p0--------------------------|
A:-------------------------------------------17fb-fb-----------------|
F:-------------------------------------------------------------------|
C:-------------------------------------------------------------------|
G:-------------------------------------------------------------------|
D:-------------------------------------------------------------------|


d:--12--10--12--15-14h15p14-12-14--17p0-16p0-14p0-16p0-17p0-16p0-----|
A:--14--12--14--17-15h17p15-14-15------------------------------------|
F:-------------------------------------------------------------------|
C:-------------------------------------------------------------------|
G:-------------------------------------------------------------------|
D:-------------------------------------------------------------------|


d:--19p0-17p0--------------------------------------------------------|
A:------------14s11-16h18p16p14s11-16h18p16p14s11--[17]fb-[17]fb-----|
F:-------------------------------------------------------------------|
C:-------------------------------------------------------------------|
G:-------------------------------------------------------------------|
D:-------------------------------------------------------------------|



(05:32) Riff L

d:-------------------------------------------------------------------|
A:-------------------------------------------------------------------|
F:-------------------------------------------------------------------|
C:-------------------------------------------------------------------|
G:---4--7-7-7-7--4--7-7-7-8-9--4--7-7-7-7--4--7-6-5--4--7-7-7-7--4---|
D:---2--0-0-0-0--2--0-0-0-6-7--2--0-0-0-0--2--5-4-3--2--0-0-0-0--2---|


d:-------------------------------------------------------------------|
A:-------------------------------------------------------------------|
F:-------------------------------------------------------------------|
C:-------------------------------------------------------------------|
G:--7-7-7-8-9--4--7-7-7-7--4----4--7-7-7-7--4--7-7-7-8-9--4--7-7-7-7-|
D:--0-0-0-6-7--2--0-0-0-0--2----2--0-0-0-0--2--0-0-0-6-7--2--0-0-0-0-|


d:-------------------------------------------------------------------|
A:-------------------------------------------------------------------|
F:-------------------------------------------------------------------|
C:-------------------------------------------------------------------|
G:--4--7-6-5--4--7-7-7-7--4--7-7-7-8-9--4--7-7-7-7--4--7-6-5---------|
D:--2--5-4-3--2--0-0-0-0--2--0-0-0-6-7--2--0-0-0-0--2--5-4-3---------|
8.Honey And Sulphur
(00:19) Riff A

d:-------------------------------------------------------------------|
A:-------------------------------------------------------------------|
F:----------------------------------------------------11-------------|
C:----------------9/---------------7-7-7--------------11-------------|
G:----------------7/---------------5-5-5--------------9---7-7-7-7-8--|
D:---0-0-0--0-0-0-----0-0-0--0-0-0-------0-0-0--0-0-0-----5-5-5-5-6--|


d:-------------------------------------------------------------------|
A:-------------------------------------------------------------------|
F:-------------------------------------------------------------------|
C:---------------------------9----------------7-7-7--------------7/--|
G:--5-5-5-5-7----------------7----------------5-5-5--------------6/--|
D:--3-3-3-3-5---0-0-0--0-0-0-----0-0-0--0-0-0-------0-0-0--0-0-0-----|


d:-------------------------------------------------------------------|
A:-------------------------------------------------------------------|
F:-------------------------------------------------------------------|
C:-------------------------------------------------------------------|
G:--2-2-2-2-3-2-2-2-2-3----------------------------------------------|
D:--0-0-0-0-1-0-0-0-0-1----------------------------------------------|



(00:38) Riff B

d:-------------------------------------------------------------------|
A:-------------------------------------------------------------------|
F:----------------------------------------------------11-------------|
C:----------------9/---------------7-7-7--------------11-------------|
G:----------------7/---------------5-5-5--------------9---7-7-7-7-8--|
D:---0-0-0--0-0-0-----0-0-0--0-0-0-------0-0-0--0-0-0-----5-5-5-5-6--|


d:-------------------------------------------------------------------|
A:-------------------------------------------------------------------|
F:---------------------------------------------------------------11--|
C:---------------------------9----------------7-7-7--------------11--|
G:--5-5-5-5-7----------------7----------------5-5-5--------------9---|
D:--3-3-3-3-5---0-0-0--0-0-0-----0-0-0--0-0-0-------0-0-0--0-0-0-----|


d:-------------------------------------------------------------------|
A:-------------------------------------------------------------------|
F:-------------------------------------------------------------------|
C:-------------------------------------------------------------------|
G:--2-2-2-2-3-2-2-2-2-3----------------------------------------------|
D:--0-0-0-0-1-0-0-0-0-1----------------------------------------------|



(00:57) Riff C

d:-------------------------------------------------------------------|
A:-------------------------------------------------------------------|
F:-------------------------------------------------------------------|
C:-------------------9-9-9-9-------------------------8-8-8-8---------|
G:---7-7-7-7-7-7-7-7---------7-7-7-7-8-8-8-8-8-8-8-8---------8-8-8-8-|
D:-------------------------------------------------------------------|


d:-------------------------------------------------------------------|
A:-------------------------------------------------------------------|
F:-------------------------------------------------------------------|
C:-----------------------------------------------------9-9-9-9-------|
G:-------------------------------------7-7-7-7-7-7-7-7---------7-7-7-|
D:--5-8-5-8-4-7-4-7-5-8-5-8-7-10-7-10--------------------------------|


d:-------------------------------------------------------------------|
A:-------------------------------------------------------------------|
F:-------------------------------------------------------------------|
C:--------------------8-8-8-8----------------------------------------|
G:--7-8-8-8-8-8-8-8-8---------8-8-8-8--------------------------------|
D:------------------------------------5-8-5-8-4-7-4-7-7-10-7-10-5-8--|


d:-------------------------------------------------------------------|
A:-------------------------------------------------------------------|
F:-------------------------------------------------------------------|
C:-----------------------9-9-9-9-------------------------8-8-8-8-----|
G:-------7-7-7-7-7-7-7-7---------7-7-7-7-8-8-8-8-8-8-8-8---------8-8-|
D:--4-7--------------------------------------------------------------|


d:-------------------------------------------------------------------|
A:-------------------------------------------------------------------|
F:-------------------------------------------------------------------|
C:--------------------------------------------------------9-9-9-9----|
G:--8-8-----------------------------------7-7-7-7-7-7-7-7------------|
D:------5-8-5-8-4-7-4-7-5-8-5-8-7-10-7-10----------------------------|


d:-------------------------------------------------------------------|
A:-------------------------------------------------------------------|
F:-------------------------------------------------------------------|
C:--------------------------8-8-8-8----------------------------------|
G:--7-7-7-7-8-8-8-8-8-8-8-8---------8-8-8-8--------------------------|
D:------------------------------------------5-8-5-8-4-7-4-7-7-10-5-8-|


d:-------------------------------------------------------------------|
A:-------------------------------------------------------------------|
F:-------------------------------------------------------------------|
C:-------------------------------------------------------------------|
G:-------------------------------------------------------------------|
D:--4----------------------------------------------------------------|



(01:17) Riff D

d:-------------------------------------------------------------------|
A:-------------------------------------------------------------------|
F:o-----------------------------------------------------------------o|
C:o-----------------------------------------------------------------o|
G:---3-4-7-6----------------3-4-7-6----7-5------5---4~---------------|
D:---1-2-5-4----------------1-2-5-4----5-3----3---3------------------|



(01:55) Riff E

d:-------------------------------------------------------------------|
A:-------------------------------------------------------------------|
F:o-----------------------------------------------------------------o|
C:o-----------------------------------------------------------------o|
G:-------------------------------------------------------------------|
D:---4-4-4-4-5-5-5-5-7-7-7-7-8-8-8-8-7-7-7-7-8-8-8-8-7-7-7-7-5-5-5-5-|



(02:05) Riff F

d:-------------------------------------------------------------------|
A:-------------------------------------------------------------------|
F:-------------------------------------------------------------------|
C:----------------9/---------------7-7-7--------------8--------------|
G:----------------7/---------------5-5-5--------------6---7-7-7-7-8--|
D:---0-0-0--0-0-0-----0-0-0--0-0-0-------0-0-0--0-0-0-----5-5-5-5-6--|


d:-------------------------------------------------------------------|
A:-------------------------------------------------------------------|
F:-------------------------------------------------------------------|
C:---------------------------9----------------8-8-8--------------8-8-|
G:--5-5-5-5-7----------------7----------------6-6-6--------------6-6-|
D:--3-3-3-3-5---0-0-0--0-0-0-----0-0-0--0-0-0-------0-0-0--0-0-0-----|


d:-------------------------------------------------------------------|
A:-------------------------------------------------------------------|
F:-------------------------------------------------------------------|
C:--8----------------------------------------------------------------|
G:--6--2-2-2-2-3-2-2-2-2-3-------------------------------------------|
D:-----0-0-0-0-1-0-0-0-0-1-------------------------------------------|



(02:15) Riff A again



(02:24) Riff E

d:-------------------------------------------------------------------|
A:-------------------------------------------------------------------|
F:o------------------------------------------------------------------|
C:o--9----------------5----------------9----------------5------------|
G:---7----2-2-2-2-2-2-3----5-5-5-5-5-5-7----2-2-2-2-2-2-3--3-3-3-3---|
D:-------------------------------------------------------------------|


d:-------------------------------------------------------------------|
A:-------------------------------------------------------------------|
F:------7------------------------------------------------------------|
C:------5------------------------------------------------------------|
G:--3-3--------------------------------------------------------------|
D:--------0-0-0--0-0-0-----------------------------------------------|



(02:43) Riff F

d:-------------------------------------------------------------------|
A:---------------------------------10--------------------------------|
F:---9--7h9-9--11----11---12--11------12-11-12-11-9-11-12-9--7h9-9---|
C:-------------------------------------------------------------------|
G:-------------------------------------------------------------------|
D:-------------------------------------------------------------------|
 |                                                                   |
d:-------------------------------------------------------------------|
A:-------------------------------------------------------------------|
F:-------------------------------------------------------------------|
C:---------------------------------7---------------------------------|
G:---7---------9--10-9----------------10-9--10-9--7-9--10-7----------|
D:----------------------7--8-----------------------------------------|


d:-------------------------------------------------------------------|
A:-------------------------13-12-10-12-10----10----------------------|
F:--11--12--11--12-14-12------------------12----12-9---7h9-9---------|
C:-------------------------------------------------------------------|
G:-------------------------------------------------------------------|
D:-------------------------------------------------------------------|
 |                                                                   |
d:-------------------------------------------------------------------|
A:-------------------------------------------------------------------|
F:-------------------------------------------------------------------|
C:-------------------------7-----------------------------------------|
G:--9-10-9----------9--------10--9--10--9-7--9--10-7-----------------|
D:---------7-8--------8----------------------------------------------|


d:-------------------------------------------------------------------|
A:-----------------------10------------------------------------------|
F:--11----11----12--11------12-11-12-11-9-11-12--9--7h9-9--11--12----|
C:-------------------------------------------------------------------|
G:-------------------------------------------------------------------|
D:-------------------------------------------------------------------|
 |                                                                   |
d:-------------------------------------------------------------------|
A:-------------------------------------------------------------------|
F:-------------------------------------------------------------------|
C:-----------------------7-------------------------------------------|
G:--9--10-9-----------------10-9--10-9--7-9--10--7---------9--10-9---|
D:-----------7--8----------------------------------------------------|


d:-------------------------------------------------------------------|
A:-------------------12-10----10-------------------------------------|
F:--11----12-14-12---------12----------------------------------------|
C:-------------------------------------------------------------------|
G:--------------------------------6--6-------------------------------|
D:--------------------------------4--4-------------------------------|
 |                                                                   |
d:-------------------------------------------------------------------|
A:-------------------------------------------------------------------|
F:-------------------------------------------------------------------|
C:-------------------9-----------------------------------------------|
G:------------9---------10-9--10--6--6-------------------------------|
D:--7--8--------8-----------------4--4-------------------------------|



(03:02) Riff G

d:-------------------------------------------------------------------|
A:-------------------------------------------------------------------|
F:o------------------------------------------------------------------|
C:o---------------------------------------------------------9--8-----|
G:----------------------------------------------------------7--6-----|
D:---5-8-5-8--4-7-4-7--5-8-5-8--7-10-7-10--5-8-5-8--4-7-4-7----------|

d:-------------------------------------------------------------------|
A:-------------------------------------------------------------------|
F:-------------------------------------------------------------------|
C:------5-4----------------------------------------------------------|
G:--6-6-3-2----------------------------------------------------------|
D:-----------5-8-5-8-4-7-4-7-5-8-5-8-7-10-7-10-5-8-5-8-4-7-4-7--7-10-|

d:-------------------------------------------------------------------|
A:-------------------------------------------------------------------|
F:------------------------------------------------------------------o|
C:-----------6-9----------------------------------------------------o|
G:--8-11-5-8---------------------------------------------------------|
D:-------------------------------------------------------------------|



(04:20) Riff F again



(04:38) Riff A again
9.Midnight Shadows Crawl To Darken Counsel With Life
(00:22) Riff A

d:-------------------------------------------------------------------|
A:-------------------------------------------------------------------|
F:-------------------------------------------------------------------|
C:-------------------------------------------------------------------|
G:---7-7-7-7-7-7-7-7-7-7-7-7-9-7-6-6-6-6-6-6-6-6-6-6-6-6-6-6-8-8-6h8-|
D:---5-5-5-5-5-5-5-5-5-5-5-5-7-5-4-4-4-4-4-4-4-4-4-4-4-4-------------|


d:-------------------------------------------------------------------|
A:-------------------------------------------------------------------|
F:-------------------------------------------------------------------|
C:------------------------------------------------------------6-6-6--|
G:-p6-----3-3-3-3-3-3-3-3-3-3-3-3-5-3-2-2-2-2-2-2-2-2-2-2-2-2--------|
D:----4-4-1-1-1-1-1-1-1-1-1-1-1-1-3-1-0-0-0-0-0-0-0-0-0-0-0-0--------|


d:-------------------------------------------------------------------|
A:-------------------------------------------------------------------|
F:-------------------------------------------------------------------|
C:--7-7-7-6-6p4h6-6--------------------------------------------------|
G:-------------------------------------------------------------------|
D:-------------------------------------------------------------------|



(00:41) Riff B

d:-------------------------------------------------------------------|
A:-------------------------------------------------------------------|
F:--------------------------------------------------8-8-10-10-8h10p8-|
C:---7-7-7-7-7-7-7-7-7-7-7-7-7-7-9-7-6-6-6-6-6-6-6-------------------|
G:--------------------------------------------------6-6-8--8--6-h8p6-|
D:---5-5-5-5-5-5-5-5-5-5-5-5-5-5-7-5-4-4-4-4-4-4-4-------------------|


d:-------------------------------------------------------------------|
A:--------------------------------------------------9-9-9-10-10-10---|
F:-------------------------------------------------------------------|
C:---3-3-3-3-3-3-3-3-3-3-3-3-3-3-5-3-2-2-2-2-2-2-2--6-6-6-7--7--7----|
G:-------------------------------------------------------------------|
D:-4-1-1-1-1-1-1-1-1-1-1-1-1-1-1-3-1-0-0-0-0-0-0-0-------------------|


d:-------------------------------------------------------------------|
A:--9-9-7-7-9-9------------------------------------------------------|
F:-------------------------------------------------------------------|
C:--6-6-4-4-6-6------------------------------------------------------|
G:-------------------------------------------------------------------|
D:-------------------------------------------------------------------|



(01:19) Riff C

d:-------------------------------------------------------------------|
A:-------------------------------------------------------------------|
F:o------------------------------------------------------------------|
C:o--9-9-9-9-9-9-9-9-9-9-9-9-9-9-9-9-8-8-8-8-8-8-8-8-8-8-8-8-8-8-8-8-|
G:---7-7-7-7-7-7-7-7-7-7-7-7-7-7-7-7-6-6-6-6-6-6-6-6-6-6-6-6-6-6-6-6-|
D:-------------------------------------------------------------------|

d:-------------------------------------------------------------------|
A:-------------------------------------------------------------------|
F:------------------------------------------------------------------o|
C:--7-7-7-7-7-7-7-7-7-7-7-7-7-7-7-7-6-6-6-6-6-6-6-6-6-6-6-6-6-6-6-6-o|
G:--5-5-5-5-5-5-5-5-5-5-5-5-5-5-5-5-4-4-4-4-4-4-4-4-4-4-4-4-4-4-4-4--|
D:-------------------------------------------------------------------|



(01:39) Riff D

d:-------------------------------------------------------------------|
A:-------------------------------------------------------------------|
F:o------------------------------------------------------------------|
C:o--------------5-5-4-4-4-4-5-5-5-5-7-7-7-7-5-5-4-4-5-5-5-5---------|
G:---7-7-7-7-7-7---------------------------------------------6-6-6-6-|
D:-------------------------------------------------------------------|


d:-------------------------------------------------------------------|
A:-------------------------------------------------------------------|
F:--------------5-5-4-4-----5-5-4-4-------------5-5-4-4-----5-5-4-4-o|
C:--3-3-3-3-6-6---------6-6---------3-3-3-3-6-6---------6-6---------o|
G:-------------------------------------------------------------------|
D:-------------------------------------------------------------------|



(01:58) Riff E

d:-------------------------------------------------------------------|
A:-------------------------------------------------------------------|
F:---------------3-3-2-2-2-2-3-3-3-3-5-5-5-5-3-3-2-2-3-3-3-3---------|
C:---5-5-5-5-5-5---------------------------------------------4-4-4-4-|
G:-------------------------------------------------------------------|
D:-------------------------------------------------------------------|


d:-------------------------------------------------------------------|
A:-------------------------------------------------------------------|
F:--------------8-8-7-7-----8-8-7-7-------------8-8-7-7-----8-8-7-7--|
C:--6-6-6-6-9-9---------9-9---------6-6-6-6-9-9---------9-9----------|
G:-------------------------------------------------------------------|
D:-------------------------------------------------------------------|


d:-------------------------------------------------------------------|
A:-------------------------------------------------------------------|
F:---------------3-3-2-2-2-2-3-3-3-3-5-5-5-5-3-3-2-2-3-3-3-3---------|
C:---5-5-5-5-5-5---------------------------------------------4-4-4-4-|
G:-------------------------------------------------------------------|
D:-------------------------------------------------------------------|


d:-------------------------------------------------------------------|
A:-------------------------------------------------------------------|
F:--------------8-8-7-7-----8-8-7-7-------------8-8------------------|
C:--6-6-6-6-9-9---------9-9---------6-6-6-6-9-9----------------------|
G:---------------------------------------------------5-6--6-5-5-4----|
D:---------------------------------------------------3-4--4-3-3-2----|



(02:17) Riff F

d:-------------------------------------------------------------------|
A:-------------------------------------------------------------------|
F:-------------------------------------------------------------------|
C:-------------------------------------------------------------------|
G:-------------------------------------------------------------------|
D:---8p0-7p0-7p0-7p0-6p0-7p0-7p0-7p0--8p0-7p0-7p0-7p0-1-2-3-4-6h7-0--|


d:-------------------------------------------------------------------|
A:-------------------------------------------------------------------|
F:-------------------------------------------------------------------|
C:-------------------------------------------------------------------|
G:--------------------------------------------------------8-0-7-0-6--|
D:--4-3--8p0-7p0-7p0-7p0-6p0-7p0-7p0-7p0--8p0-7p0-7p0-7p0------------|


d:-------------------------------------------------------------------|
A:-------------------------------------------------------------------|
F:-------------------------------------------------------------------|
C:-------------------------------------------------------------------|
G:--0-5-0------------------------------------------------------------|
D:-------------------------------------------------------------------|



(03:53) Riff G

d:-------------------------------------------------------------------|
A:-------------------------------------------------------------------|
F:-------------------------------------------------------------------|
C:-------------------------------------------------------------------|
G:-------------------------------------------------------------------|
D:---8p0-7p0-7p0-7p0-6p0-7p0-7p0-7p0--8p0-7p0-7p0-7p0-1-2-3-4-6h7-0--|


d:-------------------------------------------------------------------|
A:-------------------------------------------------------------------|
F:-------------------------------------------------------------------|
C:-------------------------------------------------------------------|
G:--------------------------------------------------------8-0-7-0-6--|
D:--4-3--8p0-7p0-7p0-7p0-6p0-7p0-7p0-7p0--8p0-7p0-7p0-7p0------------|


d:-------------------------------------------------------------------|
A:-------------------------------------------------------------------|
F:-------------------------------------------------------------------|
C:-------------------------------------------------------------------|
G:--0-5-0--7--s1-----------------------------------------------------|
D:-------------------------------------------------------------------|



(04:48) Riff H

d:-------------------------------------------------------------------|
A:-------------------------------------------------------------------|
F:-----10-9-10---10-9-7-5-------5-----7-4-----5-7-5h7p5--------------|
C:---7---------7-----------------------------------------7-5---5-7-7-|
G:-------------------------------------------------------------------|
D:-------------------------------------------------------------------|
 |                                                                   |
d:-------------------------------------------------------------------|
A:------------------------------6h8p6h8-------5-6-5h6p5--------------|
F:-----10-9-10---10-9-7-9---------------7----------------7-4---4-5-5-|
C:---7---------7-----------------------------------------------------|
G:-------------------------------------------------------------------|
D:-------------------------------------------------------------------|


d:-------------------------------------------------------------------|
A:-------------------------------------------------------------------|
F:-----10-9-10---10-9-7-5-------5-----7-4-----5-7-5h7h5--------------|
C:---7---------7-----------------------------------------7-5---5-7-7-|
G:-------------------------------------------------------------------|
D:-------------------------------------------------------------------|
 |                                                                   |
d:-------------------------------------------------------------------|
A:------------------------------6h8p6h8-------5-6-5h6p5--------------|
F:-----10-9-10---10-9-7-9---------------7----------------7-4---4-5-5-|
C:---7---------7-----------------------------------------------------|
G:-------------------------------------------------------------------|
D:-------------------------------------------------------------------|


d:-----------------------|
A:-----------------------|
F:-----10-9-10---10-9-7--|
C:---7---------7---------|
G:-----------------------|
D:-----------------------|
 |                       |
d:-----------------------|
A:-----------------------|
F:-----10-9-10---10-9-7--|
C:---7---------7---------|
G:-----------------------|
D:-----------------------|



(05:10) Riff I

d:-------------------------------------------------------------------|
A:-------------------------------------------------------------------|
F:o------------------------------------------------------------------|
C:o------3-5------3-5------5-----------5--------3-5------3-5------5--|
G:-----5--------5--------5---6-5-6-3-6---6----5--------5--------5----|
D:---3--------3--------4--------------------3--------3--------4------|


d:-------------------------------------------------------------------|
A:-------------------------------------------------------------------|
F:--------4-5-4-----------------------------------------------------o|
C:----5-6-------6-5-6-----------------------------------------------o|
G:--6----------------------------------------------------------------|
D:-------------------------------------------------------------------|



(05:29) Riff J

d:-------------------------------------------------------------------|
A:-------------------------------------------------------------------|
F:o------------------------------------------------------------------|
C:o--11-11-11-11-11-11-11-11-11-11-11-11-10-10-10-10-10-10-10-10-11--|
G:-------------------------------------------------------------------|
D:-------------------------------------------------------------------|
 |                                                                   |
d:-------------------------------------------------------------------|
A:-------------------------------------------------------------------|
F:o--10-10-10-10-10-10-10-10-10-10-10-10-9--9--9--9--9--9--9--9--10--|
C:o------------------------------------------------------------------|
G:-------------------------------------------------------------------|
D:-------------------------------------------------------------------|


d:-------------------------------------------------------------------|
A:-------------------------------------------------------------------|
F:-------------------------------------------------------------------|
C:-11-10-10-------------------------------------10-10-11-11-10-10-10-|
G:----------11-11-11-11-11-11-11-11-11-11-11-11----------------------|
D:-------------------------------------------------------------------|
 |                                                                   |
d:-------------------------------------------------------------------|
A:-------------------------------------------------------------------|
F:-10-9--9-----------------------------------------------------------|
C:----------11-11-11-11-11-11-11-11-11-11-11-11-10-10-11-11-10-10-10-|
G:-------------------------------------------------------------------|
D:-------------------------------------------------------------------|


d:----------------------------------------------|--------------------|
A:----------------------------------------------|--------------------|
F:----------------------------------------------|--------------------|
C:--10-10-10-10-8-8-8-8-10-10-10-10-11-11-11-11-|-11-11-11-11-11-11--|
G:----------------------------------------------|--------------------|
D:----------------------------------------------|--------------------|
 |                                              |                    |
d:----------------------------------------------|--------------------|
A:----------------------------------------------|--------------------|
F:----------------------------------------------|-10-10-10-10-10-10--|
C:--10-10-10-10-8-8-8-8-10-10-10-10-11-11-11-11-|--------------------|
G:----------------------------------------------|--------------------|
D:----------------------------------------------|--------------------|


d:-------------------------------------------------------------------|
A:-------------------------------------------------------------------|
F:-------------------------------------------------------------------|
C:--11-11-11-11-11-11-10-10-10-10-10-10-10-10-11-11-10-10------------|
G:--------------------------------------------------------11-11-11---|
D:-------------------------------------------------------------------|
 |                                                                   |
d:-------------------------------------------------------------------|
A:-------------------------------------------------------------------|
F:--10-10-10-10-10-10-9--9--9--9--9--9--9--9--10-10-9--9-------------|
C:-------------------------------------------------------11-11-11----|
G:-------------------------------------------------------------------|
D:-------------------------------------------------------------------|


d:-------------------------------------------------------------------|
A:-------------------------------------------------------------------|
F:-----------------------------------------------9-9-9-10-12--------o|
C:-----------------------------11-11-11-10-10-10--------------------o|
G:--11-11-11-11-11-11-11-11-11---------------------------------------|
D:-------------------------------------------------------------------|
 |                                                                   |
d:-------------------------------------------------------------------|
A:-------------------------------------------------------------------|
F:-----------------------------------------------9-9-9-10-10-12-----o|
C:--11-11-11-11-11-11-11-11-11-11-11-11-10-10-10--------------------o|
G:-------------------------------------------------------------------|
D:-------------------------------------------------------------------|



(05:48) Riff K

d:-------------------------------------------------------------------|
A:-------------------------------------------------------------------|
F:-------------------------------------------------------------------|
C:------------------------------5------------------------------------|
G:---2------5-3----5-6-5------6---6-5-3-5------2--3-4-5----3-5-6-----|
D:---0----0-3-1----3-4-3------------------3hbr-0--1-2-3----1-3-4-----|


d:-------------------------------------------------------------------|
A:-------------------------------------------------------------------|
F:-------------------------------------------------------------------|
C:----5--------------------------------------5-----------------------|
G:--6---6-5-3-5---2------5-3----5-6-5------6---6-5-3-5------2--3-4-5-|
D:----------------0----0-3-1----3-4-3------------------3hbr-0--1-2-3-|


d:-------------------------------------------------------------------|
A:-------------------------------------------------------------------|
F:-------------------------------------------------------------------|
C:-------------5-----------------------------------------------------|
G:--3-5-6----6---6-5-3-5-5-------------------------------------------|
D:--1-3-4------------------------------------------------------------|



(07:10) Riff L

d:-------------------------------------------------------------------|
A:-------------------------------------------------------------------|
F:-------------------------------------------------------------------|
C:-------------------------------------------------------------0-2-3-|
G:-------------------------------------------1-2---1-2-3-2-3-4-------|
D:---8p0-7p0-7p0-7p0-6p0-7p0-7p0-7p0-1-2-3-4-----4-------------------|
10.Darkness Incarnate
01:17) Riff A

d:-------------------------------------------------------------------|
A:-------------------------------------------------------------------|
F:o------------------------------------------------------------------|
C:o------------------------------------------------------------------|
G:---------8-8-8-7-7-7-8-8-8-------8-8-8-7-7-7-8-8-8-------10-10-10--|
D:---5-5-5-------------------6-6-6-------------------8-8-8-----------|


d:-------------------------------------------------------------------|
A:-------------------------------------------------------------------|
F:-------------------------------------------------------------------|
C:-------------------------------------------------------------------|
G:--8-8-8-7-7-7-8-8-8-10-10-10-8h10p8-7-------8-8-8-7-7-7-8-8-8------|
D:--------------------------------------5-5-5-------------------6-6--|


d:-------------------------------------------------------------------|
A:-------------------------------------------------------------------|
F:-------------------------------------------------------------------|
C:----------------------------------------------------------------7--|
G:----8-8-8-7-7-7-8-8-8-------10-10-10-8-8-8-7-7-7-8-8-8-10-10-10----|
D:--6-------------------8-8-8----------------------------------------|


d:-------------------------------------------------------------------|
A:-------------------------------------------------------------------|
F:------------------------------------------------------------------o|
C:--7-7-------------------------------------------------------------o|
G:------10-10-10-----------------------------------------------------|
D:-------------------------------------------------------------------|



(01:33) Riff B

d:-------------------------------------------------------------------|
A:-------------------------------------------------------------------|
F:-------------------------------------------------------------------|
C:---------------8-8-7-7-7-7-8-8-7-8-10-10-10-10-10-10-10-10-8-8-7-7-|
G:---7-7-7-7-7-7-6-6-5-5-5-5-6-6-5-6-8--8--8--8--8--8--8--8--6-6-5-5-|
D:---5-5-5-5-5-5-----------------------------------------------------|


d:-------------------------------------------------------------------|
A:-------------------------------------------------------------------|
F:-------------------------------------------------------------------|
C:--8-8-10-10--------------8-8-7-7-7-7-8-8-7-8-10-10-10-10-10-10-10--|
G:--6-6-8--8---7-7-7-7-7-7-6-6-5-5-5-5-6-6-5-6-8--8--8--8--8--8--8---|
D:-------------5-5-5-5-5-5-------------------------------------------|


d:-------------------------------------------------------------------|
A:-------------------------------------------------------------------|
F:-------------------------------------------------------------------|
C:--10-10-10-10-10-9-9-9-9-------------------------------------------|
G:--8--8--8--8--8--7-7-7-7-------------------------------------------|
D:-------------------------------------------------------------------|



(01:59) Riff C

d:-------------------------------------------------------------------|
A:-------------------------------------------------------------------|
F:-------------------------------------------------------------------|
C:---10---7----6----4------------------------------------------------|
G:---8----5----4----2------------------------------------------------|
D:-------------------------------------------------------------------|



(02:01) Riff D

d:-------------------------------------------------------------------|
A:-------------------------------------------------------------------|
F:o------------------------------------------------------------------|
C:o------------------------------------------------------------------|
G:---2-2-5p2---2-2-5p2--2-2-5p2--3-3-5p3--2-2-5p2---2-2-5p2--3-3-5-5-|
D:-------------------------------------------------------------------|


d:-------------------------------------------------------------------|
A:-------------------------------------------------------------------|
F:------------------------------------------------------------------o|
C:------------------------------------------------------------------o|
G:--3-3-2-2----------------------------------------------------------|
D:-------------------------------------------------------------------|



(02:11) Riff E

d:-------------------------------------------------------------------|
A:-------------------------------------------------------------------|
F:-------------------------------------------------------------------|
C:---9--9--9--7--10--9--9--9--12--10-9--9--9--7--10--8--7------------|
G:---7--7--7--5--8---7--7--7--10--8--7--7--7--5--8---6--5--2-2-2-3---|
D:-------------------------------------------------------------------|


d:-------------------------------------------------------------------|
A:-------------------------------------------------------------------|
F:------------------------------------------------------------------o|
C:--9--9--9--7--10--9--9--9--12--10--9--9--9--7--10--9--5---8---6---o|
G:--7--7--7--5--8---7--7--7--10--8---7--7--7--5--8---7--3---6---4----|
D:-------------------------------------------------------------------|



(02:20) Riff F

d:-------------------------------------------------------------------|
A:-------------------------------------------------------------------|
F:-------------------------------------------------------------------|
C:---7---------7---------6---------6---------------------------------|
G:---5-5-5-5-5-5-5-5-5-5-4-4-4-4-4-4--6-5-8----------8--4-3-2-3------|
D:------------------------------------4-3-6--6-6-6-6-6--2-1-0-1------|


d:-------------------------------------------------------------------|
A:-------------------------------------------------------------------|
F:-------------------------------------------------------------------|
C:---7---------7---------6---------6---------------------------------|
G:---5-5-5-5-5-5-5-5-5-5-4-4-4-4-4-4--6-5-8----------8--4-3-2-3-4-3--|
D:------------------------------------4-3-6--6-6-6-6-6--2-1-0-1-2-1--|


d:-------------------------------------------------------------------|
A:-------------------------------------------------------------------|
F:-------------------------------------------------------------------|
C:-------------------------------------------------------------------|
G:-------------------------------------------------------------------|
D:--0-0-0-0----------------------------------------------------------|



(03:49) Riff G

d:-------------------------------------------------------------------|
A:-------------------------------------------------------------------|
F:o-----------------------------------------------------------------o|
C:o---------9-9-9-9-8-8-8-8-8-8-8-8---------------------------------o|
G:----------7-7-7-7-6-6-6-6-6-6-6-6-5-5-5-5-5-5-5-5-6-6-6-6-6-6-6-6--|
D:--0-0-0-0-------------------------3-3-3-3-3-3-3-3-4-4-4-4-4-4-4-4--|



(04:08) Riff H

d:-------------------------------------------------------------------|
A:-------------------------------------------------------------------|
F:o-----------------------------------------------------------------o|
C:o-----------------------------------------------------------------o|
G:----------7-7-7-7---6-6-6-6-6-6-6----------------------------------|
D:--0-0-0-0---------0---------------3-3-3-3-3-3-3-3-4-4-4-4-4-4-4-4--|



(04:44) Riff I

d:-------------------------------------------------------------------|
A:-------------------------------------------------------------------|
F:o-----------------------------------------------------------------o|
C:o-----------------------------------------------------------------o|
G:---2--3--4--3--2--3--4--3--2--3--4--3--2-3--4-3-2-3----------------|
D:---0--1--2--1--0--1--2--1--0--1--2--1--0-1--2-1-0-1----------------|


d:-------------------------------------------------------------------|
A:-------------------------------------------------------------------|
F:-------------------------------------------------------------------|
C:---------------------------------------5-4-------------------------|
G:---2--3--4--3--2--3--4--3--2--3--4--3--3-2-4-3----------4-8-6-7----|
D:---0--1--2--1--0--1--2--1--0--1--2--1------2-1--4-4-4-4-2-6-4-5----|



(05:04) Riff J

d:-------------------------------------------------------------------|
A:-------------------------------------------------------------------|
F:-------------------------------------------------------------------|
C:-------------------------------------------------------------------|
G:---------8-8-8-7-7-7-8-8-8-------8-8-8-7-7-7-8-8-8-------10-10-10--|
D:---5-5-5-------------------6-6-6-------------------8-8-8-----------|


d:-------------------------------------------------------------------|
A:-------------------------------------------------------------------|
F:-------------------------------------------------------------------|
C:-------------------------------------------------------------------|
G:--8-8-8-7-7-7-8-8-8-10-10-10-8h10p8-7-------8-8-8-7-7-7-8-8-8------|
D:--------------------------------------5-5-5-------------------6-6--|


d:-------------------------------------------------------------------|
A:-------------------------------------------------------------------|
F:-------------------------------------------------------------------|
C:----------------------------------------------------------------7--|
G:----8-8-8-7-7-7-8-8-8-------10-10-10-8-8-8-7-7-7-8-8-8-10-10-10----|
D:--6-------------------8-8-8----------------------------------------|


d:-------------------------------------------------------------------|
A:-------------------------------------------------------------------|
F:-------------------------------------------------------------------|
C:--7-7--------------------------------------------------------------|
G:------10-10-10-------8-8-8-7-7-7-8-8-8-------8-8-8-7-7-7-8-8-8-----|
D:---------------5-5-5-------------------6-6-6-------------------8-8-|


d:-------------------------------------------------------------------|
A:-------------------------------------------------------------------|
F:-------------------------------------------------------------------|
C:-------------------------------------------------------------------|
G:----8-8-8-7-7-7-8-8-8-10-10-10-8h10p8-7-------8-8-8-7-7-7-8-8-8----|
D:--8-------------------------------------5-5-5-------------------6--|


d:-------------------------------------------------------------------|
A:-------------------------------------------------------------------|
F:-------------------------------------------------------------------|
C:-------------------------------------------------------------------|
G:------8-8-8-7-7-7-8-8-8-------10-10-10-8-8-8-7-7-7--7--------------|
D:--6-6-------------------8-8-8-----------------------5--------------|



(06:38) Riff K

d:-------------------------------------------------------------------|
A:-------------------------------------------------------------------|
F:------------5---3--------------------------------------------------|
C:---2--------5---3----2--------5---3--------------------------------|
G:---2--------3---1----2--------5---3--------3-3---------------------|
D:---0-----------------0--------3---1--------1-1---------------------|



(06:56) Riff L

d:-------------------------------------------------------------------|
A:-------------------------------------------------------------------|
F:o------------------------------------------------------------------|
C:o------------------------------------------------------------------|
G:---5-8-7-5--5-5-5-5-5-8-7-5--5-5-5-7-8-7-8--8-8-8-8-10-8-7-8-10-8--|
D:---3-6-5-3--3-3-3-3-3-6-5-3--3-3-3-5-6-5-6--6-6-6-6-8--6-5-6-8--6--|


d:-------------------------------------------------------------------|
A:-------------------------------------------------------------------|
F:------------------------------------------------------------------o|
C:------------------------------------------------------------------o|
G:---6-5-------------------------------------------------------------|
D:---6-5-------------------------------------------------------------|



(07:15) Riff M

d:-------------------------------------------------------------------|
A:-------------------------------------------------------------------|
F:-------------------------------------------------------------------|
C:-------------------------------------------------------------------|
G:---5-8-7-5----5-8-7-5--7-8---10-8-7-8-10-8--6-5--------------------|
D:---3-6-5-3----3-6-5-3--5-6---8--6-5-6-8--6--6-5--------------------|



(07:34) Riff N

d:-------------------------------------------------------------------|
A:-------------------------------------------------------------------|
F:o-----------5---3-------------------------------------------------o|
C:o--2--------5---3----2--------5---3-------------------------------o|
G:---2--------3---1----2--------5---3--------3-3---------------------|
D:---0-----------------0--------3---1--------1-1---------------------|
12.Godspeed On The Devils Thunder
00:17) Riff A

d:-------------------------------------------------------------------|
A:-------------------------------------------------------------------|
F:o------------------------------------------------------------------|
C:o------------------------------------------------------------------|
G:---5-5-5-5-5-5-5-3-5-5-5-5--5-5-5-5-5-5-3-5-5-5-6-6----------------|
D:----------------------------------------------------6-6-6-6-6-8-8--|


d:-------------------------------------------------------------------|
A:-------------------------------------------------------------------|
F:-------------------------------------------------------------------|
C:-------------------------------------------------------------------|
G:----------------------------------------8-8-8-8-8-6-8-8-8-8-8-8-10-|
D:--6-6-8-8-8-8-6-6-6-6-6-8-8-6-6-8-8-8-8----------------------------|


d:-------------------------------------------------------------------|
A:-------------------------------------------------------------------|
F:-------------------------------------------------------------------|
C:-------------------------------------------------------------------|
G:--10-10-10-10-8-10-10-10-10--12-12-12-12-12-12-13p12-12-12-12-12---|
D:-------------------------------------------------------------------|


d:-------------------------------------------------------------------|
A:-------------------------------------------------------------------|
F:------------------------------------------------------------------o|
C:------------------------------------------------------------------o|
G:--10-10-10-10-10-10-10-10-8-10-8-----------------------------------|
D:-------------------------------------------------------------------|



(00:34) Riff B

d:-------------------------------------------------------------------|
A:-------------------------------------------------------------------|
F:-------------------------------------------------------------------|
C:-------------------------------------------------------------------|
G:---7s8-7-2------2-----2-----7s8-7-8-9-9s10s9-8s9s8-----------------|
D:---5s6-5-0--0-0-0-0-0-0-0-0-5s6-5-6-7-7s8-s7-6s7s6-----------------|



(00:53) Riff C

d:-------------------------------------------------------------------|
A:-------------------------------------------------------------------|
F:o------------------------------------------------------------------|
C:o--12-12-12-12-12-12-12-12-10-10-10-10-12-12-12-12-10-10-10-10-10--|
G:-------------------------------------------------------------------|
D:-------------------------------------------------------------------|


d:-------------------------------------------------------------------|
A:-------------------------------------------------------------------|
F:-------------------------------------------------------------------|
C:--10-10-10-13-13-13-13-10-10-10-10--12-12-12-12-12-12-12-12-10-10--|
G:-------------------------------------------------------------------|
D:-------------------------------------------------------------------|


d:-------------------------------------------------------------------|
A:-------------------------------------------------------------------|
F:--------------------------------10-10-10-10-10-10-9-9--------------|
C:--10-10-12-12-12-12-10-10-10-10------------------------------------|
G:-------------------------------------------------------------------|
D:-------------------------------------------------------------------|


d:-------------------------------------------------------------------|
A:-------------------------------------------------------------------|
F:-------------------------------------------------------------------|
C:---12-12-12-12-12-12-12-12-10-10-10-10-12-12-12-12-10-10-10-10-10--|
G:-------------------------------------------------------------------|
D:-------------------------------------------------------------------|


d:-------------------------------------------------------------------|
A:-------------------------------------------------------------------|
F:-------------------------------------------------------------------|
C:--10-10-10-13-13-13-13-10-10-10-10--12-12-12-12-12-12-12-12-10-10--|
G:-------------------------------------------------------------------|
D:-------------------------------------------------------------------|


d:-------------------------------------------------------------------|
A:-------------------------------------------------------------------|
F:------------------------------------------------------------------o|
C:--10-10-12-12-12-12-10-10-10-10-8-8-8-8-8-8-7-7-------------------o|
G:-------------------------------------------------------------------|
D:-------------------------------------------------------------------|



(01:10) Riff D

d:-------------------------------------------------------------------|
A:-------------------------------------------------------------------|
F:-------------------------------------------------------------------|
C:---5-------------4---------------5--------------4------------------|
G:---3--5--6--5--6-2--3h5--3--5--6-3--5--6--5--6--2--5s6-5-5-5-3-2---|
D:---------------------------------------------------3s4-3-3-3-1-0---|



(02:35) Riff E

d:-------------------------------------------------------------------|
A:-------------------------------------------------------------------|
F:o-----------------------------------------------------------------o|
C:o--9/-----------------7/------------------------------------------o|
G:---7/-----------------5/-----------------7--5--7--8----------------|
D:------0-0-0-0-0-0-0-0----0-0-0-0-0-0-0-0-------------8--6----------|



(03:09) Riff F

d:-------------------------------------------------------------------|
A:-------------------------------------------------------------------|
F:-------------------------------------------------------------------|
C:---9-9-9--9-9-9-------------5--------------------------------------|
G:---7-7-7--7-7-7----2--------3--------2--------3-----------2--------|
D:-------------------0-----------------0--------1----1-3p1--0--------|


d:-------------------------------------------------------------------|
A:-------------------------------------------------------------------|
F:-------------------------------------------------------------------|
C:--5-----------------5-5-5--5-5-5-----------------------------------|
G:--3--------2--------3-3-3--3-3-3-----------------------------------|
D:-----------0-------------------------------------------------------|


(03:25) Riff G

d:-------------------------------------------------------------------|
A:-------------------------------------------------------------------|
F:o------------------------------------------------------------------|
C:o--9--9--9--9--9--9--4-4-4-5--5--5--5--5--5--9--9--9--9--9--9------|
G:---7--7--7--7--7--7--2-2-2-3--3--3--3--3--3--7--7--7--7--7--7--8---|
D:-------------------------------------------------------------------|


d:-------------------------------------------------------------------|
A:-------------------------------------------------------------------|
F:------------------------------------------------------------------o|
C:----10---------10-------------------------------------------------o|
G:--8----8--8--8----8------------------------------------------------|
D:-------------------------------------------------------------------|



(04:49) Riff H

d:-------------------------------------------------------------------|
A:-------------------------------------------------------------------|
F:---7--5h7-7--10p7-10-10--9--10--7~~--10-9-10~---12-10-12~----14----|
C:-------------------------------------------------------------------|
G:-------------------------------------------------------------------|
D:-------------------------------------------------------------------|


d:-------------------------------------------------------------------|
A:------------------10-8---------------------------------------------|
F:--12h14p12-10-12-------10-9----------------------------------------|
C:-------------------------------------------------------------------|
G:-------------------------------------------------------------------|
D:-------------------------------------------------------------------|



(05:05) Riff I

d:-------------------------------------------------------------------|
A:-------------------------------------------------------------------|
F:-------------------------------------------------------------------|
C:---7----5----7--8--7----10-----8--7----5----7--8--7----5----3--8s7-|
G:---5----3----5--6--5----8----6-6--5----3----5--6--5----3----1--6s5-|
D:-----------------------------6-------------------------------------|


d:-------------------------------------------------------------------|
A:-------------------------------------------------------------------|
F:-------------------------------------------------------------------|
C:---5----7--8--7----7s8----10-8--7----5----7--8--7----7s8----7--10--|
G:---3----5--6--5----5s6----8--6--5----3----5--6--5----5s6----5--8---|
D:-------------------------------------------------------------------|


d:-------------------------------------------------------------------|
A:-------------------------------------------------------------------|
F:-------------------------------------------------------------------|
C:---9---------------------------------------------------------------|
G:---7---------------------------------------------------------------|
D:---0---------------------------------------------------------------|
comments
We did not receive enough feedback on this tab! Please rate:
print report bad tab
1 2 3 4 5
2 comments total.
0 reply
Chaz-6(sic)6 wrote on September 10 2009, 01:03 pm

I Gave You 4 Stars Because "Ten Leagues Beneath Contempt" Is Missing.
And You Didn't Give Me Credit For Using My "THE DEATH OF LOVE" Tab.
Good Overall.

0 reply
chasef wrote on September 13 2009, 01:07 pm

sorry man ill edit it out so i give you credit...there is a tab for Ten Leagues Beneath Contempt but its not very correct lol

I want to post or [tab]
guest
You may want to rate the tab now too:
select rating
Please do not post tabs as comments. Select "correction" instead!