Oops, an error
Loading. Please wait.

Godspeed On The Devils Thunder Tab

ver1
ver1

Album

Whole song

More versions @911Tabs.com
1,730 views 1 this week
no commentswrite comment
1 2 3 4 5
excellent!
x 2
Autoscroll
+/-
esc
set tempo
stop
Contributor
WARNING: You are trying to view
                                    content from Ultimate-Guitar.com
                                    in an unauthorized application,
                                    which is prohibited.

                                    Please use an official Ultimate
                                    Guitar Tabs application for iPhone,
                                    iPad or Android to access legitimate
                                    chords, guitar, bass, and drum tabs
                                    from Ultimate-Guitar.com database.

                                    Type "ultimate guitar tabs" in Apple
                                    App Store's or Android Market's
                                    search to find the application.
Cralde of Filth
Godspeed on the Devil's thunder
Godspeed on the Devil's thunder



use the comments option for corrections/suggestions thanks!

v1.0 November 2008



(00:17) Riff A

d:-------------------------------------------------------------------|
A:-------------------------------------------------------------------|
F:o------------------------------------------------------------------|
C:o------------------------------------------------------------------|
G:---5-5-5-5-5-5-5-3-5-5-5-5--5-5-5-5-5-5-3-5-5-5-6-6----------------|
D:----------------------------------------------------6-6-6-6-6-8-8--|


d:-------------------------------------------------------------------|
A:-------------------------------------------------------------------|
F:-------------------------------------------------------------------|
C:-------------------------------------------------------------------|
G:----------------------------------------8-8-8-8-8-6-8-8-8-8-8-8-10-|
D:--6-6-8-8-8-8-6-6-6-6-6-8-8-6-6-8-8-8-8----------------------------|


d:-------------------------------------------------------------------|
A:-------------------------------------------------------------------|
F:-------------------------------------------------------------------|
C:-------------------------------------------------------------------|
G:--10-10-10-10-8-10-10-10-10--12-12-12-12-12-12-13p12-12-12-12-12---|
D:-------------------------------------------------------------------|


d:-------------------------------------------------------------------|
A:-------------------------------------------------------------------|
F:------------------------------------------------------------------o|
C:------------------------------------------------------------------o|
G:--10-10-10-10-10-10-10-10-8-10-8-----------------------------------|
D:-------------------------------------------------------------------|



(00:34) Riff B

d:-------------------------------------------------------------------|
A:-------------------------------------------------------------------|
F:-------------------------------------------------------------------|
C:-------------------------------------------------------------------|
G:---7s8-7-2------2-----2-----7s8-7-8-9-9s10s9-8s9s8-----------------|
D:---5s6-5-0--0-0-0-0-0-0-0-0-5s6-5-6-7-7s8-s7-6s7s6-----------------|



(00:53) Riff C

d:-------------------------------------------------------------------|
A:-------------------------------------------------------------------|
F:o------------------------------------------------------------------|
C:o--12-12-12-12-12-12-12-12-10-10-10-10-12-12-12-12-10-10-10-10-10--|
G:-------------------------------------------------------------------|
D:-------------------------------------------------------------------|


d:-------------------------------------------------------------------|
A:-------------------------------------------------------------------|
F:-------------------------------------------------------------------|
C:--10-10-10-13-13-13-13-10-10-10-10--12-12-12-12-12-12-12-12-10-10--|
G:-------------------------------------------------------------------|
D:-------------------------------------------------------------------|


d:-------------------------------------------------------------------|
A:-------------------------------------------------------------------|
F:--------------------------------10-10-10-10-10-10-9-9--------------|
C:--10-10-12-12-12-12-10-10-10-10------------------------------------|
G:-------------------------------------------------------------------|
D:-------------------------------------------------------------------|


d:-------------------------------------------------------------------|
A:-------------------------------------------------------------------|
F:-------------------------------------------------------------------|
C:---12-12-12-12-12-12-12-12-10-10-10-10-12-12-12-12-10-10-10-10-10--|
G:-------------------------------------------------------------------|
D:-------------------------------------------------------------------|


d:-------------------------------------------------------------------|
A:-------------------------------------------------------------------|
F:-------------------------------------------------------------------|
C:--10-10-10-13-13-13-13-10-10-10-10--12-12-12-12-12-12-12-12-10-10--|
G:-------------------------------------------------------------------|
D:-------------------------------------------------------------------|


d:-------------------------------------------------------------------|
A:-------------------------------------------------------------------|
F:------------------------------------------------------------------o|
C:--10-10-12-12-12-12-10-10-10-10-8-8-8-8-8-8-7-7-------------------o|
G:-------------------------------------------------------------------|
D:-------------------------------------------------------------------|



(01:10) Riff D

d:-------------------------------------------------------------------|
A:-------------------------------------------------------------------|
F:-------------------------------------------------------------------|
C:---5-------------4---------------5--------------4------------------|
G:---3--5--6--5--6-2--3h5--3--5--6-3--5--6--5--6--2--5s6-5-5-5-3-2---|
D:---------------------------------------------------3s4-3-3-3-1-0---|



(02:35) Riff E

d:-------------------------------------------------------------------|
A:-------------------------------------------------------------------|
F:o-----------------------------------------------------------------o|
C:o--9/-----------------7/------------------------------------------o|
G:---7/-----------------5/-----------------7--5--7--8----------------|
D:------0-0-0-0-0-0-0-0----0-0-0-0-0-0-0-0-------------8--6----------|



(03:09) Riff F

d:-------------------------------------------------------------------|
A:-------------------------------------------------------------------|
F:-------------------------------------------------------------------|
C:---9-9-9--9-9-9-------------5--------------------------------------|
G:---7-7-7--7-7-7----2--------3--------2--------3-----------2--------|
D:-------------------0-----------------0--------1----1-3p1--0--------|


d:-------------------------------------------------------------------|
A:-------------------------------------------------------------------|
F:-------------------------------------------------------------------|
C:--5-----------------5-5-5--5-5-5-----------------------------------|
G:--3--------2--------3-3-3--3-3-3-----------------------------------|
D:-----------0-------------------------------------------------------|


(03:25) Riff G

d:-------------------------------------------------------------------|
A:-------------------------------------------------------------------|
F:o------------------------------------------------------------------|
C:o--9--9--9--9--9--9--4-4-4-5--5--5--5--5--5--9--9--9--9--9--9------|
G:---7--7--7--7--7--7--2-2-2-3--3--3--3--3--3--7--7--7--7--7--7--8---|
D:-------------------------------------------------------------------|


d:-------------------------------------------------------------------|
A:-------------------------------------------------------------------|
F:------------------------------------------------------------------o|
C:----10---------10-------------------------------------------------o|
G:--8----8--8--8----8------------------------------------------------|
D:-------------------------------------------------------------------|



(04:49) Riff H

d:-------------------------------------------------------------------|
A:-------------------------------------------------------------------|
F:---7--5h7-7--10p7-10-10--9--10--7~~--10-9-10~---12-10-12~----14----|
C:-------------------------------------------------------------------|
G:-------------------------------------------------------------------|
D:-------------------------------------------------------------------|


d:-------------------------------------------------------------------|
A:------------------10-8---------------------------------------------|
F:--12h14p12-10-12-------10-9----------------------------------------|
C:-------------------------------------------------------------------|
G:-------------------------------------------------------------------|
D:-------------------------------------------------------------------|



(05:05) Riff I

d:-------------------------------------------------------------------|
A:-------------------------------------------------------------------|
F:-------------------------------------------------------------------|
C:---7----5----7--8--7----10-----8--7----5----7--8--7----5----3--8s7-|
G:---5----3----5--6--5----8----6-6--5----3----5--6--5----3----1--6s5-|
D:-----------------------------6-------------------------------------|


d:-------------------------------------------------------------------|
A:-------------------------------------------------------------------|
F:-------------------------------------------------------------------|
C:---5----7--8--7----7s8----10-8--7----5----7--8--7----7s8----7--10--|
G:---3----5--6--5----5s6----8--6--5----3----5--6--5----5s6----5--8---|
D:-------------------------------------------------------------------|


d:-------------------------------------------------------------------|
A:-------------------------------------------------------------------|
F:-------------------------------------------------------------------|
C:---9---------------------------------------------------------------|
G:---7---------------------------------------------------------------|
D:---0---------------------------------------------------------------|



comments
We did not receive enough feedback on this tab! Please rate:
print report bad tab
1 2 3 4 5
I want to post or [tab]
guest
You may want to rate the tab now too:
select rating
Please do not post tabs as comments. Select "correction" instead!