Oops, an error
Loading. Please wait.

Harlot On A Pedestal Tab

321 views 1 this week
no commentswrite comment
1 2 3 4 5
excellent!
x 1
Autoscroll
+/-
esc
set tempo
stop
Contributor
Difficulty
Tuning
intermediate
D G C F A D
WARNING: You are trying to view
                                    content from Ultimate-Guitar.com
                                    in an unauthorized application,
                                    which is prohibited.

                                    Please use an official Ultimate
                                    Guitar Tabs application for iPhone,
                                    iPad or Android to access legitimate
                                    chords, guitar, bass, and drum tabs
                                    from Ultimate-Guitar.com database.

                                    Type "ultimate guitar tabs" in Apple
                                    App Store's or Android Market's
                                    search to find the application.
CRADLE OF FILTH

HARLOT ON A PEDESTAL

DGCFAD

tabbed by-andherembrace


------------------------------------------------------------------|
------------------------------------------------------------------|
------------------------------------------------------------------|
------------------------------------------------------------------|
4444444444444444666666666666666677777777777777776666666688888888--|
------------------------------------------------------------------|
****************************************************************

----------------------------------------------------------------|
----------------------------------------------------------------|
----------------------------------------------------------------|
----------------------------------------------------------------|
7777777777777777999999999999999910101010101010101010101010101010|
----------------------------------------------------------------|
******************************** * * * * * * * * * * * * * * * *

-------------------|
-------------------|
-------------------|
-------------------|
-9999999988888888--|
-------------------|

------------------------------------------------------------------|
------------------------------------------------------------------|
------------------------------------------------------------------|
------------------------------------------------------------------|
4444444444444444666666666666666677777777777777776666666688888888--|
------------------------------------------------------------------|
****************************************************************

----------------------------------------------------------------|
----------------------------------------------------------------|
----------------------------------------------------------------|
----------------------------------------------------------------|
7777777777777777999999999999999910101010101010101010101010101010|
----------------------------------------------------------------|
******************************** * * * * * * * * * * * * * * * *

-------------------|
-------------------|
-------------------|
-------------------|
-9999999988888888--|
-------------------|


0:20

---------------------------------------------------------------|
---------------------------------------------------------------|
----------------^---------------------------^------------------|
-6----8-9-8----9-8-----------6----8-9-8----9-8-----------------|
-4----6/7-6----7-6-7---10----4----6/7-6----7-6-7----3-3-3-4-3--|
-------------------5----8----------------------5----1-1-1-2-1--|

------------------------------------------------------------------|
------------------------------------------------------------------|
----------------^---------------------------^---------------------|
-6----8-9-8----9-8-----------6----8-9-8----9-8--------------------|
-4----6/7-6----7-6-7---10----4----6/7-6----7-6-3----4-3-4-3-4-5-4-|
-------------------5----8----------------------1----2\1-2-1-2/3-2-|




---------------------------------------------------------------|
---------------------------------------------------------------|
---------------------------------------------------------------|
---------------------------------------------------------------|
-6--------------7--------------10-------------10-9-9-7-7-6-6-4-|
-4-444444444444-5-444444444444-8--444444444444-8\7-7\5-5\4-4\2-|
   ************   ************    ************       
     
------------------------------------------------------------|
------------------------------------------------------------|
------------------------------------------------------------|
------------------------------------------------------------|
-6--------------7--------------10--------------7-6-----9-9--|
-4-444444444444-5-444444444444-8--444444444444-5\4-000-7-7--|
   ************   ************    ************     ***
        
-------------------------------------------------------------|
-------------------------------------------------------------|
-------------------------------------------------------------|
-------------------------------------------------------------|
-6-------------7-------------10------------10-9-9-7-7-6-6-4--|
-4-444-444-444-5-444-444-444-8--444-444-444-8\7-7\5-5\4-4\2--|
   *** *** ***   *** *** ***    *** *** ***       
     
---------------------------------------------------------|
---------------------------------------------------------|
---------------------------------------------------------|
---------------------------------------------------------|
-6-------------7-------------10-------------7-6-----9-9--|
-4-444-444-444-5-444-444-444-8--444-444-444-5\4-000-7-7--|
   *** *** ***   *** *** ***    *** *** ***     ***
     



----------------------------------------------------------------------|
----------------------------------------------------------------------|
----------------------------------------------------------------------|
-14141414141414141414141415151514141413131313131313131313131313131313-|
-12121212121212121212121213131312121211111111111111111111111111111111-|
----------------------------------------------------------------------|

--------------------------------------------|
--------------------------------------------|
--------------------------------------------|
-9999999999999999888888888899151515151515---|
-7777777777777777666666666677131313131313---|
--------------------------------------------|

----------------------------------------------------------------------|
----------------------------------------------------------------------|
----------------------------------------------------------------------|
-14141414141414141414141415151514141413131313131313131313131313131313-|
-12121212121212121212121213131312121211111111111111111111111111111111-|
----------------------------------------------------------------------|

--------------------------------------------|
--------------------------------------------|
--------------------------------------------|
-9999999999999999888888888899151515151515---|
-7777777777777777666666666677131313131313---|
--------------------------------------------|

----------------------------------------------------------------------|
----------------------------------------------------------------------|
----------------------------------------------------------------------|
-14141414141414141414141415151514141413131313131313131313131313131313-|
-12121212121212121212121213131312121211111111111111111111111111111111-|
----------------------------------------------------------------------|

--------------------------------------------|
--------------------------------------------|
--------------------------------------------|
-9999999999999999888888888899151515151515---|
-7777777777777777666666666677131313131313---|
--------------------------------------------|

----------------------------------------------------------------------|
----------------------------------------------------------------------|
----------------------------------------------------------------------|
-14141414141414141414141415151514141413131313131313131313131313131313-|
-12121212121212121212121213131312121211111111111111111111111111111111-|
----------------------------------------------------------------------|

--------------------------------------------|
--------------------------------------------|
--------------------------------------------|
-9999999999999999888888888899151515151515---|
-7777777777777777666666666677131313131313---|
--------------------------------------------|


------------------------------------------------------------------|
------------------------------------------------------------------|
------------------------------------------------------------------|
------------------------------------------------------------------|
4444444444444444666666666666666677777777777777776666666688888888--|
------------------------------------------------------------------|
****************************************************************

----------------------------------------------------------------|
----------------------------------------------------------------|
----------------------------------------------------------------|
----------------------------------------------------------------|
7777777777777777999999999999999910101010101010101010101010101010|
----------------------------------------------------------------|
******************************** * * * * * * * * * * * * * * * *

-------------------|
-------------------|
-------------------|
-------------------|
-9999999988888888--|
-------------------|

------------------------------------------------------------------|
------------------------------------------------------------------|
------------------------------------------------------------------|
------------------------------------------------------------------|
4444444444444444666666666666666677777777777777776666666688888888--|
------------------------------------------------------------------|
****************************************************************

----------------------------------------------------------------|
----------------------------------------------------------------|
----------------------------------------------------------------|
----------------------------------------------------------------|
7777777777777777999999999999999910101010101010101010101010101010|
----------------------------------------------------------------|
******************************** * * * * * * * * * * * * * * * *

-------------------|
-------------------|
-------------------|
-------------------|
-9999999988888888--|
-------------------|


---------------------------------------------------------------|
---------------------------------------------------------------|
----------------^---------------------------^------------------|
-6----8-9-8----9-8-----------6----8-9-8----9-8-----------------|
-4----6/7-6----7-6-7---10----4----6/7-6----7-6-7----3-3-3-4-3--|
-------------------5----8----------------------5----1-1-1-2-1--|

------------------------------------------------------------------|
------------------------------------------------------------------|
----------------^---------------------------^---------------------|
-6----8-9-8----9-8-----------6----8-9-8----9-8--------------------|
-4----6/7-6----7-6-7---10----4----6/7-6----7-6-3----4-3-4-3-4-5-4-|
-------------------5----8----------------------1----2\1-2-1-2/3-2-|





1                                           
--------------------------------------------|
T--^-T--^-T--^-T--^--T-^---T--^--T--^--T--^-|
8-45-8-45-8-45-8-45-11-45-11-45-11-45-11-45-|
--------------------------------------------|
--------------------------------------------|
--------------------------------------------|
   T--^--T--^--T--^--T--^
--11-78-11-78-11-78-11-78/20---19--17--19\|
------------------------------------------|
------------------------------------------|
------------------------------------------|
------------------------------------------|
------------------------------------------|
2
---------------------------------------------------------------|
---------------------------------------------------------------|
---------------------------------------------------------------|
---------------------------------------------------------------|
-6--------------7--------------10-------------10-9-9-7-7-6-6-4-|
-4-444444444444-5-444444444444-8--444444444444-8\7-7\5-5\4-4\2-|
   ************   ************    ************       

1 
---------------------------------------------------------------|
/13-12----12--------------)--)-ph------------------------------|
-------14----14-12-11-12-14-15-12---------8----------ph--------|
-----------------------------------7-9-10---10-9-7-9-7-~fade---|
---------------------------------------------------------------|
---------------------------------------------------------------|
2
------------------------------------------------------------|
------------------------------------------------------------|
------------------------------------------------------------|
------------------------------------------------------------|
-6--------------7--------------10--------------7-6-----9-9--|
-4-444444444444-5-444444444444-8--444444444444-5\4-000-7-7--|
   ************   ************    ************     ***
   
1
------------------------------------------------|
------------------------------------------------|
-----------------------------------8-9-8--------|
---4-5-4----------9-10-9-------9-10-----10-9-10-|
5-6-----6-5-6-9-10------10-9-10-----------------|
------------------------------------------------|
cont
---------------------------|
---^----^---^----^---^---^-|
-12-0-11-0-9-0-11-0-9-0-8-0|
---------------------------|
---------------------------|
---------------------------|
2
-------------------------------------------------------------|
-------------------------------------------------------------|
-------------------------------------------------------------|
-------------------------------------------------------------|
-6-------------7-------------10------------10-9-9-7-7-6-6-4--|
-4-444-444-444-5-444-444-444-8--444-444-444-8\7-7\5-5\4-4\2--|
   *** *** ***   *** *** ***    *** *** ***       

1
------------------------------------------|
-------------------------12-13-12---------|
13--------13--------13-14--------14-13-14-|
--14-13-14--14-13-14----------------------|
------------------------------------------|
------------------------------------------|
cont.
----------------------------------------|
13--------13-----------------------10~~~|
--14-13-14--14-13\9------------9-13-----|
--------------------10-9---9-10---------|
------------------------12--------------|
----------------------------------------|

2  
---------------------------------------------------------|
---------------------------------------------------------|
---------------------------------------------------------|
---------------------------------------------------------|
-6-------------7-------------10-------------7-6-----9-9--|
-4-444-444-444-5-444-444-444-8--444-444-444-5\4-000-7-7--|
   *** *** ***   *** *** ***    *** *** ***     ***
     



1
------------------------------------------------------------------------|
-13--12---10--------13--12--10--------13--12--10-------13--12--10-------|
---9---9----9-11-12---9---9---9-11-12---9---9---9-11-12--9---9---9-11-12|
------------------------------------------------------------------------|
------------------------------------------------------------------------|
------------------------------------------------------------------------|
2
------------------------------------------------------------------------|
------------------------------------------------------------------------|
------------------------------------------------------------------------|
------------------------------7--5--------------------------------5--7--|
-2-------------------4--5--4--5--3--------------------------------3--5--|
-0-------------------2--3--2--5--3--------------------------------3--5--|


1
------------------------------------------------------------------------|
-13--12---10--------13--12--10--------13--12--10-------13--12--10-------|
---9---9----9-11-12---9---9---9-11-12---9---9---9-11-12--9---9---9-11-12|
------------------------------------------------------------------------|
------------------------------------------------------------------------|
------------------------------------------------------------------------|
2
------------------------------------------------------------------------|
------------------------------------------------------------------------|
------------------------------------------------------------------------|
------------------------------7--5--------------------------------5--7--|
-2-------------------4--5--4--5--3--------------------------------3--5--|
-0-------------------2--3--2--5--3--------------------------------3--5--|



1
------------------------------------------------------------------------|
-13--12---10--------13--12--10--------13--12--10-------13--12--10-------|
---9---9----9-11-12---9---9---9-11-12---9---9---9-11-12--9---9---9-11-12|
------------------------------------------------------------------------|
------------------------------------------------------------------------|
------------------------------------------------------------------------|
2
------------------------------------------------------------------------|
------------------------------------------------------------------------|
------------------------------------------------------------------------|
------------------------------7--5--------------------------------5--7--|
-2-------------------4--5--4--5--3--------------------------------3--5--|
-0-------------------2--3--2--5--3--------------------------------3--5--|


1
------------------------------------------------------------------------|
-13--12---10--------13--12--10--------13--12--10-------13--12--10-------|
---9---9----9-11-12---9---9---9-11-12---9---9---9-11-12--9---9---9-11-12|
------------------------------------------------------------------------|
------------------------------------------------------------------------|
------------------------------------------------------------------------|
2
---------------------------------------------------------------------|
---------------------------------------------------------------------|
---------------------------------------------------------------------|
-----------------------------7--5-----------------5----------5-5-7-7-|
-2------------------4--5--4--5--3-----------------3----------3-3-5-5-|
-0--00000000000000--2--3--2--5--3--33333333333333-3--333333--3-3-5-5-|
    **************                 **************    ******


1
------------------------------------------------------------------------|
-13--12---10--------13--12--10--------13--12--10-------13--12--10-------|
---9---9----9-11-12---9---9---9-11-12---9---9---9-11-12--9---9---9-11-12|
------------------------------------------------------------------------|
------------------------------------------------------------------------|
------------------------------------------------------------------------|
2
------------------------------------------------------------------------|
------------------------------------------------------------------------|
------------------------------------------------------------------------|
------------------------------7--5--------------------------------5--7--|
-2-------------------4--5--4--5--3--------------------------------3--5--|
-0-------------------2--3--2--5--3--------------------------------3--5--|


1
---------------------------------------|
13--12--10-------13--12--10------------|
--9---9---9-11-12--9---9---9-11-12-12--|
---------------------------------------|
---------------------------------------|
---------------------------------------|
cont
-------------------------------------------|
-----------------------/\------------------|
--14-12-14--16-14-16-141614-16-17-16-14-16-|
-------------------------------------------|
-------------------------------------------|
-------------------------------------------|

2
---------------------------------------------------------------------|
---------------------------------------------------------------------|
---------------------------------------------------------------------|
-----------------------------7--5-----------------5----------5-5-7-7-|
-2------------------4--5--4--5--3-----------------3----------3-3-5-5-|
-0--00000000000000--2--3--2--5--3--33333333333333-3--333333--3-3-5-5-|
    **************                 **************    ******

----------------------------------------------------------------------|
----------------------------------------------------------------------|
----------------------------------------------------------------------|
-14141414141414141414141415151514141413131313131313131313131313131313-|
-12121212121212121212121213131312121211111111111111111111111111111111-|
----------------------------------------------------------------------|

--------------------------------------------|
--------------------------------------------|
--------------------------------------------|
-9999999999999999888888888899151515151515---|
-7777777777777777666666666677131313131313---|
--------------------------------------------|

----------------------------------------------------------------------|
----------------------------------------------------------------------|
----------------------------------------------------------------------|
-14141414141414141414141415151514141413131313131313131313131313131313-|
-12121212121212121212121213131312121211111111111111111111111111111111-|
----------------------------------------------------------------------|

--------------------------------------------|
--------------------------------------------|
--------------------------------------------|
-9999999999999999888888888899151515151515---|
-7777777777777777666666666677131313131313---|
--------------------------------------------|

----------------------------------------------------------------------|
----------------------------------------------------------------------|
----------------------------------------------------------------------|
-14141414141414141414141415151514141413131313131313131313131313131313-|
-12121212121212121212121213131312121211111111111111111111111111111111-|
----------------------------------------------------------------------|

--------------------------------------------|
--------------------------------------------|
--------------------------------------------|
-9999999999999999888888888899151515151515---|
-7777777777777777666666666677131313131313---|
--------------------------------------------|

----------------------------------------------------------------------|
----------------------------------------------------------------------|
----------------------------------------------------------------------|
-14141414141414141414141415151514141413131313131313131313131313131313-|
-12121212121212121212121213131312121211111111111111111111111111111111-|
----------------------------------------------------------------------|

--------------------------------------------|
--------------------------------------------|
--------------------------------------------|
-9999999999999999888888888899151515151515---|
-7777777777777777666666666677131313131313---|
--------------------------------------------|



---------------------------------------------------------------|
---------------------------------------------------------------|
----------------^---------------------------^------------------|
-6----8-9-8----9-8-----------6----8-9-8----9-8-----------------|
-4----6/7-6----7-6-7---10----4----6/7-6----7-6-7----3-3-3-4-3--|
-------------------5----8----------------------5----1-1-1-2-1--|

------------------------------------------------------------------|
------------------------------------------------------------------|
----------------^---------------------------^---------------------|
-6----8-9-8----9-8-----------6----8-9-8----9-8--------------------|
-4----6/7-6----7-6-7---10----4----6/7-6----7-6-3----4-3-4-3-4-5-4-|
-------------------5----8----------------------1----2\1-2-1-2/3-2-|




---------------------------------------------------------------|
---------------------------------------------------------------|
---------------------------------------------------------------|
---------------------------------------------------------------|
-6--------------7--------------10-------------10-9-9-7-7-6-6-4-|
-4-444444444444-5-444444444444-8--444444444444-8\7-7\5-5\4-4\2-|
   ************   ************    ************       
     
------------------------------------------------------------|
------------------------------------------------------------|
------------------------------------------------------------|
------------------------------------------------------------|
-6--------------7--------------10--------------7-6-----9-9--|
-4-444444444444-5-444444444444-8--444444444444-5\4-000-7-7--|
   ************   ************    ************     ***
        
-------------------------------------------------------------|
-------------------------------------------------------------|
-------------------------------------------------------------|
-------------------------------------------------------------|
-6-------------7-------------10------------10-9-9-7-7-6-6-4--|
-4-444-444-444-5-444-444-444-8--444-444-444-8\7-7\5-5\4-4\2--|
   *** *** ***   *** *** ***    *** *** ***       
     
---------------------------------------------------------|
---------------------------------------------------------|
---------------------------------------------------------|
---------------------------------------------------------|
-6-------------7-------------10-------------7-6-----9-9--|
-4-444-444-444-5-444-444-444-8--444-444-444-5\4-000-7-7--|
   *** *** ***   *** *** ***    *** *** ***     ***
     

---------------------------------------------------------------|
---------------------------------------------------------------|
---------------------------------------------------------------|
---------------------------------------------------------------|
-6--------------7--------------10-------------10-9-9-7-7-6-6-4-|
-4-444444444444-5-444444444444-8--444444444444-8\7-7\5-5\4-4\2-|
   ************   ************    ************       
     
------------------------------------------------------------|
------------------------------------------------------------|
------------------------------------------------------------|
------------------------------------------------------------|
-6--------------7--------------10--------------7-6-----9-9--|
-4-444444444444-5-444444444444-8--444444444444-5\4-000-7-7--|
   ************   ************    ************     ***
        
-------------------------------------------------------------|
-------------------------------------------------------------|
-------------------------------------------------------------|
-------------------------------------------------------------|
-6-------------7-------------10------------10-9-9-7-7-6-6-4--|
-4-444-444-444-5-444-444-444-8--444-444-444-8\7-7\5-5\4-4\2--|
   *** *** ***   *** *** ***    *** *** ***       
     
---------------------------------------------------------|
---------------------------------------------------------|
---------------------------------------------------------|
---------------------------------------------------------|
-6-------------7-------------10-------------7-6-----9-9--|
-4-444-444-444-5-444-444-444-8--444-444-444-5\4-000-7-7--|
   *** *** ***   *** *** ***    *** *** ***     ***
     
comments
We did not receive enough feedback on this tab! Please rate:
print report bad tab
1 2 3 4 5
I want to post or [tab]
guest
You may want to rate the tab now too:
select rating
Please do not post tabs as comments. Select "correction" instead!