Oops, an error
Loading. Please wait.

Honey And Sulphur Tab

ver1
ver1

Whole song

Interactive

More versions @911Tabs.com
7,012 views 3 this week
2 commentsread comments
1 2 3 4 5
excellent!
x 7
add to favorites launch autoscroll
font size
0
reset
Autoscroll
+/-
esc
set tempo
stop
Contributor
WARNING: You are trying to view
                                    content from Ultimate-Guitar.com
                                    in an unauthorized application,
                                    which is prohibited.

                                    Please use an official Ultimate
                                    Guitar Tabs application for iPhone,
                                    iPad or Android to access legitimate
                                    chords, guitar, bass, and drum tabs
                                    from Ultimate-Guitar.com database.

                                    Type "ultimate guitar tabs" in Apple
                                    App Store's or Android Market's
                                    search to find the application.
Cradle of Filth
Honey & Sulphur
Godspeed on the Devil's thunder


use the comments option for corrections/suggestions thanks!

v1.0 October 2008



(00:19) Riff A

d:-------------------------------------------------------------------|
A:-------------------------------------------------------------------|
F:----------------------------------------------------11-------------|
C:----------------9/---------------7-7-7--------------11-------------|
G:----------------7/---------------5-5-5--------------9---7-7-7-7-8--|
D:---0-0-0--0-0-0-----0-0-0--0-0-0-------0-0-0--0-0-0-----5-5-5-5-6--|


d:-------------------------------------------------------------------|
A:-------------------------------------------------------------------|
F:-------------------------------------------------------------------|
C:---------------------------9----------------7-7-7--------------7/--|
G:--5-5-5-5-7----------------7----------------5-5-5--------------6/--|
D:--3-3-3-3-5---0-0-0--0-0-0-----0-0-0--0-0-0-------0-0-0--0-0-0-----|


d:-------------------------------------------------------------------|
A:-------------------------------------------------------------------|
F:-------------------------------------------------------------------|
C:-------------------------------------------------------------------|
G:--2-2-2-2-3-2-2-2-2-3----------------------------------------------|
D:--0-0-0-0-1-0-0-0-0-1----------------------------------------------|



(00:38) Riff B

d:-------------------------------------------------------------------|
A:-------------------------------------------------------------------|
F:----------------------------------------------------11-------------|
C:----------------9/---------------7-7-7--------------11-------------|
G:----------------7/---------------5-5-5--------------9---7-7-7-7-8--|
D:---0-0-0--0-0-0-----0-0-0--0-0-0-------0-0-0--0-0-0-----5-5-5-5-6--|


d:-------------------------------------------------------------------|
A:-------------------------------------------------------------------|
F:---------------------------------------------------------------11--|
C:---------------------------9----------------7-7-7--------------11--|
G:--5-5-5-5-7----------------7----------------5-5-5--------------9---|
D:--3-3-3-3-5---0-0-0--0-0-0-----0-0-0--0-0-0-------0-0-0--0-0-0-----|


d:-------------------------------------------------------------------|
A:-------------------------------------------------------------------|
F:-------------------------------------------------------------------|
C:-------------------------------------------------------------------|
G:--2-2-2-2-3-2-2-2-2-3----------------------------------------------|
D:--0-0-0-0-1-0-0-0-0-1----------------------------------------------|



(00:57) Riff C

d:-------------------------------------------------------------------|
A:-------------------------------------------------------------------|
F:-------------------------------------------------------------------|
C:-------------------9-9-9-9-------------------------8-8-8-8---------|
G:---7-7-7-7-7-7-7-7---------7-7-7-7-8-8-8-8-8-8-8-8---------8-8-8-8-|
D:-------------------------------------------------------------------|


d:-------------------------------------------------------------------|
A:-------------------------------------------------------------------|
F:-------------------------------------------------------------------|
C:-----------------------------------------------------9-9-9-9-------|
G:-------------------------------------7-7-7-7-7-7-7-7---------7-7-7-|
D:--5-8-5-8-4-7-4-7-5-8-5-8-7-10-7-10--------------------------------|


d:-------------------------------------------------------------------|
A:-------------------------------------------------------------------|
F:-------------------------------------------------------------------|
C:--------------------8-8-8-8----------------------------------------|
G:--7-8-8-8-8-8-8-8-8---------8-8-8-8--------------------------------|
D:------------------------------------5-8-5-8-4-7-4-7-7-10-7-10-5-8--|


d:-------------------------------------------------------------------|
A:-------------------------------------------------------------------|
F:-------------------------------------------------------------------|
C:-----------------------9-9-9-9-------------------------8-8-8-8-----|
G:-------7-7-7-7-7-7-7-7---------7-7-7-7-8-8-8-8-8-8-8-8---------8-8-|
D:--4-7--------------------------------------------------------------|


d:-------------------------------------------------------------------|
A:-------------------------------------------------------------------|
F:-------------------------------------------------------------------|
C:--------------------------------------------------------9-9-9-9----|
G:--8-8-----------------------------------7-7-7-7-7-7-7-7------------|
D:------5-8-5-8-4-7-4-7-5-8-5-8-7-10-7-10----------------------------|


d:-------------------------------------------------------------------|
A:-------------------------------------------------------------------|
F:-------------------------------------------------------------------|
C:--------------------------8-8-8-8----------------------------------|
G:--7-7-7-7-8-8-8-8-8-8-8-8---------8-8-8-8--------------------------|
D:------------------------------------------5-8-5-8-4-7-4-7-7-10-5-8-|


d:-------------------------------------------------------------------|
A:-------------------------------------------------------------------|
F:-------------------------------------------------------------------|
C:-------------------------------------------------------------------|
G:-------------------------------------------------------------------|
D:--4----------------------------------------------------------------|



(01:17) Riff D

d:-------------------------------------------------------------------|
A:-------------------------------------------------------------------|
F:o-----------------------------------------------------------------o|
C:o-----------------------------------------------------------------o|
G:---3-4-7-6----------------3-4-7-6----7-5------5---4~---------------|
D:---1-2-5-4----------------1-2-5-4----5-3----3---3------------------|



(01:55) Riff E

d:-------------------------------------------------------------------|
A:-------------------------------------------------------------------|
F:o-----------------------------------------------------------------o|
C:o-----------------------------------------------------------------o|
G:-------------------------------------------------------------------|
D:---4-4-4-4-5-5-5-5-7-7-7-7-8-8-8-8-7-7-7-7-8-8-8-8-7-7-7-7-5-5-5-5-|



(02:05) Riff F

d:-------------------------------------------------------------------|
A:-------------------------------------------------------------------|
F:-------------------------------------------------------------------|
C:----------------9/---------------7-7-7--------------8--------------|
G:----------------7/---------------5-5-5--------------6---7-7-7-7-8--|
D:---0-0-0--0-0-0-----0-0-0--0-0-0-------0-0-0--0-0-0-----5-5-5-5-6--|


d:-------------------------------------------------------------------|
A:-------------------------------------------------------------------|
F:-------------------------------------------------------------------|
C:---------------------------9----------------8-8-8--------------8-8-|
G:--5-5-5-5-7----------------7----------------6-6-6--------------6-6-|
D:--3-3-3-3-5---0-0-0--0-0-0-----0-0-0--0-0-0-------0-0-0--0-0-0-----|


d:-------------------------------------------------------------------|
A:-------------------------------------------------------------------|
F:-------------------------------------------------------------------|
C:--8----------------------------------------------------------------|
G:--6--2-2-2-2-3-2-2-2-2-3-------------------------------------------|
D:-----0-0-0-0-1-0-0-0-0-1-------------------------------------------|



(02:15) Riff A again



(02:24) Riff E

d:-------------------------------------------------------------------|
A:-------------------------------------------------------------------|
F:o------------------------------------------------------------------|
C:o--9----------------5----------------9----------------5------------|
G:---7----2-2-2-2-2-2-3----5-5-5-5-5-5-7----2-2-2-2-2-2-3--3-3-3-3---|
D:-------------------------------------------------------------------|


d:-------------------------------------------------------------------|
A:-------------------------------------------------------------------|
F:------7------------------------------------------------------------|
C:------5------------------------------------------------------------|
G:--3-3--------------------------------------------------------------|
D:--------0-0-0--0-0-0-----------------------------------------------|



(02:43) Riff F

d:-------------------------------------------------------------------|
A:---------------------------------10--------------------------------|
F:---9--7h9-9--11----11---12--11------12-11-12-11-9-11-12-9--7h9-9---|
C:-------------------------------------------------------------------|
G:-------------------------------------------------------------------|
D:-------------------------------------------------------------------|
 |                                                                   |
d:-------------------------------------------------------------------|
A:-------------------------------------------------------------------|
F:-------------------------------------------------------------------|
C:---------------------------------7---------------------------------|
G:---7---------9--10-9----------------10-9--10-9--7-9--10-7----------|
D:----------------------7--8-----------------------------------------|


d:-------------------------------------------------------------------|
A:-------------------------13-12-10-12-10----10----------------------|
F:--11--12--11--12-14-12------------------12----12-9---7h9-9---------|
C:-------------------------------------------------------------------|
G:-------------------------------------------------------------------|
D:-------------------------------------------------------------------|
 |                                                                   |
d:-------------------------------------------------------------------|
A:-------------------------------------------------------------------|
F:-------------------------------------------------------------------|
C:-------------------------7-----------------------------------------|
G:--9-10-9----------9--------10--9--10--9-7--9--10-7-----------------|
D:---------7-8--------8----------------------------------------------|


d:-------------------------------------------------------------------|
A:-----------------------10------------------------------------------|
F:--11----11----12--11------12-11-12-11-9-11-12--9--7h9-9--11--12----|
C:-------------------------------------------------------------------|
G:-------------------------------------------------------------------|
D:-------------------------------------------------------------------|
 |                                                                   |
d:-------------------------------------------------------------------|
A:-------------------------------------------------------------------|
F:-------------------------------------------------------------------|
C:-----------------------7-------------------------------------------|
G:--9--10-9-----------------10-9--10-9--7-9--10--7---------9--10-9---|
D:-----------7--8----------------------------------------------------|


d:-------------------------------------------------------------------|
A:-------------------12-10----10-------------------------------------|
F:--11----12-14-12---------12----------------------------------------|
C:-------------------------------------------------------------------|
G:--------------------------------6--6-------------------------------|
D:--------------------------------4--4-------------------------------|
 |                                                                   |
d:-------------------------------------------------------------------|
A:-------------------------------------------------------------------|
F:-------------------------------------------------------------------|
C:-------------------9-----------------------------------------------|
G:------------9---------10-9--10--6--6-------------------------------|
D:--7--8--------8-----------------4--4-------------------------------|



(03:02) Riff G

d:-------------------------------------------------------------------|
A:-------------------------------------------------------------------|
F:o------------------------------------------------------------------|
C:o---------------------------------------------------------9--8-----|
G:----------------------------------------------------------7--6-----|
D:---5-8-5-8--4-7-4-7--5-8-5-8--7-10-7-10--5-8-5-8--4-7-4-7----------|

d:-------------------------------------------------------------------|
A:-------------------------------------------------------------------|
F:-------------------------------------------------------------------|
C:------5-4----------------------------------------------------------|
G:--6-6-3-2----------------------------------------------------------|
D:-----------5-8-5-8-4-7-4-7-5-8-5-8-7-10-7-10-5-8-5-8-4-7-4-7--7-10-|

d:-------------------------------------------------------------------|
A:-------------------------------------------------------------------|
F:------------------------------------------------------------------o|
C:-----------6-9----------------------------------------------------o|
G:--8-11-5-8---------------------------------------------------------|
D:-------------------------------------------------------------------|



(04:20) Riff F again



(04:38) Riff A again

comments
print report bad tab
2 comments total.
0 reply
TopicOfTheDay wrote on February 3 2009, 02:05 pm

Good tab....
Fun to play...
Always loved Cradle of Filth

0 reply
joshuaray31 wrote on May 20 2009, 10:03 am

can some 1 geme a tip message me?

I want to post or [tab]
guest
You may want to rate the tab now too:
select rating
Please do not post tabs as comments. Select "correction" instead!