Oops, an error
Loading. Please wait.

Huge Onyx Wings Behind Despair Tab

293 views 1 this week
no commentswrite comment
1 2 3 4 5
excellent!
x 2
Autoscroll
+/-
esc
set tempo
stop
Contributor
Difficulty
Tuning
intermediate
D G C F A D
Hey! There's an official Ultimate Guitar app which is ideal
for learning songs when you're away from computer. Get the app
WARNING: You are trying to view
                                    content from Ultimate-Guitar.com
                                    in an unauthorized application,
                                    which is prohibited.

                                    Please use an official Ultimate
                                    Guitar Tabs application for iPhone,
                                    iPad or Android to access legitimate
                                    chords, guitar, bass, and drum tabs
                                    from Ultimate-Guitar.com database.

                                    Type "ultimate guitar tabs" in Apple
                                    App Store's or Android Market's
                                    search to find the application.
CRADLE OF FILTH

HUGE ONYX WINGS BEHIND DESPAIR

DGCFAD

TABBED BY andherembrace



-----------------------------------------------------------|
-----------------------------------------------------------|
-----------------------------------------------------------|
-7777777777777777777777771010101010101010-7777777777777777-|
-555555555555555555555555-8-8-8-8-8-8-8-8-5555555555555555-|
-----------------------------------------------------------|

----------------------------------------------------------------------------|
----------------------------------------------------------------------------|
----------------------------------------------------------------------------|
10101010-9999-7777-5555-----------------------------------------------------|
-8-8-8-8-7777-5555-3333-66666666666666666666666666666666-8-8-8-8-----3-3-3--|
------------------------44444444444444444444444444444444-6-6-6-6-000-1-1-1--|
                                                                 ***

-----------------------------------------------------------|
-----------------------------------------------------------|
-----------------------------------------------------------|
-7777777777777777777777771010101010101010-7777777777777777-|
-555555555555555555555555-8-8-8-8-8-8-8-8-5555555555555555-|
-----------------------------------------------------------|

----------------------------------------------------------------------------|
----------------------------------------------------------------------------|
----------------------------------------------------------------------------|
10101010-9999-7777-5555-----------------------------------------------------|
-8-8-8-8-7777-5555-3333-66666666666666666666666666666666-8-8-8-8-----3-3-3--|
------------------------44444444444444444444444444444444-6-6-6-6-000-1-1-1--|
                                                                 ***





0:26

------------------------------------------------------------|
------------------------------------------------------------|
------------------------------------------------------------|
-----------------------------_------------------------------|
-2-------3-2----------------/ \----6------5-6--5------------|
-0-------1-0-----------1-3-1-3-1-0-4------3-4--3--1--1--1-1-|
                                                  *  *  * *


------------------------------------------------------------|
------------------------------------------------------------|
------------------------------------------------------------|
-----------------------------_------------------------------|
-2-------3-2----------------/ \----6------5-6--5------------|
-0-------1-0-----------1-3-1-3-1-0-4------3-4--3--1--1--1-1-|
                                                  *  *  * *

0:43

-------------------------------------------------------------------|
-------------------------------------------------------------------|
-------------------------------------------------------------------|
-------------------------------------------------------------------|
-------------------------------------------------------------------|
-0-0-0-0-0-0-0-0-1-0-0-0-0-0-0-0-1-3-3-3-3-1-1-1-1-0-0-0-0-1-1-3-3-|


-----------------------------------------------------------|
-----------------------------------------------------------|
-----------------------------------------------------------|
-----------------------------------------------------------|
--------------------------------------------------9-9-8-8--|
-4-4-4-4-3-3-3-3-4-4-4-4-1-1-3-3-4-4-4-4-3-3-3-3--7-7-6-6--|




-------------------------------------------------------------------|
-------------------------------------------------------------------|
-------------------------------------------------------------------|
-------------------------------------------------------------------|
-------------------------------------------------------------------|
-0-0-0-0-0-0-0-0-1-0-0-0-0-0-0-0-1-3-3-3-3-1-1-1-1-0-0-0-0-1-1-3-3-|


-----------------------------------------------------------|
-----------------------------------------------------------|
-----------------------------------------------------------|
-----------------------------------------------------------|
--------------------------------------------------9-9-8-8--|
-4-4-4-4-3-3-3-3-4-4-4-4-1-1-3-3-4-4-4-4-3-3-3-3--7-7-6-6--|



1:01

---------------------------------------------------|
---------------------------------------------------|
---------------------------------------------------|
4-3---------4---3---4--4-3-------------------------|
4-3---------4---3---4--4-3-------------------------|
2-1-0-0-0-0-2-0-1-0-2--2-1-0-0-0-0-0-0-0-0-0-0-0-0-|
    * * * *   *   *        * * * * * * * * * * * *

-------------------------------------------------|
-------------------------------------------------|
-------------------------------------------3-3---|
4-3---------4---3---4--4-3-----------------3-3---|
4-3---------4---3---4--4-3-----------------1-1---|
2-1-0-0-0-0-2-0-1-0-2--2-1-0-0-0-0-0-0-0-0-------|
    * * * *   *   *        * * * * * * * * 


---------------------------------------------------|
---------------------------------------------------|
---------------------------------------------------|
4-3---------4---3---4--4-3-------------------------|
4-3---------4---3---4--4-3-------------------------|
2-1-0-0-0-0-2-0-1-0-2--2-1-0-0-0-0-0-0-0-0-0-0-0-0-|
    * * * *   *   *        * * * * * * * * * * * *

-------------------------------------------------|
-------------------------------------------------|
-------------------------------------------3-3---|
4-3---------4---3---4--4-3-----------------3-3---|
4-3---------4---3---4--4-3-----------------1-1---|
2-1-0-0-0-0-2-0-1-0-2--2-1-0-0-0-0-0-0-0-0-------|
    * * * *   *   *        * * * * * * * * 

1:18

-----------------------------------------------------------|
-----------------------------------------------------------|
-----------------------------------------------------------|
-7777777777777777777777771010101010101010-7777777777777777-|
-555555555555555555555555-8-8-8-8-8-8-8-8-5555555555555555-|
-----------------------------------------------------------|

----------------------------------------------------------------------------|
----------------------------------------------------------------------------|
----------------------------------------------------------------------------|
10101010-9999-7777-5555-----------------------------------------------------|
-8-8-8-8-7777-5555-3333-66666666666666666666666666666666-8-8-8-8-----3-3-3--|
------------------------44444444444444444444444444444444-6-6-6-6-000-1-1-1--|
                                                                 ***

-----------------------------------------------------------|
-----------------------------------------------------------|
-----------------------------------------------------------|
-7777777777777777777777771010101010101010-7777777777777777-|
-555555555555555555555555-8-8-8-8-8-8-8-8-5555555555555555-|
-----------------------------------------------------------|

----------------------------------------------------------------------------|
----------------------------------------------------------------------------|
----------------------------------------------------------------------------|
10101010-9999-7777-5555-----------------------------------------------------|
-8-8-8-8-7777-5555-3333-66666666666666666666666666666666-8-8-8-8-----3-3-3--|
------------------------44444444444444444444444444444444-6-6-6-6-000-1-1-1--|
                                                                 ***



1:36

------------------------------------------------------------|
------------------------------------------------------------|
------------------------------------------------------------|
-----------------------------_------------------------------|
-2-------3-2----------------/ \----6------5-6--5------------|
-0-------1-0-----------1-3-1-3-1-0-4------3-4--3--1--1--1-1-|
                                                  *  *  * *


------------------------------------------------------------|
------------------------------------------------------------|
------------------------------------------------------------|
-----------------------------_------------------------------|
-2-------3-2----------------/ \----6------5-6--5------------|
-0-------1-0-----------1-3-1-3-1-0-4------3-4--3--1--1--1-1-|
                                                  *  *  * *



2:02

-------------------------------------------------------------------|
-------------------------------------------------------------------|
-------------------------------------------------------------------|
-------------------------------------------------------------------|
-------------------------------------------------------------------|
-0-0-0-0-0-0-0-0-1-0-0-0-0-0-0-0-1-3-3-3-3-1-1-1-1-0-0-0-0-1-1-3-3-|


-------------------------------------------------------------|
-------------------------------------------------------------|
-------------------------------------------------------------|
-------------------------------------------------------------|
--------------------------------------------------9-9--8-8---|
-4-4-4-4-3-3-3-3-4-4-4-4-1-1-3-3-4-4-4-4-3-3-3-3--7-7--6-6---|




2:11


---------------------------------------------------|
---------------------------------------------------|
---------------------------------------------------|
4-3---------4---3---4--4-3-------------------------|
4-3---------4---3---4--4-3-------------------------|
2-1-0-0-0-0-2-0-1-0-2--2-1-0-0-0-0-0-0-0-0-0-0-0-0-|
    * * * *   *   *        * * * * * * * * * * * *

-------------------------------------------------|
-------------------------------------------------|
-------------------------------------------3-3---|
4-3---------4---3---4--4-3-----------------3-3---|
4-3---------4---3---4--4-3-----------------1-1---|
2-1-0-0-0-0-2-0-1-0-2--2-1-0-0-0-0-0-0-0-0-------|
    * * * *   *   *        * * * * * * * * 

---------------------------------------------------|
---------------------------------------------------|
---------------------------------------------------|
4-3---------4---3---4--4-3-------------------------|
4-3---------4---3---4--4-3-------------------------|
2-1-0-0-0-0-2-0-1-0-2--2-1-0-0-0-0-0-0-0-0-0-0-0-0-|
    * * * *   *   *        * * * * * * * * * * * *

-------------------------------------------------|
-------------------------------------------------|
-------------------------------------------3-3---|
4-3---------4---3---4--4-3-----------------3-3---|
4-3---------4---3---4--4-3-----------------1-1---|
2-1-0-0-0-0-2-0-1-0-2--2-1-0-0-0-0-0-0-0-0-------|
    * * * *   *   *        * * * * * * * * 

2:28

---------------------------------------------------------------|
---------------------------------------------------------------|
---------------------------------------------------------------|
---------------------------------------------------------------|
-5-4----------8----7--8-7-5-4----------5-4---4-----5-4---4---8-|
-3-2----------6----5--6-5-3-2----------3\2-0-2-230-3\2-0-2-0-6-|
                                           *   ***     *   *
---------------------------------------------------------------|
---------------------------------------------------------------|
---------------------------------------------------------------|
---------------------------------------------------------------|
-5-4----------8----7--8-7-5-4----------5-4---4-----5-4---4---8-|
-3-2----------6----5--6-5-3-2----------3\2-0-2-230-3\2-0-2-0-6-|
                                           *   ***     *   *



2:46
-----------------------------------------------------------------|
-----------------------------------------------------------------|
-----------------------------------------------------------------|
-----------------------------------------------------------------|
-----------------------------------------------------------------|
2222222222223322333333333333223322222222222233223333666655553333-|

------------------------------------------------------------|
------------------------------------------------------------|
------------------------------------------------------------|
------------------------------------------------------------|
-------------------------------------------------8-7---5-7--|
555555555555665566666666666655665555555555556655-6\5-0-3-5--|
                                                     *


-----------------------------------------------------------------|
-----------------------------------------------------------------|
-----------------------------------------------------------------|
-----------------------------------------------------------------|
-----------------------------------------------------------------|
2222222222223322333333333333223322222222222233223333666655553333-|

------------------------------------------------------------|
------------------------------------------------------------|
------------------------------------------------------------|
------------------------------------------------------------|
-------------------------------------------------8-7---5-7--|
555555555555665566666666666655665555555555556655-6\5-0-3-5--|
                                                     *


3:02


-----------------------------------------------------------|
-----------------------------------------------------------|
-----------------------------------------------------------|
-7777777777777777777777771010101010101010-7777777777777777-|
-555555555555555555555555-8-8-8-8-8-8-8-8-5555555555555555-|
-----------------------------------------------------------|

----------------------------------------------------------------------------|
----------------------------------------------------------------------------|
----------------------------------------------------------------------------|
10101010-9999-7777-5555-----------------------------------------------------|
-8-8-8-8-7777-5555-3333-66666666666666666666666666666666-8-8-8-8-----3-3-3--|
------------------------44444444444444444444444444444444-6-6-6-6-000-1-1-1--|
                                                                 ***

-----------------------------------------------------------|
-----------------------------------------------------------|
-----------------------------------------------------------|
-7777777777777777777777771010101010101010-7777777777777777-|
-555555555555555555555555-8-8-8-8-8-8-8-8-5555555555555555-|
-----------------------------------------------------------|

----------------------------------------------------------------------------|
----------------------------------------------------------------------------|
----------------------------------------------------------------------------|
10101010-9999-7777-5555-----------------------------------------------------|
-8-8-8-8-7777-5555-3333-66666666666666666666666666666666-8-8-8-8-----3-3-3--|
------------------------44444444444444444444444444444444-6-6-6-6-000-1-1-1--|
                                                                 ***

3:21



------------------------------------------------------------|
------------------------------------------------------------|
------------------------------------------------------------|
-----------------------------_------------------------------|
-2-------3-2----------------/ \----6------5-6--5------------|
-0-------1-0-----------1-3-1-3-1-0-4------3-4--3--1--1--1-1-|
                                                  *  *  * *


------------------------------------------------------------|
------------------------------------------------------------|
------------------------------------------------------------|
-----------------------------_------------------------------|
-2-------3-2----------------/ \----6------5-6--5------------|
-0-------1-0-----------1-3-1-3-1-0-4------3-4--3--1--1--1-1-|
                                                  *  *  * *


3:38

-------------------------------------------------------------------|
-------------------------------------------------------------------|
-------------------------------------------------------------------|
-------------------------------------------------------------------|
-------------------------------------------------------------------|
-0-0-0-0-0-0-0-0-1-0-0-0-0-0-0-0-1-3-3-3-3-1-1-1-1-0-0-0-0-1-1-3-3-|


-------------------------------------------------------------|
-------------------------------------------------------------|
-------------------------------------------------------------|
-------------------------------------------------------------|
--------------------------------------------------9-9--8-8---|
-4-4-4-4-3-3-3-3-4-4-4-4-1-1-3-3-4-4-4-4-3-3-3-3--7-7--6-6---|


-------------------------------------------------------------------|
-------------------------------------------------------------------|
-------------------------------------------------------------------|
-------------------------------------------------------------------|
-------------------------------------------------------------------|
-0-0-0-0-0-0-0-0-1-0-0-0-0-0-0-0-1-3-3-3-3-1-1-1-1-0-0-0-0-1-1-3-3-|


-------------------------------------------------------------|
-------------------------------------------------------------|
-------------------------------------------------------------|
-------------------------------------------------------------|
--------------------------------------------------9-9-8-8----|
-4-4-4-4-3-3-3-3-4-4-4-4-1-1-3-3-4-4-4-4-3-3-3-3--7-7-6-6----|



3:56

---------------------------------------------------|
---------------------------------------------------|
---------------------------------------------------|
4-3---------4---3---4--4-3-------------------------|
4-3---------4---3---4--4-3-------------------------|
2-1-0-0-0-0-2-0-1-0-2--2-1-0-0-0-0-0-0-0-0-0-0-0-0-|
    * * * *   *   *        * * * * * * * * * * * *

-------------------------------------------------|
-------------------------------------------------|
-------------------------------------------3-3---|
4-3---------4---3---4--4-3-----------------3-3---|
4-3---------4---3---4--4-3-----------------1-1---|
2-1-0-0-0-0-2-0-1-0-2--2-1-0-0-0-0-0-0-0-0-------|
    * * * *   *   *        * * * * * * * * 

---------------------------------------------------|
---------------------------------------------------|
---------------------------------------------------|
4-3---------4---3---4--4-3-------------------------|
4-3---------4---3---4--4-3-------------------------|
2-1-0-0-0-0-2-0-1-0-2--2-1-0-0-0-0-0-0-0-0-0-0-0-0-|
    * * * *   *   *        * * * * * * * * * * * *

-------------------------------------------------|
-------------------------------------------------|
-------------------------------------------------|
4-3---------4---3---4--4-3---------8-7---7---8---|
4-3---------4---3---4--4-3---------8-7---7---8---|
2-1-0-0-0-0-2-0-1-0-2--2-1-0-0-0-0-6\5-0-5-0-6---|
    * * * *   *   *        * * * *     *   *


comments
We did not receive enough feedback on this tab! Please rate:
print report bad tab
1 2 3 4 5
I want to post or [tab]
guest
You may want to rate the tab now too:
select rating
Please do not post tabs as comments. Select "correction" instead!