Oops, an error
Loading. Please wait.

Illicitus Tab

212 views 1 this week
no commentswrite comment
1 2 3 4 5
excellent!
x 2
Autoscroll
+/-
esc
set tempo
stop
Contributor
Difficulty
Tuning
intermediate
D G C F A D
WARNING: You are trying to view
                                    content from Ultimate-Guitar.com
                                    in an unauthorized application,
                                    which is prohibited.

                                    Please use an official Ultimate
                                    Guitar Tabs application for iPhone,
                                    iPad or Android to access legitimate
                                    chords, guitar, bass, and drum tabs
                                    from Ultimate-Guitar.com database.

                                    Type "ultimate guitar tabs" in Apple
                                    App Store's or Android Market's
                                    search to find the application.
CRADLE OF FILTH

ILLICITUS

DGCFAD

TABBED BY andherembrace


-----------------------------------------------------------------------|
-----------------------------------------------------------------------|
-----------------------------------------------------------------------|
-----------------------------------------------------------------------|
-8-7-2-----------------------------------------------------------------|
-6-5-0-2-2-2-2-2-2-2-2-2-2-2-2-3-3-5-5-3-3-3-3-3-3-3-3-6-6-6-6-5-5-3-5-|
       * * * * * * * * * * * * * * * * * * * * * * * * * * * * * * * *

-------------------------------------------------------|
-------------------------------------------------------|
-------------------------------------------------------|
-------------------------------------------------------|
-----------------------------------------------8-7-2---|
-2-2-2-2-2-2-2-2-2-2-2-3-3-5-5-3-3-3-3-3-3-3-3-6-5-0---|
 * * * * * * * * * * * * * * * * * * * * * * * 

-----------------------------------------------------------------|
-----------------------------------------------------------------|
-----------------------------------------------------------------|
-----------------------------------------------------------------|
-----------------------------------------------------------------|
-2-2-2-2-2-2-2-2-2-2-2-2-3-3-5-5-3-3-3-3-3-3-3-3-6-6-6-6-5-5-3-5-|
 * * * * * * * * * * * * * * * * * * * * * * * * * * * * * * * *

-------------------------------------------------------|
-------------------------------------------------------|
-------------------------------------------------------|
-------------------------------------------------------|
-----------------------------------------------8-7-2---|
-2-2-2-2-2-2-2-2-2-2-2-3-3-5-5-3-3-3-3-3-3-3-3-6-5-0---|
 * * * * * * * * * * * * * * * * * * * * * * * 


0:28

-----------------------------------------------------------------|
-----------------------------------------------------------------|
-----------------------------------------------------------------|
-----------------------------------------------------------------|
-----------------------------------------------------------------|
-2-2-2-2-2-2-2-2-2-2-2-2-3-3-5-5-3-3-3-3-3-3-3-3-6-6-6-6-5-5-3-5-|
 * * * * * * * * * * * * * * * * * * * * * * * * * * * * * * * *

-------------------------------------------------------|
-------------------------------------------------------|
-------------------------------------------------------|
-------------------------------------------------------|
-----------------------------------------------8-7-2---|
-2-2-2-2-2-2-2-2-2-2-2-3-3-5-5-3-3-3-3-3-3-3-3-6-5-0---|
 * * * * * * * * * * * * * * * * * * * * * * * 

-----------------------------------------------------------------|
-----------------------------------------------------------------|
-----------------------------------------------------------------|
-----------------------------------------------------------------|
-----------------------------------------------------------------|
-2-2-2-2-2-2-2-2-2-2-2-2-3-3-5-5-3-3-3-3-3-3-3-3-6-6-6-6-5-5-3-5-|
 * * * * * * * * * * * * * * * * * * * * * * * * * * * * * * * *

-------------------------------------------------------|
-------------------------------------------------------|
-------------------------------------------------------|
-------------------------------------------------------|
-----------------------------------------------8-7-2---|
-2-2-2-2-2-2-2-2-2-2-2-3-3-5-5-3-3-3-3-3-3-3-3-6-5-0---|
 * * * * * * * * * * * * * * * * * * * * * * * 


0:41

-----------------------------------------------------------------|
-----------------------------------------------------------------|
-----------------------------------------------------------------|
-2-2-2-2-3-3-2-2-2-2---0-2-3-2-0-2-2-2-2-3-3-2-2-2-2---0-2-3-2-0-|
---------------------3-------------------------------3-----------|
-----------------------------------------------------------------|

-----------------------------------------------------------|
-----------------------------------------------------------|
-----------------------------------------------------------|
-2-2-2-2-3-3-2-2-2-2---0-2-3-2-0--666666666535333333000000-|
---------------------3-------------------------------------|
-----------------------------------------------------------|

-----------------------------------------------------------------|
-----------------------------------------------------------------|
-----------------------------------------------------------------|
-2-2-2-2-3-3-2-2-2-2---0-2-3-2-0-2-2-2-2-3-3-2-2-2-2---0-2-3-2-0-|
---------------------3-------------------------------3-----------|
-----------------------------------------------------------------|

-----------------------------------------------------------|
-----------------------------------------------------------|
-----------------------------------------------------------|
-2-2-2-2-3-3-2-2-2-2---0-2-3-2-0--666666666535333333000000-|
---------------------3-------------------------------------|
-----------------------------------------------------------|



0:55

L
----------------------------------------------------------------|
----------------------------------------------------------------|
----------------------------------------------------------------|
-5-5-5-5-7-7-5-5-5-5-2-4-5-7-5-4-5-5-5-5-7-7-5-5-5-5-2-4-5-7-5-4|
----------------------------------------------------------------|
----------------------------------------------------------------|
R
-----------------------------------------------------------------|
-----------------------------------------------------------------|
-----------------------------------------------------------------|
-2-2-2-2-3-3-2-2-2-2---0-2-3-2-0-2-2-2-2-3-3-2-2-2-2---0-2-3-2-0-|
---------------------3-------------------------------3-----------|
-----------------------------------------------------------------|

L
-----------------------------------------------------------|
-----------------------------------------------------------|
-----------------------------------------------------------|
-5-5-5-5-7-7-5-5-5-5-2-4-5-7-5-4--666666666535333333000000-|
-----------------------------------------------------------|
-----------------------------------------------------------|
R
-----------------------------------------------------------|
-----------------------------------------------------------|
-----------------------------------------------------------|
-2-2-2-2-3-3-2-2-2-2---0-2-3-2-0--666666666535333333000000-|
---------------------3-------------------------------------|
-----------------------------------------------------------|



L
----------------------------------------------------------------|
----------------------------------------------------------------|
----------------------------------------------------------------|
-5-5-5-5-7-7-5-5-5-5-2-4-5-7-5-4-5-5-5-5-7-7-5-5-5-5-2-4-5-7-5-4|
----------------------------------------------------------------|
----------------------------------------------------------------|
R
-----------------------------------------------------------------|
-----------------------------------------------------------------|
-----------------------------------------------------------------|
-2-2-2-2-3-3-2-2-2-2---0-2-3-2-0-2-2-2-2-3-3-2-2-2-2---0-2-3-2-0-|
---------------------3-------------------------------3-----------|
-----------------------------------------------------------------|

L
-----------------------------------------------------------|
-----------------------------------------------------------|
-----------------------------------------------------------|
-5-5-5-5-7-7-5-5-5-5-2-4-5-7-5-4--666666666535333333000000-|
-----------------------------------------------------------|
-----------------------------------------------------------|
R
-----------------------------------------------------------|
-----------------------------------------------------------|
-----------------------------------------------------------|
-2-2-2-2-3-3-2-2-2-2---0-2-3-2-0--666666666535333333000000-|
---------------------3-------------------------------------|
-----------------------------------------------------------|



1:09

-----------------------------------------------------------------|
-----------------10101010------------------------10101010--------|
---------111111111111111111111111--------111111111111111111111111|
-1111111111111111111111111111111111111111111111111111111111111111|
--9-9-9-9-9-9-9-9-9-9-9-9-9-9-9-9-9-9-9-9-9-9-9-9-9-9-9-9-9-9-9-9|
-----------------------------------------------------------------|

----------------------------------|
---------4444--------55559999-----|
-----5555555555556666666688888888-|
-55555555555555556666666688888888-|
-33333333333333334444444466666666-|
----------------------------------|

-----------------------------------------------------------------|
-----------------10101010------------------------10101010--------|
---------111111111111111111111111--------111111111111111111111111|
-1111111111111111111111111111111111111111111111111111111111111111|
--9-9-9-9-9-9-9-9-9-9-9-9-9-9-9-9-9-9-9-9-9-9-9-9-9-9-9-9-9-9-9-9|
-----------------------------------------------------------------|

----------------------------------|
---------4444--------55559999-----|
-----5555555555556666666688888888-|
-55555555555555556666666688888888-|
-33333333333333334444444466666666-|
----------------------------------|

-----------------------------------------------------------------|
-----------------10101010------------------------10101010--------|
---------111111111111111111111111--------111111111111111111111111|
-1111111111111111111111111111111111111111111111111111111111111111|
--9-9-9-9-9-9-9-9-9-9-9-9-9-9-9-9-9-9-9-9-9-9-9-9-9-9-9-9-9-9-9-9|
-----------------------------------------------------------------|

----------------------------------|
---------4444--------55559999-----|
-----5555555555556666666688888888-|
-55555555555555556666666688888888-|
-33333333333333334444444466666666-|
----------------------------------|


-----------------------------------------------------------------|
-----------------10101010------------------------10101010--------|
---------111111111111111111111111--------111111111111111111111111|
-1111111111111111111111111111111111111111111111111111111111111111|
--9-9-9-9-9-9-9-9-9-9-9-9-9-9-9-9-9-9-9-9-9-9-9-9-9-9-9-9-9-9-9-9|
-----------------------------------------------------------------|

----------------------------------|
---------4444--------55559999-----|
-----5555555555556666666688888888-|
-55555555555555556666666688888888-|
-33333333333333334444444466666666-|
----------------------------------|



1:36

-----------------------------------------------------------------|
-----------------------------------------------------------------|
-----------------------------------------------------------------|
-----------------------------------------------------------------|
-----------------------------------------------------------------|
-2-2-2-2-2-2-2-2-2-2-2-2-3-3-5-5-3-3-3-3-3-3-3-3-6-6-6-6-5-5-3-5-|
 * * * * * * * * * * * * * * * * * * * * * * * * * * * * * * * *

-------------------------------------------------------|
-------------------------------------------------------|
-------------------------------------------------------|
-------------------------------------------------------|
-----------------------------------------------8-7-2---|
-2-2-2-2-2-2-2-2-2-2-2-3-3-5-5-3-3-3-3-3-3-3-3-6-5-0---|
 * * * * * * * * * * * * * * * * * * * * * * * 

-----------------------------------------------------------------|
-----------------------------------------------------------------|
-----------------------------------------------------------------|
-----------------------------------------------------------------|
-----------------------------------------------------------------|
-2-2-2-2-2-2-2-2-2-2-2-2-3-3-5-5-3-3-3-3-3-3-3-3-6-6-6-6-5-5-3-5-|
 * * * * * * * * * * * * * * * * * * * * * * * * * * * * * * * *

-------------------------------------------------------|
-------------------------------------------------------|
-------------------------------------------------------|
-------------------------------------------------------|
-----------------------------------------------8-7-2---|
-2-2-2-2-2-2-2-2-2-2-2-3-3-5-5-3-3-3-3-3-3-3-3-6-5-0---|
 * * * * * * * * * * * * * * * * * * * * * * * 



1:50

-----------------------------------------------------------------|
-----------------------------------------------------------------|
-----------------------------------------------------------------|
-2-2-2-2-3-3-2-2-2-2---0-2-3-2-0-2-2-2-2-3-3-2-2-2-2---0-2-3-2-0-|
---------------------3-------------------------------3-----------|
-----------------------------------------------------------------|

-----------------------------------------------------------|
-----------------------------------------------------------|
-----------------------------------------------------------|
-2-2-2-2-3-3-2-2-2-2---0-2-3-2-0--666666666535333333000000-|
---------------------3-------------------------------------|
-----------------------------------------------------------|

-----------------------------------------------------------------|
-----------------------------------------------------------------|
-----------------------------------------------------------------|
-2-2-2-2-3-3-2-2-2-2---0-2-3-2-0-2-2-2-2-3-3-2-2-2-2---0-2-3-2-0-|
---------------------3-------------------------------3-----------|
-----------------------------------------------------------------|

-----------------------------------------------------------|
-----------------------------------------------------------|
-----------------------------------------------------------|
-2-2-2-2-3-3-2-2-2-2---0-2-3-2-0--666666666535333333000000-|
---------------------3-------------------------------------|
-----------------------------------------------------------|


2:03
L
----------------------------------------------------------------|
----------------------------------------------------------------|
----------------------------------------------------------------|
-5-5-5-5-7-7-5-5-5-5-2-4-5-7-5-4-5-5-5-5-7-7-5-5-5-5-2-4-5-7-5-4|
----------------------------------------------------------------|
----------------------------------------------------------------|
R
-----------------------------------------------------------------|
-----------------------------------------------------------------|
-----------------------------------------------------------------|
-2-2-2-2-3-3-2-2-2-2---0-2-3-2-0-2-2-2-2-3-3-2-2-2-2---0-2-3-2-0-|
---------------------3-------------------------------3-----------|
-----------------------------------------------------------------|


L
-----------------------------------------------------------|
-----------------------------------------------------------|
-----------------------------------------------------------|
-5-5-5-5-7-7-5-5-5-5-2-4-5-7-5-4--666666666535333333000000-|
-----------------------------------------------------------|
-----------------------------------------------------------|
R
-----------------------------------------------------------|
-----------------------------------------------------------|
-----------------------------------------------------------|
-2-2-2-2-3-3-2-2-2-2---0-2-3-2-0--666666666535333333000000-|
---------------------3-------------------------------------|
-----------------------------------------------------------|


L
----------------------------------------------------------------|
----------------------------------------------------------------|
----------------------------------------------------------------|
-5-5-5-5-7-7-5-5-5-5-2-4-5-7-5-4-5-5-5-5-7-7-5-5-5-5-2-4-5-7-5-4|
----------------------------------------------------------------|
----------------------------------------------------------------|
R
-----------------------------------------------------------------|
-----------------------------------------------------------------|
-----------------------------------------------------------------|
-2-2-2-2-3-3-2-2-2-2---0-2-3-2-0-2-2-2-2-3-3-2-2-2-2---0-2-3-2-0-|
---------------------3-------------------------------3-----------|
-----------------------------------------------------------------|

L
-----------------------------------------------------------|
-----------------------------------------------------------|
-----------------------------------------------------------|
-5-5-5-5-7-7-5-5-5-5-2-4-5-7-5-4--666666666535333333000000-|
-----------------------------------------------------------|
-----------------------------------------------------------|
R
-----------------------------------------------------------|
-----------------------------------------------------------|
-----------------------------------------------------------|
-2-2-2-2-3-3-2-2-2-2---0-2-3-2-0--666666666535333333000000-|
---------------------3-------------------------------------|
-----------------------------------------------------------|



2:17


MELODY
------------------------------------__---------------------------------|
-----------------------------------/  \--------------------------------|
--------9-----11-12-----11-9-11---9-11-9-7----9-9-9---/11-6--7-9--12-11|
-9---------------------------------------------------------------------|
-----------------------------------------------------------------------|
-----------------------------------------------------------------------|
RYTHM
------------------------------------------------------------------------|
------------------------------------------------------------------------|
------------------------------------------------------------------------|
------------------------7-----------------------------------------------|
--7---10------3-------------------9-10------9-10-10----12-9----12-10-9--|
------------------------------------------------------------------------|

2:30

MELODY
-----------------------------------__-----------------------------------|
----------------------------------/  \----------------------------------|
--------9-----11-9-----11-9-11---9-11-9-7----9-9-9---/11-6--7-9--12-11-9|
-9----------------------------------------------------------------------|
------------------------------------------------------------------------|
------------------------------------------------------------------------|
RYTHM
------------------------------------------------------------------------|
------------------------------------------------------------------------|
------------------------------------------------------------------------|
------------------------7-----------------------------------------------|
--7---10------3-------------------9-10------9-10-10----12-9----12-10-9-7|
------------------------------------------------------------------------|




2:56

-------------------------------------------------------------------|
-------------------------------------------------------------------|
-------------------------------------------------------------------|
-------------------------------------------------------------------|
------------------7777777777777777---------------------------------|
-7777777777777777-----------------88888888888888888888777755555555-|


-------------------------------------------------------------------------|
-------------------------------------------------------------------------|
-------------------------------------------------------------------------|
-------------------------------------------------------------------------|
--------------------------------------------------7777771010101010109----|
-444444444444444433333333333333336666669999998888------------------------|


------------------------------------------------------|
------------------------------------------------------|
------------------------------------------------------|
--8---------7-------------------------------------8---|
--6---------5-------9-9----------------8---7--10------|
--6---------5-------7-7--------6---9------------------|
                    * *




3:22

MELODY
------------------------------------__---------------------------------|
-----------------------------------/  \--------------------------------|
--------9-----11-12-----11-9-11---9-11-9-7----9-9-9---/11-6--7-9--12-11|
-9---------------------------------------------------------------------|
-----------------------------------------------------------------------|
-----------------------------------------------------------------------|
RYTHM
------------------------------------------------------------------------|
------------------------------------------------------------------------|
------------------------------------------------------------------------|
------------------------7-----------------------------------------------|
--7---10------3-------------------9-10------9-10-10----12-9----12-10-9--|
------------------------------------------------------------------------|


MELODY
-----------------------------------__-----------------------------------|
----------------------------------/  \----------------------------------|
--------9-----11-9-----11-9-11---9-11-9-7----9-9-9---/11-6--7-9--12-11-9|
-9----------------------------------------------------------------------|
------------------------------------------------------------------------|
------------------------------------------------------------------------|
RYTHM
------------------------------------------------------------------------|
------------------------------------------------------------------------|
------------------------------------------------------------------------|
------------------------7-----------------------------------------------|
--7---10------3-------------------9-10------9-10-10----12-9----12-10-9-7|
------------------------------------------------------------------------|




3:47


MELODY
---------------------------------------------------|
---------------------------------------------------|
-----99991111111112121212----99991111111112121212--|
-9999--------------------9999----------------------|
---------------------------------------------------|
---------------------------------------------------|
CONT
----------------------------------------------------------|
----------------------------------------------------------|
---------999911111111121212121111111199991111111112121212-|
-10101010-------------------------------------------------|
----------------------------------------------------------|
----------------------------------------------------------|
CONT
-----------------------------------------------------------------|
-----------------------------------------------------------------|
-----------------11111111----------------111111111212121211111111|
-1212121214141414--------1212121214141414------------------------|
-----------------------------------------------------------------|
-----------------------------------------------------------------|
CONT
------------------------------------------------------|
------------------------------------------------------|
-----------------9999----------999911111111-14-12-11--|
-1111111112121212-----11111111------------------------|
------------------------------------------------------|
------------------------------------------------------|

RYTHM
------------------------------------------------------------------------|
------------------------------------------------------------------------|
------------------------------------------------------------------------|
------------------------7-----------------------------------------------|
--7---10------3-------------------9-10------9-10-10----12-9----12-10-9-7|
------------------------------------------------------------------------|



4:00

-----------------------------------------------------------------|
-----------------------------------------------------------------|
-----------------------------------------------------------------|
-2-2-2-2-3-3-2-2-2-2---0-2-3-2-0-2-2-2-2-3-3-2-2-2-2---0-2-3-2-0-|
---------------------3-------------------------------3-----------|
-----------------------------------------------------------------|

-----------------------------------------------------------|
-----------------------------------------------------------|
-----------------------------------------------------------|
-2-2-2-2-3-3-2-2-2-2---0-2-3-2-0--666666666535333333000000-|
---------------------3-------------------------------------|
-----------------------------------------------------------|

-----------------------------------------------------------------|
-----------------------------------------------------------------|
-----------------------------------------------------------------|
-2-2-2-2-3-3-2-2-2-2---0-2-3-2-0-2-2-2-2-3-3-2-2-2-2---0-2-3-2-0-|
---------------------3-------------------------------3-----------|
-----------------------------------------------------------------|

-----------------------------------------------------------|
-----------------------------------------------------------|
-----------------------------------------------------------|
-2-2-2-2-3-3-2-2-2-2---0-2-3-2-0--666666666535333333000000-|
---------------------3-------------------------------------|
-----------------------------------------------------------|



L
----------------------------------------------------------------|
----------------------------------------------------------------|
----------------------------------------------------------------|
-5-5-5-5-7-7-5-5-5-5-2-4-5-7-5-4-5-5-5-5-7-7-5-5-5-5-2-4-5-7-5-4|
----------------------------------------------------------------|
----------------------------------------------------------------|
R
-----------------------------------------------------------------|
-----------------------------------------------------------------|
-----------------------------------------------------------------|
-2-2-2-2-3-3-2-2-2-2---0-2-3-2-0-2-2-2-2-3-3-2-2-2-2---0-2-3-2-0-|
---------------------3-------------------------------3-----------|
-----------------------------------------------------------------|

L
-----------------------------------------------------------|
-----------------------------------------------------------|
-----------------------------------------------------------|
-5-5-5-5-7-7-5-5-5-5-2-4-5-7-5-4--666666666535333333000000-|
-----------------------------------------------------------|
-----------------------------------------------------------|
R
-----------------------------------------------------------|
-----------------------------------------------------------|
-----------------------------------------------------------|
-2-2-2-2-3-3-2-2-2-2---0-2-3-2-0--666666666535333333000000-|
---------------------3-------------------------------------|
-----------------------------------------------------------|



L
----------------------------------------------------------------|
----------------------------------------------------------------|
----------------------------------------------------------------|
-5-5-5-5-7-7-5-5-5-5-2-4-5-7-5-4-5-5-5-5-7-7-5-5-5-5-2-4-5-7-5-4|
----------------------------------------------------------------|
----------------------------------------------------------------|
R
-----------------------------------------------------------------|
-----------------------------------------------------------------|
-----------------------------------------------------------------|
-2-2-2-2-3-3-2-2-2-2---0-2-3-2-0-2-2-2-2-3-3-2-2-2-2---0-2-3-2-0-|
---------------------3-------------------------------3-----------|
-----------------------------------------------------------------|

L
-----------------------------------------------------------|
-----------------------------------------------------------|
-----------------------------------------------------------|
-5-5-5-5-7-7-5-5-5-5-2-4-5-7-5-4--666666666535333333000000-|
-----------------------------------------------------------|
-----------------------------------------------------------|
R
-----------------------------------------------------------|
-----------------------------------------------------------|
-----------------------------------------------------------|
-2-2-2-2-3-3-2-2-2-2---0-2-3-2-0--666666666535333333000000-|
---------------------3-------------------------------------|
-----------------------------------------------------------|




-----------------------------------------------------------------|
-----------------10101010------------------------10101010--------|
---------111111111111111111111111--------111111111111111111111111|
-1111111111111111111111111111111111111111111111111111111111111111|
--9-9-9-9-9-9-9-9-9-9-9-9-9-9-9-9-9-9-9-9-9-9-9-9-9-9-9-9-9-9-9-9|
-----------------------------------------------------------------|

----------------------------------|
---------4444--------55559999-----|
-----5555555555556666666688888888-|
-55555555555555556666666688888888-|
-33333333333333334444444466666666-|
----------------------------------|

-----------------------------------------------------------------|
-----------------10101010------------------------10101010--------|
---------111111111111111111111111--------111111111111111111111111|
-1111111111111111111111111111111111111111111111111111111111111111|
--9-9-9-9-9-9-9-9-9-9-9-9-9-9-9-9-9-9-9-9-9-9-9-9-9-9-9-9-9-9-9-9|
-----------------------------------------------------------------|

----------------------------------|
---------4444--------55559999-----|
-----5555555555556666666688888888-|
-55555555555555556666666688888888-|
-33333333333333334444444466666666-|
----------------------------------|

-----------------------------------------------------------------|
-----------------10101010------------------------10101010--------|
---------111111111111111111111111--------111111111111111111111111|
-1111111111111111111111111111111111111111111111111111111111111111|
--9-9-9-9-9-9-9-9-9-9-9-9-9-9-9-9-9-9-9-9-9-9-9-9-9-9-9-9-9-9-9-9|
-----------------------------------------------------------------|

----------------------------------|
---------4444--------55559999-----|
-----5555555555556666666688888888-|
-55555555555555556666666688888888-|
-33333333333333334444444466666666-|
----------------------------------|


-----------------------------------------------------------------|
-----------------10101010------------------------10101010--------|
---------111111111111111111111111--------111111111111111111111111|
-1111111111111111111111111111111111111111111111111111111111111111|
--9-9-9-9-9-9-9-9-9-9-9-9-9-9-9-9-9-9-9-9-9-9-9-9-9-9-9-9-9-9-9-9|
-----------------------------------------------------------------|

----------------------------------|
---------4444--------55559999-----|
-----5555555555556666666688888888-|
-55555555555555556666666688888888-|
-33333333333333334444444466666666-|
----------------------------------|





-----------------------------------------------------------------|
-----------------------------------------------------------------|
-----------------------------------------------------------------|
-----------------------------------------------------------------|
-----------------------------------------------------------------|
-2-2-2-2-2-2-2-2-2-2-2-2-3-3-5-5-3-3-3-3-3-3-3-3-6-6-6-6-5-5-3-5-|
 * * * * * * * * * * * * * * * * * * * * * * * * * * * * * * * *

-------------------------------------------------------|
-------------------------------------------------------|
-------------------------------------------------------|
-------------------------------------------------------|
-----------------------------------------------8-7-2---|
-2-2-2-2-2-2-2-2-2-2-2-3-3-5-5-3-3-3-3-3-3-3-3-6-5-0---|
 * * * * * * * * * * * * * * * * * * * * * * * 

-----------------------------------------------------------------|
-----------------------------------------------------------------|
-----------------------------------------------------------------|
-----------------------------------------------------------------|
-----------------------------------------------------------------|
-2-2-2-2-2-2-2-2-2-2-2-2-3-3-5-5-3-3-3-3-3-3-3-3-6-6-6-6-5-5-3-5-|
 * * * * * * * * * * * * * * * * * * * * * * * * * * * * * * * *

-------------------------------------------------------|
-------------------------------------------------------|
-------------------------------------------------------|
-------------------------------------------------------|
-----------------------------------------------8-7-2---|
-2-2-2-2-2-2-2-2-2-2-2-3-3-5-5-3-3-3-3-3-3-3-3-6-5-0---|
 * * * * * * * * * * * * * * * * * * * * * * * 

comments
We did not receive enough feedback on this tab! Please rate:
print report bad tab
1 2 3 4 5
I want to post or [tab]
guest
You may want to rate the tab now too:
select rating
Please do not post tabs as comments. Select "correction" instead!