Oops, an error
Loading. Please wait.

Lilith Immaculate Tab

3,212 views 18 this week
1 commentread comment
1 2 3 4 5
excellent!
x 2
Autoscroll
+/-
esc
set tempo
stop
Contributor
Difficulty
Tuning
intermediate
D G C F A D
WARNING: You are trying to view
                                    content from Ultimate-Guitar.com
                                    in an unauthorized application,
                                    which is prohibited.

                                    Please use an official Ultimate
                                    Guitar Tabs application for iPhone,
                                    iPad or Android to access legitimate
                                    chords, guitar, bass, and drum tabs
                                    from Ultimate-Guitar.com database.

                                    Type "ultimate guitar tabs" in Apple
                                    App Store's or Android Market's
                                    search to find the application.
Cradle of Filth

Lilith Immaculate

dgcfad

*=palm mute
^=hammer on/off



tabbed by-andherembrace


--------------------------------------------------------------------|
--------------------------------------------------------------------|
--------------------------------------------------------------------|
----------------------------------------------_---------------------|
-2222222222222222-5------6-6-----------------/ \----------------/\--|
-0000000000000000-3-1111-4-4--777777777777-107107-666666666666-9696-|
 ****************   ****      ************        ************

--------------------------------------------------------------------|
--------------------------------------------------------------------|
--------------------------------------------------------------------|
----------------------------------------------_---------------------|
-2222222222222222-5------6-6-----------------/ \----------------/\--|
-0000000000000000-3-1111-4-4--777777777777-107107-666666666666-9696-|
 ****************   ****      ************        ************

--------------------------------------------------------------------|
--------------------------------------------------------------------|
--------------------------------------------------------------------|
----------------------------------------------_---------------------|
-2222222222222222-5------6-6-----------------/ \----------------/\--|
-0000000000000000-3-1111-4-4--777777777777-107107-666666666666-9696-|
 ****************   ****      ************        ************

--------------------------------------------------------------------|
--------------------------------------------------------------------|
--------------------------------------------------------------------|
----------------------------------------------_---------------------|
-2222222222222222-5------6-6-----------------/ \----------------/\--|
-0000000000000000-3-1111-4-4--777777777777-107107-666666666666-9696-|
 ****************   ****      ************        ************



0:24

-------------------------------------------------------------|
-------------------------------------------------------------|
-------------------------------------------------------------|
-8888-10101010-8888-10101010-11111111-10101010-8888-10101010-|
-8888--8-8-8-8-8888--8-8-8-8--8-8-8-8--8-8-8-8-8888--8-8-8-8-|
-------------------------------------------------------------|

-------------------------------------------------------------|
-------------------------------------------------------------|
-------------------------------------------------------------|
-8888-10101010-8888-10101010-11111111-10101010-8888-10101010-|
-8888--8-8-8-8-8888--8-8-8-8--8-8-8-8--8-8-8-8-8888--8-8-8-8-|
-------------------------------------------------------------|

-----------------------------------------------------------------------|
-----------------------------------------------------------------------|
-----------------------------------------------------------------------|
11111111-13131313-11111111-13131313-14141414-13131313-11111111-13131313|
11111111-11111111-11111111-11111111-11111111-11111111-11111111-11111111|
-----------------------------------------------------------------------|

--------------------------------------------------------------|
--------------------------------------------------------------|
--------------------------------------------------------------|
-9999-11111111-9999-11111111-13131313-11111111-9999-11111111--|
-9999--9-9-9-9-9999--9-9-9-9--9-9-9-9--9-9-9-9-9999--9-9-9-9--|
--------------------------------------------------------------|


-------------------------------------------------------------|
-------------------------------------------------------------|
-------------------------------------------------------------|
-8888-10101010-8888-10101010-11111111-10101010-8888-10101010-|
-8888--8-8-8-8-8888--8-8-8-8--8-8-8-8--8-8-8-8-8888--8-8-8-8-|
-------------------------------------------------------------|

-------------------------------------------------------------|
-------------------------------------------------------------|
-------------------------------------------------------------|
-8888-10101010-8888-10101010-11111111-10101010-8888-10101010-|
-8888--8-8-8-8-8888--8-8-8-8--8-8-8-8--8-8-8-8-8888--8-8-8-8-|
-------------------------------------------------------------|

-----------------------------------------------------------------------|
-----------------------------------------------------------------------|
-----------------------------------------------------------------------|
11111111-13131313-11111111-13131313-14141414-13131313-11111111-13131313|
11111111-11111111-11111111-11111111-11111111-11111111-11111111-11111111|
-----------------------------------------------------------------------|

--------------------------------------------------------------|
--------------------------------------------------------------|
--------------------------------------------------------------|
-9999-11111111-9999-11111111-13131313-11111111-9999-11111111--|
-9999--9-9-9-9-9999--9-9-9-9--9-9-9-9--9-9-9-9-9999--9-9-9-9--|
--------------------------------------------------------------|



0:48
-----------------------------------------------|
-----------------------------------------------|
----------------------9-9-9-8-8-8-7-7-7-8-8-8--|
-7-7-7-9-9-9-10-10-10-7-7-7-7-7-7-7-7-7-7-7-7--|
-0-0-0-0-0-0-0--0--0--0-0-0-0-0-0-0-0-0-0-0-0--|
-----------------------------------------------|

-----------------------------------------------------------------|
-----------------------------------------------------------------|
----------------------9-9-9--------------------------------------|
-7-7-7-9-9-9-10-10-10-7-7-7-10--101010-9-10-10-10--101010-9-10-9-|
-0-0-0-0-0-0--0--0--0-0-0-0--8---8-8-8-7--8--8--8---8-8-8-7--8-7-|
-----------------------------------------------------------------|

-----------------------------------------------|
-----------------------------------------------|
----------------------9-9-9-8-8-8-7-7-7-8-8-8--|
-7-7-7-9-9-9-10-10-10-7-7-7-7-7-7-7-7-7-7-7-7--|
-0-0-0-0-0-0-0--0--0--0-0-0-0-0-0-0-0-0-0-0-0--|
-----------------------------------------------|

-----------------------------------------------------------------|
-----------------------------------------------------------------|
----------------------9-9-9--------------------------------------|
-7-7-7-9-9-9-10-10-10-7-7-7-10--101010-9-10-10-10--101010-9-10-9-|
-0-0-0-0-0-0--0--0--0-0-0-0--8---8-8-8-7--8--8--8---8-8-8-7--8-7-|
-----------------------------------------------------------------|




1:12
------------------------------------------------|
------------------------------------------------|
------------------------------------------------|
------------------------------------------------|
-------7---------7----------5------------^------|
-5~-------5--4~-----4--2~------2--4--5--454--2--|

------------------------------------------------|
------------------------------------------------|
------------------------------------------------|
------------------------------------------------|
-------7---------7----------5------------^------|
-5~-------5--4~-----4--2~------2--4--5--454--2--|

------------------------------------------------|
------------------------------------------------|
------------------------------------------------|
------------------------------------------------|
-------7---------7----------5------------^------|
-5~-------5--4~-----4--2~------2--4--5--454--2--|

--------------------------------------------------|
--------------------------------------------------|
--------------------------------------------------|
------------------------------------------------9-|
-------7---------7----------5------------^------7-|
-5~-------5--4~-----4--2~------2--4--5--454--2--7\|





1:36
----------------------------------------------------|
----------------------------------------------------|
----------------------------------------------------|
------------------------------_---------------------|
--5------6-6-----------------/ \----------------/\--|
--3-1111-4-4--777777777777-107107-666666666666-9696-|
    ****      ************        ************

--------------------------------------------------------------------|
--------------------------------------------------------------------|
--------------------------------------------------------------------|
----------------------------------------------_---------------------|
-2222222222222222-5------6-6-----------------/ \----------------/\--|
-0000000000000000-3-1111-4-4--777777777777-107107-666666666666-9696-|
 ****************   ****      ************        ************

--------------------------------------------------------------------|
--------------------------------------------------------------------|
--------------------------------------------------------------------|
----------------------------------------------_---------------------|
-2222222222222222-5------6-6-----------------/ \----------------/\--|
-0000000000000000-3-1111-4-4--777777777777-107107-666666666666-9696-|
 ****************   ****      ************        ************
------------------------------------------------------------------|
------------------------------------------------------------------|
------------------------------------------------------------------|
----------------------------------------------_-------------------|
-2222222222222222-5------6-6-----------------/ \---------------8--|
-0000000000000000-3-1111-4-4--777777777777-107107-666666666666-6|-|
 ****************   ****      ************        ************



2:00
-------------------------------------------------------------|
-------------------------------------------------------------|
-------------------------------------------------------------|
-8888-10101010-8888-10101010-11111111-10101010-8888-10101010-|
-8888--8-8-8-8-8888--8-8-8-8--8-8-8-8--8-8-8-8-8888--8-8-8-8-|
-------------------------------------------------------------|

-------------------------------------------------------------|
-------------------------------------------------------------|
-------------------------------------------------------------|
-8888-10101010-8888-10101010-11111111-10101010-8888-10101010-|
-8888--8-8-8-8-8888--8-8-8-8--8-8-8-8--8-8-8-8-8888--8-8-8-8-|
-------------------------------------------------------------|

-----------------------------------------------------------------------|
-----------------------------------------------------------------------|
-----------------------------------------------------------------------|
11111111-13131313-11111111-13131313-14141414-13131313-11111111-13131313|
11111111-11111111-11111111-11111111-11111111-11111111-11111111-11111111|
-----------------------------------------------------------------------|

--------------------------------------------------------------|
--------------------------------------------------------------|
--------------------------------------------------------------|
-9999-11111111-9999-11111111-13131313-11111111-9999-11111111--|
-9999--9-9-9-9-9999--9-9-9-9--9-9-9-9--9-9-9-9-9999--9-9-9-9--|
--------------------------------------------------------------|


-------------------------------------------------------------|
-------------------------------------------------------------|
-------------------------------------------------------------|
-8888-10101010-8888-10101010-11111111-10101010-8888-10101010-|
-8888--8-8-8-8-8888--8-8-8-8--8-8-8-8--8-8-8-8-8888--8-8-8-8-|
-------------------------------------------------------------|

-------------------------------------------------------------|
-------------------------------------------------------------|
-------------------------------------------------------------|
-8888-10101010-8888-10101010-11111111-10101010-8888-10101010-|
-8888--8-8-8-8-8888--8-8-8-8--8-8-8-8--8-8-8-8-8888--8-8-8-8-|
-------------------------------------------------------------|

-----------------------------------------------------------------------|
-----------------------------------------------------------------------|
-----------------------------------------------------------------------|
11111111-13131313-11111111-13131313-14141414-13131313-11111111-13131313|
11111111-11111111-11111111-11111111-11111111-11111111-11111111-11111111|
-----------------------------------------------------------------------|

--------------------------------------------------------------|
--------------------------------------------------------------|
--------------------------------------------------------------|
-9999-11111111-9999-11111111-13131313-11111111-9999-11111111--|
-9999--9-9-9-9-9999--9-9-9-9--9-9-9-9--9-9-9-9-9999--9-9-9-9--|
--------------------------------------------------------------|



2:24
-----------------------------------------------|
-----------------------------------------------|
----------------------9-9-9-8-8-8-7-7-7-8-8-8--|
-7-7-7-9-9-9-10-10-10-7-7-7-7-7-7-7-7-7-7-7-7--|
-0-0-0-0-0-0-0--0--0--0-0-0-0-0-0-0-0-0-0-0-0--|
-----------------------------------------------|

-----------------------------------------------------------------|
-----------------------------------------------------------------|
----------------------9-9-9--------------------------------------|
-7-7-7-9-9-9-10-10-10-7-7-7-10--101010-9-10-10-10--101010-9-10-9-|
-0-0-0-0-0-0--0--0--0-0-0-0--8---8-8-8-7--8--8--8---8-8-8-7--8-7-|
-----------------------------------------------------------------|

-----------------------------------------------|
-----------------------------------------------|
----------------------9-9-9-8-8-8-7-7-7-8-8-8--|
-7-7-7-9-9-9-10-10-10-7-7-7-7-7-7-7-7-7-7-7-7--|
-0-0-0-0-0-0-0--0--0--0-0-0-0-0-0-0-0-0-0-0-0--|
-----------------------------------------------|

-----------------------------------------------------------------|
-----------------------------------------------------------------|
----------------------9-9-9--------------------------------------|
-7-7-7-9-9-9-10-10-10-7-7-7-10--101010-9-10-10-10--101010-9-10-9-|
-0-0-0-0-0-0--0--0--0-0-0-0--8---8-8-8-7--8--8--8---8-8-8-7--8-7-|
-----------------------------------------------------------------|




2:48
----------------------------------------------------------------------|
----------------------------------------------------------------------|
----------------------------------------------------------------------|
----------------------------------------------------------------------|
-/7~---\/9~-\/10~-\/6~--/10-9-10-12-10--3---5-3-2-3-2-2---3-2-0-10-9--|
----------------------------------------------------------------------|

----------------------------------------------------------------------|
----------------------------------------------------------------------|
----------------------------------------------------------------------|
----------------------------------------------------------------------|
-/7~---\/9~-\/10~-\/6~--/10-9-10-12-10--3---5-3-2-3-2-2---3-2-0-10-9--|
----------------------------------------------------------------------|



----------------------------------------------------------------------|
----------------------------------------------------------------------|
----------------------------------------------------------------------|
----------------------------------------------------------------------|
-/7~---\/9~-\/10~-\/6~--/10-9-10-12-10--3---5-3-2-3-2-2---3-2-0-10-9--|
----------------------------------------------------------------------|

----------------------------------------------------------------------|
----------------------------------------------------------------------|
---------11---12------------------------------------------------------|
----------------------------------------------------------------------|
-/7~---\/9--\/10--\/6~--/10-9-10-12-10--3---5-3-2-3-2-2---3-2-0-10-9--|
----------------------------------------------------------------------|



1
----------------------------------------------------------------------|
----------------------------------------------------------------------|
----------------------------------------------------------------------|
----------------------------------------------------------------------|
-/7~---\/9~-\/10~-\/6~--/10-9-10-12-10--3---5-3-2-3-2-2---3-2-0-10-9--|
----------------------------------------------------------------------|
2
----------------------------------------------------------------------|
----------------------------------------------------------------------|
------------------------5--4--5--7--4--5---7-5-4-5-4-4---5-4---4------|
-/5~---\/9~-\/9~-\/4~----------------------------------------7---7----|
----------------------------------------------------------------------|
----------------------------------------------------------------------|


1
----------------------------------------------------------------------|
----------------------------------------------------------------------|
----------------------------------------------------------------------|
----------------------------------------------------------------------|
-/7~---\/9~-\/10~-\/6~--/10-9-10-12-10--3---5-3-2-3-2-2---3-2-0-10-9--|
----------------------------------------------------------------------|
2
----------------------------------------------------------------------|
----------------------------------------------------------------------|
------------------------5--4--5--7--4--5---7-5-4-5-4-4---5-4---4------|
-/5~---\/9~-\/9~-\/4~----------------------------------------7---7----|
----------------------------------------------------------------------|
----------------------------------------------------------------------|




4:00
------------------------------------------------|
------------------------------------------------|
------------------------------------------------|
------------------------------------------------|
-------7---------7----------5------------^------|
-5~-------5--4~-----4--2~------2--4--5--454--2--|

------------------------------------------------|
------------------------------------------------|
------------------------------------------------|
------------------------------------------------|
-------7---------7----------5------------^------|
-5~-------5--4~-----4--2~------2--4--5--454--2--|

------------------------------------------------|
------------------------------------------------|
------------------------------------------------|
------------------------------------------------|
-------7---------7----------5------------^------|
-5~-------5--4~-----4--2~------2--4--5--454--2--|

------------------------------------------------|
------------------------------------------------|
------------------------------------------------|
------------------------------------------------|
-------7---------7----------5------------^------|
-5~-------5--4~-----4--2~------2--4--5--454--2--|


------------------------------------------------|
------------------------------------------------|
------------------------------------------------|
------------------------------------------------|
-------7---------7----------5------------^------|
-5~-------5--4~-----4--2~------2--4--5--454--2--|

------------------------------------------------|
------------------------------------------------|
------------------------------------------------|
------------------------------------------------|
-------7---------7----------5------------^------|
-5~-------5--4~-----4--2~------2--4--5--454--2--|



4:36

SOLO

1
-/19~~~~~~~~~~~--------------------------------------)------------|
-------------------------------------19--15~---18--14----14~~~--\-|
--------------------------------15--------------------------------|
------------------------------------------------------------------|
------------------------------------------------------------------|
------------------------------------------------------------------|
2
--------------------------------------------------------------------|
--------------------------------------------------------------------|
--------------------------------------------------------------------|
----------------------------------------------_---------------------|
------------------5------6-6-----------------/ \----------------/\--|
-0000000000000000-3-1111-4-4--777777777777-107107-666666666666-9696-|
 ****************   ****      ************        ************

4:42

1                                     ___      
--------------------------/\---------/   \---|
---------------------12-111211\8-11-8\7-8-11-|
-----11------12---9--------------------------|
---9------10----7----------------------------|
-7------8------------------------------------|
---------------------------------------------|
 * *    *  *    * *                
1   __________      __________     ________     _______
---/          \----/          \---/        \---/       \----____-----___---|
-12-15-12-0-12-0-11-12-11-0-11-0-8-11-8-0-8\7-7-8-7-0-7-0--/    \---/   \--|
----------------------------------------------------------7-10-7-0-6-7-6-0-|
---------------------------------------------------------------------------|
---------------------------------------------------------------------------|
---------------------------------------------------------------------------|
2
--------------------------------------------------------------------|
--------------------------------------------------------------------|
--------------------------------------------------------------------|
----------------------------------------------_---------------------|
------------------5------6-6-----------------/ \----------------/\--|
-0000000000000000-3-1111-4-4--777777777777-107107-666666666666-9696-|
 ****************   ****      ************        ************


4:48
1                                                    __
----------------------------------------------------/  \------|
-/6-------------------8-----9----------------------8--9-8-----|
--------------------------------------------------------------|
--------------------------------------------------------------|
--------------------------------------------------------------|
--------------------------------------------------------------|
2
-------------------------------------------------------------|
-------------------------------------------------------------|
-------------------------------------------------------------|
-8888-10101010-8888-10101010-11111111-10101010-8888-10101010-|
-8888--8-8-8-8-8888--8-8-8-8--8-8-8-8--8-8-8-8-8888--8-8-8-8-|
-------------------------------------------------------------|

1
--------------------------------------------------------------|
-------------6---------------------------------8---9-9--/13---|
--------------------------------------------------------------|
--------------------------------------------------------------|
--------------------------------------------------------------|
--------------------------------------------------------------|
2
-------------------------------------------------------------|
-------------------------------------------------------------|
-------------------------------------------------------------|
-8888-10101010-8888-10101010-11111111-10101010-8888-10101010-|
-8888--8-8-8-8-8888--8-8-8-8--8-8-8-8--8-8-8-8-8888--8-8-8-8-|
-------------------------------------------------------------|


4:55
1
-----------------------------------------------------11----12----11----|
---12----------------------------------14---12---14--------------------|
----------------------------13-13--15----------------------------------|
-----------------------------------------------------------------------|
-----------------------------------------------------------------------|
-----------------------------------------------------------------------|
2
-----------------------------------------------------------------------|
-----------------------------------------------------------------------|
-----------------------------------------------------------------------|
11111111-13131313-11111111-13131313-14141414-13131313-11111111-13131313|
11111111-11111111-11111111-11111111-11111111-11111111-11111111-11111111|
-----------------------------------------------------------------------|


1 T   ^    T   ^    T   ^    T   ^    T   ^    T   ^           
-16-12-11-14-12-11-16-12-11-18-12-11-16-12-11-18-12-11-|
-------------------------------------------------------|
-------------------------------------------------------|
-------------------------------------------------------|
-------------------------------------------------------|
-------------------------------------------------------|

 T   ^    T   ^    T   ^    T   ^    T   ^    T   ^   
19-12-11-18-12-11-19-12-11-21-12-11-19-12-11-21-12-11-[20]\-|
------------------------------------------------------------|
------------------------------------------------------------|
------------------------------------------------------------|
------------------------------------------------------------|
------------------------------------------------------------|
2
--------------------------------------------------------------|
--------------------------------------------------------------|
--------------------------------------------------------------|
-9999-11111111-9999-11111111-13131313-11111111-9999-11111111--|
-9999--9-9-9-9-9999--9-9-9-9--9-9-9-9--9-9-9-9-9999--9-9-9-9--|
--------------------------------------------------------------|




-------------------------------------------------------------|
-------------------------------------------------------------|
-------------------------------------------------------------|
-8888-10101010-8888-10101010-11111111-10101010-8888-10101010-|
-8888--8-8-8-8-8888--8-8-8-8--8-8-8-8--8-8-8-8-8888--8-8-8-8-|
-------------------------------------------------------------|

-------------------------------------------------------------|
-------------------------------------------------------------|
-------------------------------------------------------------|
-8888-10101010-8888-10101010-11111111-10101010-8888-10101010-|
-8888--8-8-8-8-8888--8-8-8-8--8-8-8-8--8-8-8-8-8888--8-8-8-8-|
-------------------------------------------------------------|

-----------------------------------------------------------------------|
-----------------------------------------------------------------------|
-----------------------------------------------------------------------|
11111111-13131313-11111111-13131313-14141414-13131313-11111111-13131313|
11111111-11111111-11111111-11111111-11111111-11111111-11111111-11111111|
-----------------------------------------------------------------------|

--------------------------------------------------------------|
--------------------------------------------------------------|
--------------------------------------------------------------|
-9999-11111111-9999-11111111-13131313-11111111-9999-11111111--|
-9999--9-9-9-9-9999--9-9-9-9--9-9-9-9--9-9-9-9-9999--9-9-9-9--|
--------------------------------------------------------------|





-----------------------------------------------|
-----------------------------------------------|
----------------------9-9-9-8-8-8-7-7-7-8-8-8--|
-7-7-7-9-9-9-10-10-10-7-7-7-7-7-7-7-7-7-7-7-7--|
-0-0-0-0-0-0-0--0--0--0-0-0-0-0-0-0-0-0-0-0-0--|
-----------------------------------------------|

-----------------------------------------------------------------|
-----------------------------------------------------------------|
----------------------9-9-9--------------------------------------|
-7-7-7-9-9-9-10-10-10-7-7-7-10--101010-9-10-10-10--101010-9-10-9-|
-0-0-0-0-0-0--0--0--0-0-0-0--8---8-8-8-7--8--8--8---8-8-8-7--8-7-|
-----------------------------------------------------------------|

-----------------------------------------------|
-----------------------------------------------|
----------------------9-9-9-8-8-8-7-7-7-8-8-8--|
-7-7-7-9-9-9-10-10-10-7-7-7-7-7-7-7-7-7-7-7-7--|
-0-0-0-0-0-0-0--0--0--0-0-0-0-0-0-0-0-0-0-0-0--|
-----------------------------------------------|

-----------------------------------------------------------------|
-----------------------------------------------------------------|
----------------------9-9-9--------------------------------------|
-7-7-7-9-9-9-10-10-10-7-7-7-10--101010-9-10-10-10--101010-9-10-9-|
-0-0-0-0-0-0--0--0--0-0-0-0--8---8-8-8-7--8--8--8---8-8-8-7--8-7-|
-----------------------------------------------------------------|

-----------------------------------------------|
-----------------------------------------------|
----------------------9-9-9-8-8-8-7-7-7-8-8-8--|
-7-7-7-9-9-9-10-10-10-7-7-7-7-7-7-7-7-7-7-7-7--|
-0-0-0-0-0-0-0--0--0--0-0-0-0-0-0-0-0-0-0-0-0--|
-----------------------------------------------|

-----------------------------------------------------------------|
-----------------------------------------------------------------|
----------------------9-9-9--------------------------------------|
-7-7-7-9-9-9-10-10-10-7-7-7-10--101010-9-10-10-10--101010-9-10-9-|
-0-0-0-0-0-0--0--0--0-0-0-0--8---8-8-8-7--8--8--8---8-8-8-7--8-7-|
-----------------------------------------------------------------|

-----------------------------------------------|
-----------------------------------------------|
----------------------9-9-9-8-8-8-7-7-7-8-8-8--|
-7-7-7-9-9-9-10-10-10-7-7-7-7-7-7-7-7-7-7-7-7--|
-0-0-0-0-0-0-0--0--0--0-0-0-0-0-0-0-0-0-0-0-0--|
-----------------------------------------------|

---------------------------------------------------------------------|
---------------------------------------------------------------------|
----------------------9-9-9------------------------------------------|
-7-7-7-9-9-9-10-10-10-7-7-7-10--101010-9-10-10-10--101010-9-10-9-----|
-0-0-0-0-0-0--0--0--0-0-0-0--8---8-8-8-7--8--8--8---8-8-8-7--8-7--7--|
------------------------------------------------------------------5--|
comments
We did not receive enough feedback on this tab! Please rate:
1 2 3 4 5
1 comment total.
-1 reply
FIGJAMpAnAnAz wrote on April 8 2011, 03:06 am

How to **** are u suppost to palm mute 1 string!!!

I want to post or [tab]
guest
You may want to rate the tab now too:
select rating
Please do not post tabs as comments. Select "correction" instead!