Oops, an error
Loading. Please wait.

Manticore Tab

483 views 1 this week
no commentswrite comment
1 2 3 4 5
excellent!
x 1
Autoscroll
+/-
esc
set tempo
stop
Contributor
Difficulty
Tuning
intermediate
D G C F A D
WARNING: You are trying to view
                                    content from Ultimate-Guitar.com
                                    in an unauthorized application,
                                    which is prohibited.

                                    Please use an official Ultimate
                                    Guitar Tabs application for iPhone,
                                    iPad or Android to access legitimate
                                    chords, guitar, bass, and drum tabs
                                    from Ultimate-Guitar.com database.

                                    Type "ultimate guitar tabs" in Apple
                                    App Store's or Android Market's
                                    search to find the application.
CRADLE OF FILTH

MANTICORE


tabbed by andherembrace

https://www.facebook.com/photo.php?v=513227542021914&set=vb.100000040195827&type=2&theater


DGCFAD

*=palm mute
^=hammer on/pull off





-------------------------------------------------------------------------|
-------------------------------------------------------------------------|
-------------------------------------------------------------------------|
----------------------------------------------------------6---5-3--------|
-2---2--3---2-3-2---2---2--3-----^------2---2--3---2-3-5--4---3-1-----5-6|
-0---0--1---0-1-0---0---0--1---/5-4-4~~-0---0--1---0-1-3--4---3-1---0-3-4|
                                                                    * *

-------------------------------------------------------------------------|
-------------------------------------------------------------------------|
-------------------------------------------------------------------------|
----------------------------------------------------------6---5-3--------|
-2---2--3---2-3-2---2---2--3-----^------2---2--3---2-3-5--4---3-1-----5-6|
-0---0--1---0-1-0---0---0--1---/5-4-4~~-0---0--1---0-1-3--4---3-1---0-3-4|
                                                                    * *

-------------------------------------------------------------------------|
-------------------------------------------------------------------------|
-------------------------------------------------------------------------|
----------------------------------------------------------6---5-3--------|
-2---2--3---2-3-2---2---2--3-----^------2---2--3---2-3-5--4---3-1-----5-6|
-0---0--1---0-1-0---0---0--1---/5-4-4~~-0---0--1---0-1-3--4---3-1---0-3-4|
                                                                    * *


0:39

--------------------------------------------------|
--------------------------------------------------|
--------------------------------------------------|
-4-4-4-4-4-4-4-4-4-4-4-4-4-4-4-4-4-4-5-5-5-4-5-5--|
-2-2-2-2-2-2-2-2-2-2-2-2-2-2-2-2-2-2-3-3-3-2-3-3--|
--------------------------------------------------|

--------------------------------------------------|
--------------------------------------------------|
--------------------------------------------------|
-4-4-4-4-4-4-4-4-4-4-4-4--------------------------|
-2-2-2-2-2-2-2-2-2-2-2-2-000000333333555555333000-|
--------------------------------------------------|

--------------------------------------------------|
--------------------------------------------------|
--------------------------------------------------|
-4-4-4-4-4-4-4-4-4-4-4-4-4-4-4-4-4-4-5-5-5-4-5-5--|
-2-2-2-2-2-2-2-2-2-2-2-2-2-2-2-2-2-2-3-3-3-2-3-3--|
--------------------------------------------------|

--------------------------------------------------|
--------------------------------------------------|
--------------------------------------------------|
-4-4-4-4-4-4-4-4-4-4-4-4--------------------------|
-2-2-2-2-2-2-2-2-2-2-2-2-0-0-0-3-3-3-5-5-5-3-3-0--|
--------------------------------------------------|
                         * * * * * * * * * * * * 

--------------------------------------------------|
--------------------------------------------------|
--------------------------------------------------|
-4-4-4-4-4-4-4-4-4-4-4-4-4-4-4-4-4-4-5-5-5-4-5-5--|
-2-2-2-2-2-2-2-2-2-2-2-2-2-2-2-2-2-2-3-3-3-2-3-3--|
--------------------------------------------------|

--------------------------------------------------|
--------------------------------------------------|
--------------------------------------------------|
-4-4-4-4-4-4-4-4-4-4-4-4--------------------------|
-2-2-2-2-2-2-2-2-2-2-2-2-000000333333555555333000-|
--------------------------------------------------|

--------------------------------------------------|
--------------------------------------------------|
--------------------------------------------------|
-4-4-4-4-4-4-4-4-4-4-4-4-4-4-4-4-4-4-5-5-5-4-5-5--|
-2-2-2-2-2-2-2-2-2-2-2-2-2-2-2-2-2-2-3-3-3-2-3-3--|
--------------------------------------------------|

--------------------------------------------------|
--------------------------------------------------|
--------------------------------------------------|
-4-4-4-4-4-4-4-4-4-4-4-4--------------------------|
-2-2-2-2-2-2-2-2-2-2-2-2-000000333333555555333000-|
--------------------------------------------------|





1:04

-------------------------------------------------------------------------|
-------------------------------------------------------------------------|
-------------------------------------------------------------------------|
----------------------------------------------------------6---5-3--------|
-2---2--3---2-3-2---2---2--3-----^------2---2--3---2-3-5--4---3-1-----5-6|
-0---0--1---0-1-0---0---0--1---/5-4-4~~-0---0--1---0-1-3--4---3-1---0-3-4|
                                                                    * *

-------------------------------------------------------------------------|
-------------------------------------------------------------------------|
-------------------------------------------------------------------------|
----------------------------------------------------------6---5-3--------|
-2---2--3---2-3-2---2---2--3-----^------2---2--3---2-3-5--4---3-1-----5-6|
-0---0--1---0-1-0---0---0--1---/5-4-4~~-0---0--1---0-1-3--4---3-1---0-3-4|
                                                                    * *


1:30

-------------------------------------------|
-------------------------------------------|
-------------------------------------------|
-------------------------------------------|
-8--77-77--7--77-77--7--77-77--8-8-1010----|
-6--55-55--5--55-55--5--55-55--6-6-8-8-----|

-------------------------------------------|
-------------------------------------------|
-------------------------------------------|
-------------------------------------------|
-8--77-77--7--77-77--7--77-77--10101010----|
-6--55-55--5--55-55--5--55-55--8-8-8-8-----|

-----------------------------------------|
-----------------------------------------|
-----------------------------------------|
-----------------------------------------|
-8--77-77--7--77-77--7--77-77--10101010--|
-6--55-55--5--55-55--5--55-55--8-8-8-8---|

------------------------------------|
------------------------------------|
------------------------------------|
------------------------------------|
-88888888888888889999999999999999---|
-66666666666666667777777777777777---|

-------------------------------------------|
-------------------------------------------|
-------------------------------------------|
-------------------------------------------|
-8--77-77--77--77-77--77--77-77--8-8-1010--|
-6--55-55--55--55-55--55--55-55--6-6-8-8---|

---------------------------------------------|
---------------------------------------------|
---------------------------------------------|
---------------------------------------------|
-8--77-77--77--77-77--77--77-77--10101010----|
-6--55-55--55--55-55--55--55-55--8-8-8-8-----|

-------------------------------------------|
-------------------------------------------|
-------------------------------------------|
-------------------------------------------|
-8--77-77--77--77-77--77--77-77--10101010--|
-6--55-55--55--55-55--55--55-55--8-8-8-8---|



------------------------------------|
------------------------------------|
------------------------------------|
------------------------------------|
-88888888888888889999999999999999---|
-66666666666666667777777777777777---|




1:56


GT.1
-5-----4-----4--4-----4-----4--5-----4-----4----------------|
---6-----5----5---5-----5----5---6-----5----5-----6---------|
-----7-----6--------6-----6--------7-----6------------------|
------------------------------------------------8----8\7-7--|
------------------------------------------------------------|
------------------------------------------------------------|
GT.2
-------------------------------------------------------------|
-------------------------------------------------------------|
-------------------------------------------------------------|
-7-----6------------------------7-----6---6------------------|
-5-----4------------------------5-----4---4-------8----------|
-5--0--4------------------------5--0--4-0-4-0--6-----6-5-5~~-|
    *                              *    *   *
GT.1
-5-----4-----4--4-----4-----4--5-----4-----4----------------|
---6-----5----5---5-----5----5---6-----5----5-----6---------|
-----7-----6--------6-----6--------7-----6------------------|
------------------------------------------------8----8-7-7--|
------------------------------------------------------------|
------------------------------------------------------------|
GT.2
-------------------------------------------------------------|
-------------------------------------------------------------|
-------------------------------------------------------------|
-7-----6------------------------7-----6---6------------------|
-5-----4------------------------5-----4---4-------8----------|
-5--0--4------------------------5--0--4-0-4-0--6-----6-5-5~~-|
    *                              *    *   *

GT.1
-5-----4-----4--4-----4-----4--5-----4-----4----------------|
---6-----5----5---5-----5----5---6-----5----5-----6---------|
-----7-----6--------6-----6--------7-----6------------------|
------------------------------------------------8----8-7-7--|
------------------------------------------------------------|
------------------------------------------------------------|
GT.2
-------------------------------------------------------------|
-------------------------------------------------------------|
-------------------------------------------------------------|
-7-----6------------------------7-----6---6------------------|
-5-----4------------------------5-----4---4-------8----------|
-5--0--4------------------------5--0--4-0-4-0--6-----6-5-5~~-|
    *                              *    *   *
GT.1
-5-----4-----4--4-----4-----4--5-----4-----4----------------|
---6-----5----5---5-----5----5---6-----5----5-----6---------|
-----7-----6--------6-----6--------7-----6------------------|
------------------------------------------------8----8-7-7--|
------------------------------------------------------------|
------------------------------------------------------------|
GT.2
-------------------------------------------------------------|
-------------------------------------------------------------|
-------------------------------------------------------------|
-7-----6------------------------7-----6---6------------------|
-5-----4------------------------5-----4---4-------8----------|
-5--0--4------------------------5--0--4-0-4-0--6-----6-5-5~~-|
    *                              *    *   *


2:21

-------------------------------------------------------------------------|
-------------------------------------------------------------------------|
-------------------------------------------------------------------------|
----------------------------------------------------------6---5-3--------|
-2---2--3---2-3-2---2---2--3-----^------2---2--3---2-3-5--4---3-1-----5-6|
-0---0--1---0-1-0---0---0--1---/5-4-4~~-0---0--1---0-1-3--4---3-1---0-3-4|
                                                                    * *

-------------------------------------------------------------------------|
-------------------------------------------------------------------------|
-------------------------------------------------------------------------|
----------------------------------------------------------6---5-3--------|
-2---2--3---2-3-2---2---2--3-----^------2---2--3---2-3-5--4---3-1-----5-6|
-0---0--1---0-1-0---0---0--1---/5-4-4~~-0---0--1---0-1-3--4---3-1---0-3-4|
                                                                    * *

-------------------------------------------------------------------------|
-------------------------------------------------------------------------|
-------------------------------------------------------------------------|
----------------------------------------------------------6---5-3--------|
-2---2--3---2-3-2---2---2--3-----^------2---2--3---2-3-5--4---3-1-----5-6|
-0---0--1---0-1-0---0---0--1---/5-4-4~~-0---0--1---0-1-3--4---3-1---0-3-4|
                                                                    * *


2:59


---------------------------------------------------|
---------------------------------------------------|
---------------------------------------------------|
---------------------------------------------------|
-2-2-2-2-2-2-2-2-2-2-2-2-2-2-2-2-2-2-3-3-3-2-3-3---|
---------------------------------------------------|

----------------------------------------------------------------|
----------------------------------------------------------------|
----------------------------------------------------------------|
----------------------------------------------------------------|
-2-2-2-2-2-2-2-2-2-2-2-2-2-2-2-2-2-2-000000333333555555333000---|
----------------------------------------------------------------|

---------------------------------------------------|
---------------------------------------------------|
---------------------------------------------------|
---------------------------------------------------|
-2-2-2-2-2-2-2-2-2-2-2-2-2-2-2-2-2-2-3-3-3-2-3-3---|
---------------------------------------------------|

----------------------------------------------------------------|
----------------------------------------------------------------|
----------------------------------------------------------------|
----------------------------------------------------------------|
-2-2-2-2-2-2-2-2-2-2-2-2-2-2-2-2-2-2-000000333333555555333000---|
----------------------------------------------------------------|


3:12

--------------------------------------------------------------------|
--------------------------------------------------------------------|
--------------------------------------------------------------------|
-4---------------3------------------4---------------3---------------|
-2------2-2------1-----------5~-----2------2-2------1-----------5~--|
-2------2-2------1------3~----------2------2-2------1------3~-------|
        * *                                * *


3:26

GT.1
---------------------------------------------------------------|
---------------------------------------------------------------|
-------------------------------_-----------10-9-9-9-7-7-7-6----|
------------------------------/ \-----------X-X-X-X-X-X-X-X----|
---5-4-------5-4-5--8-7-5--7-5-7-5-5-4~--/8-8\7-7-7-5-5-5-4----|
-5-----5~--5---------------------------------------------------|
GT.2
---------------------------------------------------------------|
---------------------------------------------------------------|
-------------------------------------------10-9-9-9-7-7-7-6----|
--------------------------------------------X-X-X-X-X-X-X-X----|
---5-4--------------------------------------8\7-7-7-5-5-5-4----|
-5-----5~------------------------------------------------------|

GT.1
----------------------------------------------------------------------|
----------------------------------------------------------------------|
-------------------------------_--------------------------------------|
------------------------------/ \-----------------7-------------7-8-10|
---5-4-------5-4-5--8-7-5--7-5-7-5-5-8~~---7-8-10---10-8-7-8-10-------|
-5-----5~--5----------------------------------------------------------|
                                           * *  *    * * * *  *
GT.2
----------------------------------------------------------------------|
----------------------------------------------------------------------|
----------------------------------------------------------------------|
----------------------------------------------------------------7-8-10|
---5-4-------------------------------------7-8-10---10-8-7-8-10-------|
-5-----5~-------------------------------------------------------------|
                                           * *  *    * * * *  *

B
---------------------------------------------------------------|
---------------------------------------------------------------|
-------------------------------_-----------10-9-9-9-7-7-7-6----|
------------------------------/ \-----------X-X-X-X-X-X-X-X----|
---5-4-------5-4-5--8-7-5--7-5-7-5-5-4~--/8-8\7-7-7-5-5-5-4----|
-5-----5~--5---------------------------------------------------|

----------------------------------------------------------------------|
----------------------------------------------------------------------|
-------------------------------_--------------------------------------|
------------------------------/ \-----------------7-------------7-8-10|
---5-4-------5-4-5--8-7-5--7-5-7-5-5-8~~---7-8-10---10-8-7-8-10-------|
-5-----5~--5----------------------------------------------------------|
                                           * *  *    * * * *  *




3:51

MELODY HIGH
----------------------------------------------|
-------------------------------------/\-------|
-10-8-10-------10-8-10-11--10-8-10--8108------|
----------11~\--------------------------11----|
------------------------------------------11~\|
----------------------------------------------|
MELODY LOW
----------------------------------------------|
----------------------------------------------|
------------------------8------------/\-------|
-11-10-11------11-10-11---11-10-11-101110-8---|
----------9~\------------------------------8~\|
----------------------------------------------|


3:56
MELODY HIGH
------------------------------------------------------------------------|
-11---------------------------------------------------------/\----------|
----11-10-13-10-8-10--10-8-10---------10-8-10-11--10-8-10--8108---------|
-----------------------------11~\-------------------------------11------|
-------------------------------------------------------------------11~\-|
------------------------------------------------------------------------|
MELODY LOW
------------------------------------------------------------------------|
------------------------------------------------------------------------|
-10---------^------------------------------------8------------/\--------|
----11-10-1113-11-10-11--11-10-11-------11-10-11---11-10-11-101110-8----|
----------------------------------9~\--------------------------------8~\|
------------------------------------------------------------------------|

4:02
MELODY HIGH
----/  \-------------------|
--11-12-12----11-----------|
-----------13----13-10-13--|
---------------------------|
---------------------------|
---------------------------|
MELODY LOW
----__---------------------|
---/  \--------------------|
-10-11-10----10------------|
----------13----13-11-10---|
---------------------------|
---------------------------|


MELODY HIGH
----------------------------------------------|
-------------------------------------/\-------|
-10-8-10-------10-8-10-11--10-8-10--8108------|
----------11~\--------------------------11----|
------------------------------------------11~\|
----------------------------------------------|
MELODY LOW
----------------------------------------------|
----------------------------------------------|
------------------------8------------/\-------|
-11-10-11------11-10-11---11-10-11-101110-8---|
----------9~\------------------------------8~\|
----------------------------------------------|

MELODY HIGH
------------------------------------------------------------------------|
-11---------------------------------------------------------/\----------|
----11-10-13-10-8-10--10-8-10---------10-8-10-11--10-8-10--8108---------|
-----------------------------11~\-------------------------------11------|
-------------------------------------------------------------------11~\-|
------------------------------------------------------------------------|
MELODY LOW
------------------------------------------------------------------------|
------------------------------------------------------------------------|
-10---------^------------------------------------8------------/\--------|
----11-10-1113-11-10-11--11-10-11-------11-10-11---11-10-11-101110-8----|
----------------------------------9~\--------------------------------8~\|
------------------------------------------------------------------------|

MELODY HIGH
----/  \-------------------|
--11-12-12----11-----------|
-----------13----13-10-13--|
---------------------------|
---------------------------|
---------------------------|
MELODY LOW
----__---------------------|
---/  \--------------------|
-10-11-10----10------------|
----------13----13-11-10---|
---------------------------|
---------------------------|


4:17


GT.1
-5-----4-----4--4-----4-----4--5-----4-----4----------------|
---6-----5----5---5-----5----5---6-----5----5-----6---------|
-----7-----6--------6-----6--------7-----6------------------|
------------------------------------------------8----8\7-7--|
------------------------------------------------------------|
------------------------------------------------------------|
GT.2
-------------------------------------------------------------|
-------------------------------------------------------------|
-------------------------------------------------------------|
-7-----6------------------------7-----6---6------------------|
-5-----4------------------------5-----4---4-------8----------|
-5--0--4------------------------5--0--4-0-4-0--6-----6-5-5~~-|
    *                              *    *   *
GT.1
-5-----4-----4--4-----4-----4--5-----4-----4----------------|
---6-----5----5---5-----5----5---6-----5----5-----6---------|
-----7-----6--------6-----6--------7-----6------------------|
------------------------------------------------8----8-7-7--|
------------------------------------------------------------|
------------------------------------------------------------|
GT.2
-------------------------------------------------------------|
-------------------------------------------------------------|
-------------------------------------------------------------|
-7-----6------------------------7-----6---6------------------|
-5-----4------------------------5-----4---4-------8----------|
-5--0--4------------------------5--0--4-0-4-0--6-----6-5-5~~-|
    *                              *    *   *

GT.1
-5-----4-----4--4-----4-----4--5-----4-----4----------------|
---6-----5----5---5-----5----5---6-----5----5-----6---------|
-----7-----6--------6-----6--------7-----6------------------|
------------------------------------------------8----8-7-7--|
------------------------------------------------------------|
------------------------------------------------------------|
GT.2
-------------------------------------------------------------|
-------------------------------------------------------------|
-------------------------------------------------------------|
-7-----6------------------------7-----6---6------------------|
-5-----4------------------------5-----4---4-------8----------|
-5--0--4------------------------5--0--4-0-4-0--6-----6-5-5~~-|
    *                              *    *   *
GT.1
-5-----4-----4--4-----4-----4--5-----4-----4----------------|
---6-----5----5---5-----5----5---6-----5----5-----6---------|
-----7-----6--------6-----6--------7-----6------------------|
------------------------------------------------8----8-7-7--|
------------------------------------------------------------|
------------------------------------------------------------|
GT.2
-------------------------------------------------------------|
-------------------------------------------------------------|
-------------------------------------------------------------|
-7-----6------------------------7-----6---6------------------|
-5-----4------------------------5-----4---4-------8----------|
-5--0--4------------------------5--0--4-0-4-0--6-----6-5-5~~-|
    *                              *    *   *



4:42


--------------------------------------------------------------------|
--------------------------------------------------------------------|
--------------------------------------------------------------------|
-4---------------3------------------4---------------3---------------|
-2------2-2------1-----------5~-----2------2-2------1-----------5~--|
-2------2-2------1------3~----------2------2-2------1------3~-------|
        * *                                * *

--------------------------------------------------------------------|
--------------------------------------------------------------------|
--------------------------------------------------------------------|
-4---------------3------------------4---------------3---------------|
-2------2-2------1-----------5~-----2------2-2------1-----------5~--|
-2------2-2------1------3~----------2------2-2------1------3~-------|
        * *                                * *


5:07
-------------------------------------------|
-------------------------------------------|
-------------------------------------------|
-------------------------------------------|
-8--77-77--77--77-77--77--77-77--8-8-1010--|
-6--55-55--55--55-55--55--55-55--6-6-8-8---|

---------------------------------------------|
---------------------------------------------|
---------------------------------------------|
---------------------------------------------|
-8--77-77--77--77-77--77--77-77--10101010----|
-6--55-55--55--55-55--55--55-55--8-8-8-8-----|

------------------------------------------|
------------------------------------------|
------------------------------------------|
------------------------------------------|
-8--77-77--77--77-77--77--77-77--10101010-|
-6--55-55--55--55-55--55--55-55--8-8-8-8--|


------------------------------------|
------------------------------------|
------------------------------------|
------------------------------------|
-88888888888888889999999999999999---|
-66666666666666667777777777777777---|





5:20

-----------------------------------------------------------------|
-----------------------------------------------------------------|
-----------------------------------------------------------------|
-----------------------------------------------------------___---|
----------------------------------------------------------/   \--|
-3-0-0-0-0-0-0-0-0-0-0-0-3-5-3-5-6-6-6-6-5-5-5-5-3-3-5-5-3-5-3-0-|

-----------------------------------------------------------------|
-----------------------------------------------------------------|
-----------------------------------------------------------------|
-----------------------------------------------------------___---|
----------------------------------------------------------/   \--|
-3-0-0-0-0-0-0-0-0-0-0-0-3-5-3-5-6-6-6-6-5-5-5-5-3-3-5-5-3-5-3-0-|

-----------------------------------------------------------------|
-----------------------------------------------------------------|
-----------------------------------------------------------------|
-----------------------------------------------------------___---|
----------------------------------------------------------/   \--|
-3-0-0-0-0-0-0-0-0-0-0-0-3-5-3-5-6-6-6-6-5-5-5-5-3-3-5-5-3-5-3-0-|


-----------------------------------------------------------|
-----------------------------------------------------------|
-----------------------------------------------------------|
-----------------------------------------------------------|
-------------888888999999----------------------------------|
-666666666666------------777777777777-101010999101010999---|


-----------------------------------------------------------------|
-----------------------------------------------------------------|
-----------------------------------------------------------___---|
----------------------------------------------------------/   \--|
-5-0-0-0-0-0-0-0-0-0-0-0-5-7-5-7-8-8-8-8-7-7-7-7-5-5-7-7-5-7-5-0-|
-----------------------------------------------------------------|

-----------------------------------------------------------------|
-----------------------------------------------------------------|
-----------------------------------------------------------___---|
----------------------------------------------------------/   \--|
-5-0-0-0-0-0-0-0-0-0-0-0-5-7-5-7-8-8-8-8-7-7-7-7-5-5-7-7-5-7-5-0-|
-----------------------------------------------------------------|

-----------------------------------------------------------------|
-----------------------------------------------------------------|
-----------------------------------------------------------___---|
----------------------------------------------------------/   \--|
-5-0-0-0-0-0-0-0-0-0-0-0-5-7-5-7-8-8-8-8-7-7-7-7-5-5-7-7-5-7-5-0-|
-----------------------------------------------------------------|

---------------------------------------------------------------|
---------------------------------------------------------------|
---------------------------------------------------------------|
---------------------------------------------------------------|
-------------888888999999--------------------------------2-5-6-|
-666666666666------------777777777777-101010999101010999-0-3-4-|
                                                         * *


5 stars or dont rate at all
comments
We did not receive enough feedback on this tab! Please rate:
print report bad tab
1 2 3 4 5
I want to post or [tab]
guest
You may want to rate the tab now too:
select rating
Please do not post tabs as comments. Select "correction" instead!